ISO-10303-21;
HEADER;
FILE_DESCRIPTION (( 'STEP AP214' ),
    '1' );
FILE_NAME ('07031.STEP',
    '2023-07-12T13:05:22',
    ( '' ),
    ( '' ),
    'SwSTEP 2.0',
    'SolidWorks 2023',
    '' );
FILE_SCHEMA (( 'AUTOMOTIVE_DESIGN' ));
ENDSEC;

DATA;
#1 = CARTESIAN_POINT ( 'NONE',  ( -6.123233995736772199E-17, 3.000000000000000444, 0.000000000000000000 ) ) ;
#2 = STYLED_ITEM ( 'NONE', ( #33 ), #227 ) ;
#3 = FILL_AREA_STYLE ('',( #207 ) ) ;
#4 = VECTOR ( 'NONE', #261, 39.37007874015748143 ) ;
#5 =( LENGTH_UNIT ( ) NAMED_UNIT ( * ) SI_UNIT ( $, .METRE. ) );
#6 = ORIENTED_EDGE ( 'NONE', *, *, #157, .T. ) ;
#7 = FACE_OUTER_BOUND ( 'NONE', #57, .T. ) ;
#8 = FILL_AREA_STYLE_COLOUR ( '', #105 ) ;
#9 = STYLED_ITEM ( 'NONE', ( #112 ), #52 ) ;
#10 = ORIENTED_EDGE ( 'NONE', *, *, #66, .F. ) ;
#11 = DIRECTION ( 'NONE',  ( 1.441642202635509481E-16, -1.000000000000000000, 0.000000000000000000 ) ) ;
#12 =( NAMED_UNIT ( * ) PLANE_ANGLE_UNIT ( ) SI_UNIT ( $, .RADIAN. ) );
#13 = MANIFOLD_SOLID_BREP ( 'Revolve - Cutting Edge', #240 ) ;
#14 = COLOUR_RGB ( '',0.7921568627450980005, 0.8196078431372548767, 0.9333333333333333481 ) ;
#15 = DIRECTION ( 'NONE',  ( -1.000000000000000000, 0.000000000000000000, 0.000000000000000000 ) ) ;
#16 = CARTESIAN_POINT ( 'NONE',  ( 2.899956267070462108E-18, 0.3249999999999988454, 0.000000000000000000 ) ) ;
#17 = AXIS2_PLACEMENT_3D ( 'NONE', #19, #212, #259 ) ;
#18 = AXIS2_PLACEMENT_3D ( 'NONE', #164, #293, #83 ) ;
#19 = CARTESIAN_POINT ( 'NONE',  ( 0.000000000000000000, 0.000000000000000000, 0.000000000000000000 ) ) ;
#20 =( GEOMETRIC_REPRESENTATION_CONTEXT ( 3 ) GLOBAL_UNCERTAINTY_ASSIGNED_CONTEXT ( ( #202 ) ) GLOBAL_UNIT_ASSIGNED_CONTEXT ( ( #253, #12, #137 ) ) REPRESENTATION_CONTEXT ( 'NONE', 'WORKASPACE' ) );
#21 = UNCERTAINTY_MEASURE_WITH_UNIT (LENGTH_MEASURE( 1.000000000000000082E-05 ), #29, 'distance_accuracy_value', 'NONE');
#22 = CARTESIAN_POINT ( 'NONE',  ( -0.3749999999999999445, 3.000000000000000444, 0.000000000000000000 ) ) ;
#23 = CARTESIAN_POINT ( 'NONE',  ( 3.980945018187602686E-36, 4.461471180108420132E-19, 0.000000000000000000 ) ) ;
#24 = CARTESIAN_POINT ( 'NONE',  ( -0.3750000000000001665, 3.000000000000000444, 0.000000000000000000 ) ) ;
#25 = EDGE_CURVE ( 'NONE', #197, #178, #201, .T. ) ;
#26 = SURFACE_SIDE_STYLE ('',( #294 ) ) ;
#27 = FILL_AREA_STYLE_COLOUR ( '', #111 ) ;
#28 = DIRECTION ( 'NONE',  ( -1.441642202635509481E-16, 1.000000000000000000, -0.000000000000000000 ) ) ;
#29 =( CONVERSION_BASED_UNIT ( 'INCH', #56 ) LENGTH_UNIT ( ) NAMED_UNIT ( #199 ) );
#30 =( CONVERSION_BASED_UNIT ( 'INCH', #270 ) LENGTH_UNIT ( ) NAMED_UNIT ( #119 ) );
#31 = AXIS2_PLACEMENT_3D ( 'NONE', #309, #154, #213 ) ;
#32 = ORIENTED_EDGE ( 'NONE', *, *, #296, .T. ) ;
#33 = PRESENTATION_STYLE_ASSIGNMENT (( #268 ) ) ;
#34 = ORIENTED_EDGE ( 'NONE', *, *, #25, .F. ) ;
#35 = EDGE_CURVE ( 'NONE', #159, #206, #191, .T. ) ;
#36 = ORIENTED_EDGE ( 'NONE', *, *, #296, .F. ) ;
#37 =( LENGTH_UNIT ( ) NAMED_UNIT ( * ) SI_UNIT ( $, .METRE. ) );
#38 = DIRECTION ( 'NONE',  ( -1.441642202635509481E-16, 1.000000000000000000, -0.000000000000000000 ) ) ;
#39 = AXIS2_PLACEMENT_3D ( 'NONE', #23, #246, #142 ) ;
#40 = CARTESIAN_POINT ( 'NONE',  ( 2.899956267070462108E-18, 0.3249999999999988454, 0.000000000000000000 ) ) ;
#41 = FILL_AREA_STYLE_COLOUR ( '', #131 ) ;
#42 = PRODUCT_CONTEXT ( 'NONE', #147, 'mechanical' ) ;
#43 = DIRECTION ( 'NONE',  ( 8.922942360216838723E-18, 1.000000000000000000, 0.000000000000000000 ) ) ;
#44 = STYLED_ITEM ( 'NONE', ( #132 ), #13 ) ;
#45 = STYLED_ITEM ( 'NONE', ( #120 ), #185 ) ;
#46 = FACE_OUTER_BOUND ( 'NONE', #130, .T. ) ;
#47 = CARTESIAN_POINT ( 'NONE',  ( 0.05000000000000000278, 0.000000000000000000, 6.123233995736766344E-18 ) ) ;
#48 = ORIENTED_EDGE ( 'NONE', *, *, #25, .T. ) ;
#49 = APPLICATION_PROTOCOL_DEFINITION ( 'draft international standard', 'automotive_design', 1998, #147 ) ;
#50 = DIRECTION ( 'NONE',  ( -1.000000000000000000, 0.000000000000000000, 0.000000000000000000 ) ) ;
#51 = SURFACE_STYLE_FILL_AREA ( #3 ) ;
#52 = ADVANCED_FACE ( 'NONE', ( #279 ), #90, .T. ) ;
#53 = CONICAL_SURFACE ( 'NONE', #168, 0.05000000000000000278, 0.7853981633974500554 ) ;
#54 = FILL_AREA_STYLE ('',( #8 ) ) ;
#55 = UNCERTAINTY_MEASURE_WITH_UNIT (LENGTH_MEASURE( 1.000000000000000082E-05 ), #93, 'distance_accuracy_value', 'NONE');
#56 = LENGTH_MEASURE_WITH_UNIT ( LENGTH_MEASURE( 0.02539999999999999897 ), #179 );
#57 = EDGE_LOOP ( 'NONE', ( #73, #274 ) ) ;
#58 = STYLED_ITEM ( 'NONE', ( #220 ), #224 ) ;
#59 = CARTESIAN_POINT ( 'NONE',  ( 2.899956267070462108E-18, 0.3249999999999988454, 0.000000000000000000 ) ) ;
#60 = EDGE_LOOP ( 'NONE', ( #226, #251 ) ) ;
#61 = EDGE_LOOP ( 'NONE', ( #186, #32, #183, #80 ) ) ;
#62 = AXIS2_PLACEMENT_3D ( 'NONE', #230, #38, #15 ) ;
#63 = DIRECTION ( 'NONE',  ( -1.441642202635509481E-16, 1.000000000000000000, -0.000000000000000000 ) ) ;
#64 = FILL_AREA_STYLE ('',( #41 ) ) ;
#65 = PRESENTATION_LAYER_ASSIGNMENT (  '', '', ( #58 ) ) ;
#66 = EDGE_CURVE ( 'NONE', #103, #175, #187, .T. ) ;
#67 = FILL_AREA_STYLE_COLOUR ( '', #152 ) ;
#68 =( NAMED_UNIT ( * ) PLANE_ANGLE_UNIT ( ) SI_UNIT ( $, .RADIAN. ) );
#69 =( NAMED_UNIT ( * ) PLANE_ANGLE_UNIT ( ) SI_UNIT ( $, .RADIAN. ) );
#70 = PRODUCT_DEFINITION ( 'UNKNOWN', '', #210, #88 ) ;
#71 = CIRCLE ( 'NONE', #39, 0.05000000000000000278 ) ;
#72 = LINE ( 'NONE', #75, #181 ) ;
#73 = ORIENTED_EDGE ( 'NONE', *, *, #35, .F. ) ;
#74 = DIRECTION ( 'NONE',  ( -1.441642202635509481E-16, 1.000000000000000000, -0.000000000000000000 ) ) ;
#75 = CARTESIAN_POINT ( 'NONE',  ( -0.05000000000000000278, 8.922942360216840263E-19, 0.000000000000000000 ) ) ;
#76 = PRESENTATION_LAYER_ASSIGNMENT (  '', '', ( #44 ) ) ;
#77 = EDGE_CURVE ( 'NONE', #206, #159, #87, .T. ) ;
#78 = ORIENTED_EDGE ( 'NONE', *, *, #150, .T. ) ;
#79 = AXIS2_PLACEMENT_3D ( 'NONE', #59, #160, #229 ) ;
#80 = ORIENTED_EDGE ( 'NONE', *, *, #157, .F. ) ;
#81 = EDGE_LOOP ( 'NONE', ( #262, #252, #129, #96 ) ) ;
#82 = MECHANICAL_DESIGN_GEOMETRIC_PRESENTATION_REPRESENTATION (  '', ( #58 ), #107 ) ;
#83 = DIRECTION ( 'NONE',  ( -1.000000000000000000, -1.441642202635509481E-16, 0.000000000000000000 ) ) ;
#84 = SURFACE_STYLE_USAGE ( .BOTH. , #26 ) ;
#85 = ADVANCED_FACE ( 'NONE', ( #281 ), #108, .T. ) ;
#86 =( CONVERSION_BASED_UNIT ( 'INCH', #89 ) LENGTH_UNIT ( ) NAMED_UNIT ( #260 ) );
#87 = CIRCLE ( 'NONE', #101, 0.3749999999999996669 ) ;
#88 = PRODUCT_DEFINITION_CONTEXT ( 'detailed design', #194, 'design' ) ;
#89 = LENGTH_MEASURE_WITH_UNIT ( LENGTH_MEASURE( 0.02539999999999999897 ), #295 );
#90 = PLANE ( 'NONE',  #239 ) ;
#91 = DIRECTION ( 'NONE',  ( -1.441642202635509481E-16, 1.000000000000000000, -0.000000000000000000 ) ) ;
#92 = PRODUCT_DEFINITION_SHAPE ( 'NONE', 'NONE',  #70 ) ;
#93 =( CONVERSION_BASED_UNIT ( 'INCH', #214 ) LENGTH_UNIT ( ) NAMED_UNIT ( #151 ) );
#94 = PRESENTATION_LAYER_ASSIGNMENT (  '', '', ( #9 ) ) ;
#95 = SURFACE_SIDE_STYLE ('',( #282 ) ) ;
#96 = ORIENTED_EDGE ( 'NONE', *, *, #66, .T. ) ;
#97 = DIMENSIONAL_EXPONENTS ( 1.000000000000000000, 0.000000000000000000, 0.000000000000000000, 0.000000000000000000, 0.000000000000000000, 0.000000000000000000, 0.000000000000000000 ) ;
#98 = LINE ( 'NONE', #47, #192 ) ;
#99 = PRODUCT_RELATED_PRODUCT_CATEGORY ( 'part', '', ( #139 ) ) ;
#100 = CYLINDRICAL_SURFACE ( 'NONE', #243, 0.3749999999999998890 ) ;
#101 = AXIS2_PLACEMENT_3D ( 'NONE', #299, #91, #190 ) ;
#102 = DIRECTION ( 'NONE',  ( -1.000000000000000000, 0.000000000000000000, 0.000000000000000000 ) ) ;
#103 = VERTEX_POINT ( 'NONE', #300 ) ;
#104 = UNCERTAINTY_MEASURE_WITH_UNIT (LENGTH_MEASURE( 1.000000000000000082E-05 ), #86, 'distance_accuracy_value', 'NONE');
#105 = COLOUR_RGB ( '',0.7921568627450980005, 0.8196078431372548767, 0.9333333333333333481 ) ;
#106 = PLANE ( 'NONE',  #18 ) ;
#107 =( GEOMETRIC_REPRESENTATION_CONTEXT ( 3 ) GLOBAL_UNCERTAINTY_ASSIGNED_CONTEXT ( ( #21 ) ) GLOBAL_UNIT_ASSIGNED_CONTEXT ( ( #29, #126, #222 ) ) REPRESENTATION_CONTEXT ( 'NONE', 'WORKASPACE' ) );
#108 = PLANE ( 'NONE',  #232 ) ;
#109 = DIRECTION ( 'NONE',  ( 1.000000000000000000, 1.441642202635509481E-16, 0.000000000000000000 ) ) ;
#110 = PRESENTATION_STYLE_ASSIGNMENT (( #256 ) ) ;
#111 = COLOUR_RGB ( '',1.000000000000000000, 0.000000000000000000, 0.000000000000000000 ) ;
#112 = PRESENTATION_STYLE_ASSIGNMENT (( #136 ) ) ;
#113 = DIRECTION ( 'NONE',  ( 1.000000000000000000, 0.000000000000000000, 0.000000000000000000 ) ) ;
#114 =( NAMED_UNIT ( * ) SI_UNIT ( $, .STERADIAN. ) SOLID_ANGLE_UNIT ( ) );
#115 = CARTESIAN_POINT ( 'NONE',  ( 0.3750000000000000555, 3.000000000000000444, 4.592425496802573602E-17 ) ) ;
#116 = CLOSED_SHELL ( 'NONE', ( #307, #255, #200, #308 ) ) ;
#117 =( LENGTH_UNIT ( ) NAMED_UNIT ( * ) SI_UNIT ( $, .METRE. ) );
#118 = FILL_AREA_STYLE ('',( #27 ) ) ;
#119 = DIMENSIONAL_EXPONENTS ( 1.000000000000000000, 0.000000000000000000, 0.000000000000000000, 0.000000000000000000, 0.000000000000000000, 0.000000000000000000, 0.000000000000000000 ) ;
#120 = PRESENTATION_STYLE_ASSIGNMENT (( #193 ) ) ;
#121 =( CONVERSION_BASED_UNIT ( 'INCH', #244 ) LENGTH_UNIT ( ) NAMED_UNIT ( #97 ) );
#122 = CONICAL_SURFACE ( 'NONE', #158, 0.05000000000000000278, 0.7853981633974500554 ) ;
#123 = SURFACE_SIDE_STYLE ('',( #245 ) ) ;
#124 = DIMENSIONAL_EXPONENTS ( 1.000000000000000000, 0.000000000000000000, 0.000000000000000000, 0.000000000000000000, 0.000000000000000000, 0.000000000000000000, 0.000000000000000000 ) ;
#125 = FACE_OUTER_BOUND ( 'NONE', #61, .T. ) ;
#126 =( NAMED_UNIT ( * ) PLANE_ANGLE_UNIT ( ) SI_UNIT ( $, .RADIAN. ) );
#127 = PRESENTATION_LAYER_ASSIGNMENT (  '', '', ( #143 ) ) ;
#128 =( NAMED_UNIT ( * ) SI_UNIT ( $, .STERADIAN. ) SOLID_ANGLE_UNIT ( ) );
#129 = ORIENTED_EDGE ( 'NONE', *, *, #133, .T. ) ;
#130 = EDGE_LOOP ( 'NONE', ( #219, #78, #286, #272 ) ) ;
#131 = COLOUR_RGB ( '',1.000000000000000000, 0.000000000000000000, 0.000000000000000000 ) ;
#132 = PRESENTATION_STYLE_ASSIGNMENT (( #84 ) ) ;
#133 = EDGE_CURVE ( 'NONE', #290, #103, #72, .T. ) ;
#134 = FILL_AREA_STYLE ('',( #67 ) ) ;
#135 = FACE_OUTER_BOUND ( 'NONE', #165, .T. ) ;
#136 = SURFACE_STYLE_USAGE ( .BOTH. , #297 ) ;
#137 =( NAMED_UNIT ( * ) SI_UNIT ( $, .STERADIAN. ) SOLID_ANGLE_UNIT ( ) );
#138 = AXIS2_PLACEMENT_3D ( 'NONE', #16, #188, #113 ) ;
#139 = PRODUCT ( '07031', '07031', '', ( #42 ) ) ;
#140 = CARTESIAN_POINT ( 'NONE',  ( 3.244069492476312449E-16, 0.3249999999999988454, 0.000000000000000000 ) ) ;
#141 = SURFACE_STYLE_FILL_AREA ( #134 ) ;
#142 = DIRECTION ( 'NONE',  ( 1.000000000000000000, -8.922942360216840263E-18, 0.000000000000000000 ) ) ;
#143 = STYLED_ITEM ( 'NONE', ( #110 ), #85 ) ;
#144 = EDGE_CURVE ( 'NONE', #161, #290, #171, .T. ) ;
#145 = DIMENSIONAL_EXPONENTS ( 1.000000000000000000, 0.000000000000000000, 0.000000000000000000, 0.000000000000000000, 0.000000000000000000, 0.000000000000000000, 0.000000000000000000 ) ;
#146 = DIRECTION ( 'NONE',  ( -1.000000000000000000, 8.922942360216840263E-18, 0.000000000000000000 ) ) ;
#147 = APPLICATION_CONTEXT ( 'automotive_design' ) ;
#148 = EDGE_LOOP ( 'NONE', ( #36, #208, #6, #34 ) ) ;
#149 = FILL_AREA_STYLE ('',( #285 ) ) ;
#150 = EDGE_CURVE ( 'NONE', #161, #175, #98, .T. ) ;
#151 = DIMENSIONAL_EXPONENTS ( 1.000000000000000000, 0.000000000000000000, 0.000000000000000000, 0.000000000000000000, 0.000000000000000000, 0.000000000000000000, 0.000000000000000000 ) ;
#152 = COLOUR_RGB ( '',1.000000000000000000, 0.000000000000000000, 0.000000000000000000 ) ;
#153 = UNCERTAINTY_MEASURE_WITH_UNIT (LENGTH_MEASURE( 1.000000000000000082E-05 ), #121, 'distance_accuracy_value', 'NONE');
#154 = DIRECTION ( 'NONE',  ( -8.922942360216838723E-18, -1.000000000000000000, -0.000000000000000000 ) ) ;
#155 = FACE_OUTER_BOUND ( 'NONE', #81, .T. ) ;
#156 = VECTOR ( 'NONE', #28, 39.37007874015748143 ) ;
#157 = EDGE_CURVE ( 'NONE', #159, #178, #198, .T. ) ;
#158 = AXIS2_PLACEMENT_3D ( 'NONE', #257, #43, #146 ) ;
#159 = VERTEX_POINT ( 'NONE', #216 ) ;
#160 = DIRECTION ( 'NONE',  ( -8.922942360216838723E-18, -1.000000000000000000, -0.000000000000000000 ) ) ;
#161 = VERTEX_POINT ( 'NONE', #263 ) ;
#162 = DIRECTION ( 'NONE',  ( -1.000000000000000000, 0.000000000000000000, 0.000000000000000000 ) ) ;
#163 =( GEOMETRIC_REPRESENTATION_CONTEXT ( 3 ) GLOBAL_UNCERTAINTY_ASSIGNED_CONTEXT ( ( #276 ) ) GLOBAL_UNIT_ASSIGNED_CONTEXT ( ( #237, #69, #114 ) ) REPRESENTATION_CONTEXT ( 'NONE', 'WORKASPACE' ) );
#164 = CARTESIAN_POINT ( 'NONE',  ( 3.244069492476312449E-16, 0.3249999999999988454, 0.000000000000000000 ) ) ;
#165 = EDGE_LOOP ( 'NONE', ( #180, #48 ) ) ;
#166 =( GEOMETRIC_REPRESENTATION_CONTEXT ( 3 ) GLOBAL_UNCERTAINTY_ASSIGNED_CONTEXT ( ( #153 ) ) GLOBAL_UNIT_ASSIGNED_CONTEXT ( ( #121, #289, #128 ) ) REPRESENTATION_CONTEXT ( 'NONE', 'WORKASPACE' ) );
#167 =( NAMED_UNIT ( * ) SI_UNIT ( $, .STERADIAN. ) SOLID_ANGLE_UNIT ( ) );
#168 = AXIS2_PLACEMENT_3D ( 'NONE', #177, #182, #267 ) ;
#169 = DIRECTION ( 'NONE',  ( -1.000000000000000000, 8.922942360216838723E-18, 0.000000000000000000 ) ) ;
#170 = SURFACE_STYLE_FILL_AREA ( #64 ) ;
#171 = CIRCLE ( 'NONE', #31, 0.05000000000000000278 ) ;
#172 = SURFACE_SIDE_STYLE ('',( #141 ) ) ;
#173 = CARTESIAN_POINT ( 'NONE',  ( 0.3750000000000000555, 0.3249999999999988454, 4.592425496802574219E-17 ) ) ;
#174 = CARTESIAN_POINT ( 'NONE',  ( -6.123233995736770966E-17, 3.000000000000000444, 0.000000000000000000 ) ) ;
#175 = VERTEX_POINT ( 'NONE', #173 ) ;
#176 = DIRECTION ( 'NONE',  ( 1.000000000000000000, -8.922942360216838723E-18, 0.000000000000000000 ) ) ;
#177 = CARTESIAN_POINT ( 'NONE',  ( 3.980945018187602686E-36, 4.461471180108420132E-19, 0.000000000000000000 ) ) ;
#178 = VERTEX_POINT ( 'NONE', #24 ) ;
#179 =( LENGTH_UNIT ( ) NAMED_UNIT ( * ) SI_UNIT ( $, .METRE. ) );
#180 = ORIENTED_EDGE ( 'NONE', *, *, #225, .T. ) ;
#181 = VECTOR ( 'NONE', #305, 39.37007874015748854 ) ;
#182 = DIRECTION ( 'NONE',  ( 8.922942360216838723E-18, 1.000000000000000000, 0.000000000000000000 ) ) ;
#183 = ORIENTED_EDGE ( 'NONE', *, *, #225, .F. ) ;
#184 = LINE ( 'NONE', #273, #156 ) ;
#185 = ADVANCED_FACE ( 'NONE', ( #46 ), #122, .T. ) ;
#186 = ORIENTED_EDGE ( 'NONE', *, *, #35, .T. ) ;
#187 = CIRCLE ( 'NONE', #138, 0.3750000000000000555 ) ;
#188 = DIRECTION ( 'NONE',  ( -8.922942360216838723E-18, -1.000000000000000000, -0.000000000000000000 ) ) ;
#189 = EDGE_CURVE ( 'NONE', #290, #161, #71, .T. ) ;
#190 = DIRECTION ( 'NONE',  ( -1.000000000000000000, -1.821231995776177205E-16, 0.000000000000000000 ) ) ;
#191 = CIRCLE ( 'NONE', #266, 0.3749999999999996669 ) ;
#192 = VECTOR ( 'NONE', #258, 39.37007874015748854 ) ;
#193 = SURFACE_STYLE_USAGE ( .BOTH. , #95 ) ;
#194 = APPLICATION_CONTEXT ( 'automotive_design' ) ;
#195 = MECHANICAL_DESIGN_GEOMETRIC_PRESENTATION_REPRESENTATION (  '', ( #45 ), #218 ) ;
#196 =( LENGTH_UNIT ( ) NAMED_UNIT ( * ) SI_UNIT ( $, .METRE. ) );
#197 = VERTEX_POINT ( 'NONE', #115 ) ;
#198 = LINE ( 'NONE', #22, #4 ) ;
#199 = DIMENSIONAL_EXPONENTS ( 1.000000000000000000, 0.000000000000000000, 0.000000000000000000, 0.000000000000000000, 0.000000000000000000, 0.000000000000000000, 0.000000000000000000 ) ;
#200 = ADVANCED_FACE ( 'NONE', ( #304 ), #265, .T. ) ;
#201 = CIRCLE ( 'NONE', #62, 0.3750000000000001110 ) ;
#202 = UNCERTAINTY_MEASURE_WITH_UNIT (LENGTH_MEASURE( 1.000000000000000082E-05 ), #253, 'distance_accuracy_value', 'NONE');
#203 = SURFACE_SIDE_STYLE ('',( #51 ) ) ;
#204 = AXIS2_PLACEMENT_3D ( 'NONE', #174, #221, #102 ) ;
#205 =( NAMED_UNIT ( * ) PLANE_ANGLE_UNIT ( ) SI_UNIT ( $, .RADIAN. ) );
#206 = VERTEX_POINT ( 'NONE', #242 ) ;
#207 = FILL_AREA_STYLE_COLOUR ( '', #303 ) ;
#208 = ORIENTED_EDGE ( 'NONE', *, *, #77, .T. ) ;
#209 = LENGTH_MEASURE_WITH_UNIT ( LENGTH_MEASURE( 0.02539999999999999897 ), #37 );
#210 = PRODUCT_DEFINITION_FORMATION_WITH_SPECIFIED_SOURCE ( 'ANY', '', #139, .NOT_KNOWN. ) ;
#211 = DIRECTION ( 'NONE',  ( -1.000000000000000000, -1.821231995776177205E-16, 0.000000000000000000 ) ) ;
#212 = DIRECTION ( 'NONE',  ( 0.000000000000000000, 0.000000000000000000, 1.000000000000000000 ) ) ;
#213 = DIRECTION ( 'NONE',  ( 1.000000000000000000, -8.922942360216840263E-18, 0.000000000000000000 ) ) ;
#214 = LENGTH_MEASURE_WITH_UNIT ( LENGTH_MEASURE( 0.02539999999999999897 ), #196 );
#215 = LENGTH_MEASURE_WITH_UNIT ( LENGTH_MEASURE( 0.02539999999999999897 ), #117 );
#216 = CARTESIAN_POINT ( 'NONE',  ( -0.3749999999999993339, 0.3249999999999987899, 0.000000000000000000 ) ) ;
#217 = MECHANICAL_DESIGN_GEOMETRIC_PRESENTATION_REPRESENTATION (  '', ( #44 ), #166 ) ;
#218 =( GEOMETRIC_REPRESENTATION_CONTEXT ( 3 ) GLOBAL_UNCERTAINTY_ASSIGNED_CONTEXT ( ( #55 ) ) GLOBAL_UNIT_ASSIGNED_CONTEXT ( ( #93, #68, #283 ) ) REPRESENTATION_CONTEXT ( 'NONE', 'WORKASPACE' ) );
#219 = ORIENTED_EDGE ( 'NONE', *, *, #144, .F. ) ;
#220 = PRESENTATION_STYLE_ASSIGNMENT (( #302 ) ) ;
#221 = DIRECTION ( 'NONE',  ( -1.441642202635509481E-16, 1.000000000000000000, -0.000000000000000000 ) ) ;
#222 =( NAMED_UNIT ( * ) SI_UNIT ( $, .STERADIAN. ) SOLID_ANGLE_UNIT ( ) );
#223 = MECHANICAL_DESIGN_GEOMETRIC_PRESENTATION_REPRESENTATION (  '', ( #143 ), #292 ) ;
#224 = MANIFOLD_SOLID_BREP ( 'Revolve - Tool Body (Tipped Off)', #116 ) ;
#225 = EDGE_CURVE ( 'NONE', #178, #197, #280, .T. ) ;
#226 = ORIENTED_EDGE ( 'NONE', *, *, #189, .T. ) ;
#227 = ADVANCED_FACE ( 'NONE', ( #155 ), #53, .T. ) ;
#228 = AXIS2_PLACEMENT_3D ( 'NONE', #233, #11, #109 ) ;
#229 = DIRECTION ( 'NONE',  ( 1.000000000000000000, 0.000000000000000000, 0.000000000000000000 ) ) ;
#230 = CARTESIAN_POINT ( 'NONE',  ( -6.123233995736770966E-17, 3.000000000000000444, 0.000000000000000000 ) ) ;
#231 = PLANE ( 'NONE',  #228 ) ;
#232 = AXIS2_PLACEMENT_3D ( 'NONE', #278, #241, #176 ) ;
#233 = CARTESIAN_POINT ( 'NONE',  ( 0.3750000000000000555, 3.000000000000000444, 0.000000000000000000 ) ) ;
#234 =( GEOMETRIC_REPRESENTATION_CONTEXT ( 3 ) GLOBAL_UNCERTAINTY_ASSIGNED_CONTEXT ( ( #247 ) ) GLOBAL_UNIT_ASSIGNED_CONTEXT ( ( #30, #205, #248 ) ) REPRESENTATION_CONTEXT ( 'NONE', 'WORKASPACE' ) );
#235 = DIRECTION ( 'NONE',  ( -1.441642202635509481E-16, 1.000000000000000000, -0.000000000000000000 ) ) ;
#236 = DIRECTION ( 'NONE',  ( 8.922942360216838723E-18, 1.000000000000000000, 0.000000000000000000 ) ) ;
#237 =( CONVERSION_BASED_UNIT ( 'INCH', #215 ) LENGTH_UNIT ( ) NAMED_UNIT ( #145 ) );
#238 = CARTESIAN_POINT ( 'NONE',  ( -6.123233995736772199E-17, 3.000000000000000444, 0.000000000000000000 ) ) ;
#239 = AXIS2_PLACEMENT_3D ( 'NONE', #40, #236, #169 ) ;
#240 = CLOSED_SHELL ( 'NONE', ( #185, #52, #227, #85 ) ) ;
#241 = DIRECTION ( 'NONE',  ( -8.922942360216838723E-18, -1.000000000000000000, 0.000000000000000000 ) ) ;
#242 = CARTESIAN_POINT ( 'NONE',  ( 0.3750000000000000555, 0.3249999999999989009, 4.592425496802573602E-17 ) ) ;
#243 = AXIS2_PLACEMENT_3D ( 'NONE', #1, #235, #162 ) ;
#244 = LENGTH_MEASURE_WITH_UNIT ( LENGTH_MEASURE( 0.02539999999999999897 ), #5 );
#245 = SURFACE_STYLE_FILL_AREA ( #149 ) ;
#246 = DIRECTION ( 'NONE',  ( -8.922942360216838723E-18, -1.000000000000000000, -0.000000000000000000 ) ) ;
#247 = UNCERTAINTY_MEASURE_WITH_UNIT (LENGTH_MEASURE( 1.000000000000000082E-05 ), #30, 'distance_accuracy_value', 'NONE');
#248 =( NAMED_UNIT ( * ) SI_UNIT ( $, .STERADIAN. ) SOLID_ANGLE_UNIT ( ) );
#249 = EDGE_CURVE ( 'NONE', #175, #103, #264, .T. ) ;
#250 = ORIENTED_EDGE ( 'NONE', *, *, #249, .F. ) ;
#251 = ORIENTED_EDGE ( 'NONE', *, *, #144, .T. ) ;
#252 = ORIENTED_EDGE ( 'NONE', *, *, #189, .F. ) ;
#253 =( CONVERSION_BASED_UNIT ( 'INCH', #209 ) LENGTH_UNIT ( ) NAMED_UNIT ( #124 ) );
#254 = AXIS2_PLACEMENT_3D ( 'NONE', #238, #74, #50 ) ;
#255 = ADVANCED_FACE ( 'NONE', ( #7 ), #106, .F. ) ;
#256 = SURFACE_STYLE_USAGE ( .BOTH. , #172 ) ;
#257 = CARTESIAN_POINT ( 'NONE',  ( 3.980945018187602686E-36, 4.461471180108420132E-19, 0.000000000000000000 ) ) ;
#258 = DIRECTION ( 'NONE',  ( 0.7071067811865486830, 0.7071067811865462405, 8.659560562354947649E-17 ) ) ;
#259 = DIRECTION ( 'NONE',  ( 1.000000000000000000, 0.000000000000000000, 0.000000000000000000 ) ) ;
#260 = DIMENSIONAL_EXPONENTS ( 1.000000000000000000, 0.000000000000000000, 0.000000000000000000, 0.000000000000000000, 0.000000000000000000, 0.000000000000000000, 0.000000000000000000 ) ;
#261 = DIRECTION ( 'NONE',  ( -1.441642202635509481E-16, 1.000000000000000000, -0.000000000000000000 ) ) ;
#262 = ORIENTED_EDGE ( 'NONE', *, *, #150, .F. ) ;
#263 = CARTESIAN_POINT ( 'NONE',  ( 0.05000000000000000278, 0.000000000000000000, 2.602374448188125966E-17 ) ) ;
#264 = CIRCLE ( 'NONE', #79, 0.3750000000000000555 ) ;
#265 = CYLINDRICAL_SURFACE ( 'NONE', #254, 0.3749999999999998890 ) ;
#266 = AXIS2_PLACEMENT_3D ( 'NONE', #140, #63, #211 ) ;
#267 = DIRECTION ( 'NONE',  ( -1.000000000000000000, 8.922942360216840263E-18, 0.000000000000000000 ) ) ;
#268 = SURFACE_STYLE_USAGE ( .BOTH. , #203 ) ;
#269 = EDGE_LOOP ( 'NONE', ( #10, #250 ) ) ;
#270 = LENGTH_MEASURE_WITH_UNIT ( LENGTH_MEASURE( 0.02539999999999999897 ), #271 );
#271 =( LENGTH_UNIT ( ) NAMED_UNIT ( * ) SI_UNIT ( $, .METRE. ) );
#272 = ORIENTED_EDGE ( 'NONE', *, *, #133, .F. ) ;
#273 = CARTESIAN_POINT ( 'NONE',  ( 0.3749999999999998335, 3.000000000000000444, 4.592425496802572986E-17 ) ) ;
#274 = ORIENTED_EDGE ( 'NONE', *, *, #77, .F. ) ;
#275 = MECHANICAL_DESIGN_GEOMETRIC_PRESENTATION_REPRESENTATION (  '', ( #2 ), #234 ) ;
#276 = UNCERTAINTY_MEASURE_WITH_UNIT (LENGTH_MEASURE( 1.000000000000000082E-05 ), #237, 'distance_accuracy_value', 'NONE');
#277 =( NAMED_UNIT ( * ) PLANE_ANGLE_UNIT ( ) SI_UNIT ( $, .RADIAN. ) );
#278 = CARTESIAN_POINT ( 'NONE',  ( 1.990472509093801343E-36, 2.230735590054210066E-19, 0.000000000000000000 ) ) ;
#279 = FACE_OUTER_BOUND ( 'NONE', #269, .T. ) ;
#280 = CIRCLE ( 'NONE', #204, 0.3750000000000001110 ) ;
#281 = FACE_OUTER_BOUND ( 'NONE', #60, .T. ) ;
#282 = SURFACE_STYLE_FILL_AREA ( #118 ) ;
#283 =( NAMED_UNIT ( * ) SI_UNIT ( $, .STERADIAN. ) SOLID_ANGLE_UNIT ( ) );
#284 = MECHANICAL_DESIGN_GEOMETRIC_PRESENTATION_REPRESENTATION (  '', ( #9 ), #20 ) ;
#285 = FILL_AREA_STYLE_COLOUR ( '', #14 ) ;
#286 = ORIENTED_EDGE ( 'NONE', *, *, #249, .T. ) ;
#287 = PRESENTATION_LAYER_ASSIGNMENT (  '', '', ( #2 ) ) ;
#288 = CARTESIAN_POINT ( 'NONE',  ( -0.05000000000000000278, 8.922942360216840263E-19, 0.000000000000000000 ) ) ;
#289 =( NAMED_UNIT ( * ) PLANE_ANGLE_UNIT ( ) SI_UNIT ( $, .RADIAN. ) );
#290 = VERTEX_POINT ( 'NONE', #288 ) ;
#291 = ADVANCED_BREP_SHAPE_REPRESENTATION ( '07031', ( #13, #224, #17 ), #163 ) ;
#292 =( GEOMETRIC_REPRESENTATION_CONTEXT ( 3 ) GLOBAL_UNCERTAINTY_ASSIGNED_CONTEXT ( ( #104 ) ) GLOBAL_UNIT_ASSIGNED_CONTEXT ( ( #86, #277, #167 ) ) REPRESENTATION_CONTEXT ( 'NONE', 'WORKASPACE' ) );
#293 = DIRECTION ( 'NONE',  ( -1.441642202635509481E-16, 1.000000000000000000, 0.000000000000000000 ) ) ;
#294 = SURFACE_STYLE_FILL_AREA ( #54 ) ;
#295 =( LENGTH_UNIT ( ) NAMED_UNIT ( * ) SI_UNIT ( $, .METRE. ) );
#296 = EDGE_CURVE ( 'NONE', #206, #197, #184, .T. ) ;
#297 = SURFACE_SIDE_STYLE ('',( #170 ) ) ;
#298 = APPLICATION_PROTOCOL_DEFINITION ( 'draft international standard', 'automotive_design', 1998, #194 ) ;
#299 = CARTESIAN_POINT ( 'NONE',  ( 3.244069492476312449E-16, 0.3249999999999988454, 0.000000000000000000 ) ) ;
#300 = CARTESIAN_POINT ( 'NONE',  ( -0.3750000000000000555, 0.3249999999999988454, 0.000000000000000000 ) ) ;
#301 = SHAPE_DEFINITION_REPRESENTATION ( #92, #291 ) ;
#302 = SURFACE_STYLE_USAGE ( .BOTH. , #123 ) ;
#303 = COLOUR_RGB ( '',1.000000000000000000, 0.000000000000000000, 0.000000000000000000 ) ;
#304 = FACE_OUTER_BOUND ( 'NONE', #148, .T. ) ;
#305 = DIRECTION ( 'NONE',  ( -0.7071067811865486830, 0.7071067811865462405, 0.000000000000000000 ) ) ;
#306 = PRESENTATION_LAYER_ASSIGNMENT (  '', '', ( #45 ) ) ;
#307 = ADVANCED_FACE ( 'NONE', ( #125 ), #100, .T. ) ;
#308 = ADVANCED_FACE ( 'NONE', ( #135 ), #231, .F. ) ;
#309 = CARTESIAN_POINT ( 'NONE',  ( 3.980945018187602686E-36, 4.461471180108420132E-19, 0.000000000000000000 ) ) ;
ENDSEC;
END-ISO-10303-21;
