ISO-10303-21;
HEADER;
FILE_DESCRIPTION (( 'STEP AP214' ),
    '1' );
FILE_NAME ('03212.STEP',
    '2023-06-22T15:03:34',
    ( '' ),
    ( '' ),
    'SwSTEP 2.0',
    'SolidWorks 2023',
    '' );
FILE_SCHEMA (( 'AUTOMOTIVE_DESIGN' ));
ENDSEC;

DATA;
#1 = CARTESIAN_POINT ( 'NONE',  ( 0.1249999999999999861, 4.000000000000000000, 1.530808498934192125E-17 ) ) ;
#2 = VERTEX_POINT ( 'NONE', #220 ) ;
#3 = COLOUR_RGB ( '',1.000000000000000000, 0.000000000000000000, 0.000000000000000000 ) ;
#4 = DIRECTION ( 'NONE',  ( -0.000000000000000000, -1.000000000000000000, -0.000000000000000000 ) ) ;
#5 = AXIS2_PLACEMENT_3D ( 'NONE', #198, #67, #201 ) ;
#6 = FACE_OUTER_BOUND ( 'NONE', #290, .T. ) ;
#7 = EDGE_LOOP ( 'NONE', ( #170, #54 ) ) ;
#8 = CYLINDRICAL_SURFACE ( 'NONE', #134, 0.1250000000000000278 ) ;
#9 = SURFACE_SIDE_STYLE ('',( #169 ) ) ;
#10 =( GEOMETRIC_REPRESENTATION_CONTEXT ( 3 ) GLOBAL_UNCERTAINTY_ASSIGNED_CONTEXT ( ( #39 ) ) GLOBAL_UNIT_ASSIGNED_CONTEXT ( ( #226, #161, #219 ) ) REPRESENTATION_CONTEXT ( 'NONE', 'WORKASPACE' ) );
#11 = PRESENTATION_LAYER_ASSIGNMENT (  '', '', ( #221 ) ) ;
#12 = APPLICATION_PROTOCOL_DEFINITION ( 'draft international standard', 'automotive_design', 1998, #70 ) ;
#13 = DIMENSIONAL_EXPONENTS ( 1.000000000000000000, 0.000000000000000000, 0.000000000000000000, 0.000000000000000000, 0.000000000000000000, 0.000000000000000000, 0.000000000000000000 ) ;
#14 = ORIENTED_EDGE ( 'NONE', *, *, #225, .T. ) ;
#15 = STYLED_ITEM ( 'NONE', ( #71 ), #63 ) ;
#16 = PRESENTATION_STYLE_ASSIGNMENT (( #44 ) ) ;
#17 =( LENGTH_UNIT ( ) NAMED_UNIT ( * ) SI_UNIT ( $, .METRE. ) );
#18 = FACE_OUTER_BOUND ( 'NONE', #120, .T. ) ;
#19 = LINE ( 'NONE', #165, #46 ) ;
#20 = FACE_OUTER_BOUND ( 'NONE', #147, .T. ) ;
#21 = ADVANCED_FACE ( 'NONE', ( #6 ), #102, .T. ) ;
#22 = FACE_OUTER_BOUND ( 'NONE', #32, .T. ) ;
#23 = CARTESIAN_POINT ( 'NONE',  ( 0.000000000000000000, 0.000000000000000000, -0.1250000000000000000 ) ) ;
#24 = CARTESIAN_POINT ( 'NONE',  ( 1.851555287236859217E-34, 1.750000000000000000, 0.000000000000000000 ) ) ;
#25 = ORIENTED_EDGE ( 'NONE', *, *, #300, .T. ) ;
#26 =( LENGTH_UNIT ( ) NAMED_UNIT ( * ) SI_UNIT ( $, .METRE. ) );
#27 = EDGE_LOOP ( 'NONE', ( #284, #121, #61, #194 ) ) ;
#28 = CIRCLE ( 'NONE', #129, 0.1250000000000001110 ) ;
#29 = PRODUCT_DEFINITION_FORMATION_WITH_SPECIFIED_SOURCE ( 'ANY', '', #149, .NOT_KNOWN. ) ;
#30 = CARTESIAN_POINT ( 'NONE',  ( 0.1249999999999999167, 4.000000000000000000, 1.530808498934191817E-17 ) ) ;
#31 = LENGTH_MEASURE_WITH_UNIT ( LENGTH_MEASURE( 0.02539999999999999897 ), #150 );
#32 = EDGE_LOOP ( 'NONE', ( #14, #142, #127, #64 ) ) ;
#33 =( NAMED_UNIT ( * ) PLANE_ANGLE_UNIT ( ) SI_UNIT ( $, .RADIAN. ) );
#34 = PRODUCT_DEFINITION ( 'UNKNOWN', '', #29, #110 ) ;
#35 = LENGTH_MEASURE_WITH_UNIT ( LENGTH_MEASURE( 0.02539999999999999897 ), #26 );
#36 = CARTESIAN_POINT ( 'NONE',  ( 0.000000000000000000, 0.000000000000000000, 0.000000000000000000 ) ) ;
#37 = ORIENTED_EDGE ( 'NONE', *, *, #238, .F. ) ;
#38 = STYLED_ITEM ( 'NONE', ( #16 ), #156 ) ;
#39 = UNCERTAINTY_MEASURE_WITH_UNIT (LENGTH_MEASURE( 1.000000000000000082E-05 ), #226, 'distance_accuracy_value', 'NONE');
#40 = PRESENTATION_LAYER_ASSIGNMENT (  '', '', ( #183 ) ) ;
#41 = EDGE_CURVE ( 'NONE', #59, #217, #122, .T. ) ;
#42 = UNCERTAINTY_MEASURE_WITH_UNIT (LENGTH_MEASURE( 1.000000000000000082E-05 ), #88, 'distance_accuracy_value', 'NONE');
#43 = DIRECTION ( 'NONE',  ( -1.000000000000000000, 0.000000000000000000, 0.000000000000000000 ) ) ;
#44 = SURFACE_STYLE_USAGE ( .BOTH. , #51 ) ;
#45 =( GEOMETRIC_REPRESENTATION_CONTEXT ( 3 ) GLOBAL_UNCERTAINTY_ASSIGNED_CONTEXT ( ( #72 ) ) GLOBAL_UNIT_ASSIGNED_CONTEXT ( ( #189, #103, #246 ) ) REPRESENTATION_CONTEXT ( 'NONE', 'WORKASPACE' ) );
#46 = VECTOR ( 'NONE', #209, 39.37007874015748143 ) ;
#47 = DIRECTION ( 'NONE',  ( -1.000000000000000000, -5.442874662877122010E-17, 0.000000000000000000 ) ) ;
#48 = EDGE_CURVE ( 'NONE', #95, #101, #28, .T. ) ;
#49 = DIRECTION ( 'NONE',  ( -0.000000000000000000, -1.000000000000000000, -0.000000000000000000 ) ) ;
#50 = VECTOR ( 'NONE', #197, 39.37007874015748143 ) ;
#51 = SURFACE_SIDE_STYLE ('',( #287 ) ) ;
#52 = FACE_OUTER_BOUND ( 'NONE', #7, .T. ) ;
#53 = DIRECTION ( 'NONE',  ( 0.000000000000000000, 0.000000000000000000, -1.000000000000000000 ) ) ;
#54 = ORIENTED_EDGE ( 'NONE', *, *, #112, .T. ) ;
#55 = SURFACE_STYLE_USAGE ( .BOTH. , #294 ) ;
#56 = PRESENTATION_STYLE_ASSIGNMENT (( #186 ) ) ;
#57 =( NAMED_UNIT ( * ) PLANE_ANGLE_UNIT ( ) SI_UNIT ( $, .RADIAN. ) );
#58 = AXIS2_PLACEMENT_3D ( 'NONE', #119, #271, #80 ) ;
#59 = VERTEX_POINT ( 'NONE', #237 ) ;
#60 = CARTESIAN_POINT ( 'NONE',  ( 1.530808498934191509E-17, 0.000000000000000000, 0.1250000000000000000 ) ) ;
#61 = ORIENTED_EDGE ( 'NONE', *, *, #48, .F. ) ;
#62 = CARTESIAN_POINT ( 'NONE',  ( 0.000000000000000000, 1.750000000000000000, 0.000000000000000000 ) ) ;
#63 = MANIFOLD_SOLID_BREP ( 'Revolve - Tool Body (Straight Shanked)', #108 ) ;
#64 = ORIENTED_EDGE ( 'NONE', *, *, #41, .F. ) ;
#65 = MECHANICAL_DESIGN_GEOMETRIC_PRESENTATION_REPRESENTATION (  '', ( #38 ), #230 ) ;
#66 = ADVANCED_FACE ( 'NONE', ( #94 ), #258, .F. ) ;
#67 = DIRECTION ( 'NONE',  ( -5.442874662877122626E-17, 1.000000000000000000, -0.000000000000000000 ) ) ;
#68 = DIMENSIONAL_EXPONENTS ( 1.000000000000000000, 0.000000000000000000, 0.000000000000000000, 0.000000000000000000, 0.000000000000000000, 0.000000000000000000, 0.000000000000000000 ) ;
#69 = DIMENSIONAL_EXPONENTS ( 1.000000000000000000, 0.000000000000000000, 0.000000000000000000, 0.000000000000000000, 0.000000000000000000, 0.000000000000000000, 0.000000000000000000 ) ;
#70 = APPLICATION_CONTEXT ( 'automotive_design' ) ;
#71 = PRESENTATION_STYLE_ASSIGNMENT (( #136 ) ) ;
#72 = UNCERTAINTY_MEASURE_WITH_UNIT (LENGTH_MEASURE( 1.000000000000000082E-05 ), #189, 'distance_accuracy_value', 'NONE');
#73 = CARTESIAN_POINT ( 'NONE',  ( 0.000000000000000000, 1.750000000000000000, 0.000000000000000000 ) ) ;
#74 = UNCERTAINTY_MEASURE_WITH_UNIT (LENGTH_MEASURE( 1.000000000000000082E-05 ), #275, 'distance_accuracy_value', 'NONE');
#75 = PRESENTATION_LAYER_ASSIGNMENT (  '', '', ( #262 ) ) ;
#76 = CYLINDRICAL_SURFACE ( 'NONE', #263, 0.1250000000000000278 ) ;
#77 = ORIENTED_EDGE ( 'NONE', *, *, #238, .T. ) ;
#78 = LINE ( 'NONE', #30, #50 ) ;
#79 =( GEOMETRIC_REPRESENTATION_CONTEXT ( 3 ) GLOBAL_UNCERTAINTY_ASSIGNED_CONTEXT ( ( #157 ) ) GLOBAL_UNIT_ASSIGNED_CONTEXT ( ( #138, #57, #83 ) ) REPRESENTATION_CONTEXT ( 'NONE', 'WORKASPACE' ) );
#80 = DIRECTION ( 'NONE',  ( 0.000000000000000000, 0.000000000000000000, -1.000000000000000000 ) ) ;
#81 = PRESENTATION_STYLE_ASSIGNMENT (( #293 ) ) ;
#82 = ORIENTED_EDGE ( 'NONE', *, *, #41, .T. ) ;
#83 =( NAMED_UNIT ( * ) SI_UNIT ( $, .STERADIAN. ) SOLID_ANGLE_UNIT ( ) );
#84 = VECTOR ( 'NONE', #154, 39.37007874015748143 ) ;
#85 = AXIS2_PLACEMENT_3D ( 'NONE', #36, #249, #273 ) ;
#86 = AXIS2_PLACEMENT_3D ( 'NONE', #73, #160, #261 ) ;
#87 = DIRECTION ( 'NONE',  ( -5.442874662877122626E-17, 1.000000000000000000, -0.000000000000000000 ) ) ;
#88 =( CONVERSION_BASED_UNIT ( 'INCH', #250 ) LENGTH_UNIT ( ) NAMED_UNIT ( #305 ) );
#89 = CARTESIAN_POINT ( 'NONE',  ( 0.000000000000000000, 0.000000000000000000, -0.1250000000000000000 ) ) ;
#90 = CIRCLE ( 'NONE', #255, 0.1249999999999999861 ) ;
#91 = EDGE_CURVE ( 'NONE', #217, #214, #162, .T. ) ;
#92 = CARTESIAN_POINT ( 'NONE',  ( -1.224646799147352714E-16, 4.000000000000000000, 0.000000000000000000 ) ) ;
#93 = COLOUR_RGB ( '',0.7921568627450980005, 0.8196078431372548767, 0.9333333333333333481 ) ;
#94 = FACE_OUTER_BOUND ( 'NONE', #163, .T. ) ;
#95 = VERTEX_POINT ( 'NONE', #168 ) ;
#96 = LENGTH_MEASURE_WITH_UNIT ( LENGTH_MEASURE( 0.02539999999999999897 ), #17 );
#97 = SHAPE_DEFINITION_REPRESENTATION ( #174, #113 ) ;
#98 = MECHANICAL_DESIGN_GEOMETRIC_PRESENTATION_REPRESENTATION (  '', ( #183 ), #254 ) ;
#99 = FILL_AREA_STYLE ('',( #286 ) ) ;
#100 = DIRECTION ( 'NONE',  ( 0.000000000000000000, 0.000000000000000000, -1.000000000000000000 ) ) ;
#101 = VERTEX_POINT ( 'NONE', #1 ) ;
#102 = PLANE ( 'NONE',  #132 ) ;
#103 =( NAMED_UNIT ( * ) PLANE_ANGLE_UNIT ( ) SI_UNIT ( $, .RADIAN. ) );
#104 = FILL_AREA_STYLE ('',( #190 ) ) ;
#105 = AXIS2_PLACEMENT_3D ( 'NONE', #118, #243, #53 ) ;
#106 = CARTESIAN_POINT ( 'NONE',  ( -1.224646799147352714E-16, 4.000000000000000000, 0.000000000000000000 ) ) ;
#107 = DIMENSIONAL_EXPONENTS ( 1.000000000000000000, 0.000000000000000000, 0.000000000000000000, 0.000000000000000000, 0.000000000000000000, 0.000000000000000000, 0.000000000000000000 ) ;
#108 = CLOSED_SHELL ( 'NONE', ( #252, #304, #278, #66 ) ) ;
#109 = AXIS2_PLACEMENT_3D ( 'NONE', #117, #281, #114 ) ;
#110 = PRODUCT_DEFINITION_CONTEXT ( 'detailed design', #130, 'design' ) ;
#111 = LENGTH_MEASURE_WITH_UNIT ( LENGTH_MEASURE( 0.02539999999999999897 ), #179 );
#112 = EDGE_CURVE ( 'NONE', #214, #217, #123, .T. ) ;
#113 = ADVANCED_BREP_SHAPE_REPRESENTATION ( '03212', ( #156, #63, #109 ), #79 ) ;
#114 = DIRECTION ( 'NONE',  ( 1.000000000000000000, 0.000000000000000000, 0.000000000000000000 ) ) ;
#115 =( NAMED_UNIT ( * ) PLANE_ANGLE_UNIT ( ) SI_UNIT ( $, .RADIAN. ) );
#116 = ORIENTED_EDGE ( 'NONE', *, *, #206, .F. ) ;
#117 = CARTESIAN_POINT ( 'NONE',  ( 0.000000000000000000, 0.000000000000000000, 0.000000000000000000 ) ) ;
#118 = CARTESIAN_POINT ( 'NONE',  ( 0.000000000000000000, 0.000000000000000000, 0.000000000000000000 ) ) ;
#119 = CARTESIAN_POINT ( 'NONE',  ( 0.000000000000000000, 0.000000000000000000, 0.000000000000000000 ) ) ;
#120 = EDGE_LOOP ( 'NONE', ( #272, #25, #242, #267 ) ) ;
#121 = ORIENTED_EDGE ( 'NONE', *, *, #153, .T. ) ;
#122 = LINE ( 'NONE', #23, #84 ) ;
#123 = CIRCLE ( 'NONE', #58, 0.1250000000000000000 ) ;
#124 = CIRCLE ( 'NONE', #86, 0.1249999999999999861 ) ;
#125 = CARTESIAN_POINT ( 'NONE',  ( 0.1249999999999999861, 1.750000000000000000, 1.530808498934192125E-17 ) ) ;
#126 = CARTESIAN_POINT ( 'NONE',  ( 0.000000000000000000, 0.000000000000000000, 0.000000000000000000 ) ) ;
#127 = ORIENTED_EDGE ( 'NONE', *, *, #91, .F. ) ;
#128 = ADVANCED_FACE ( 'NONE', ( #269 ), #266, .T. ) ;
#129 = AXIS2_PLACEMENT_3D ( 'NONE', #92, #140, #257 ) ;
#130 = APPLICATION_CONTEXT ( 'automotive_design' ) ;
#131 = DIMENSIONAL_EXPONENTS ( 1.000000000000000000, 0.000000000000000000, 0.000000000000000000, 0.000000000000000000, 0.000000000000000000, 0.000000000000000000, 0.000000000000000000 ) ;
#132 = AXIS2_PLACEMENT_3D ( 'NONE', #62, #152, #268 ) ;
#133 = ADVANCED_FACE ( 'NONE', ( #52 ), #288, .T. ) ;
#134 = AXIS2_PLACEMENT_3D ( 'NONE', #192, #301, #43 ) ;
#135 = DIMENSIONAL_EXPONENTS ( 1.000000000000000000, 0.000000000000000000, 0.000000000000000000, 0.000000000000000000, 0.000000000000000000, 0.000000000000000000, 0.000000000000000000 ) ;
#136 = SURFACE_STYLE_USAGE ( .BOTH. , #240 ) ;
#137 = UNCERTAINTY_MEASURE_WITH_UNIT (LENGTH_MEASURE( 1.000000000000000082E-05 ), #204, 'distance_accuracy_value', 'NONE');
#138 =( CONVERSION_BASED_UNIT ( 'INCH', #96 ) LENGTH_UNIT ( ) NAMED_UNIT ( #69 ) );
#139 = DIRECTION ( 'NONE',  ( -1.000000000000000000, 0.000000000000000000, 0.000000000000000000 ) ) ;
#140 = DIRECTION ( 'NONE',  ( -5.442874662877122626E-17, 1.000000000000000000, -0.000000000000000000 ) ) ;
#141 = AXIS2_PLACEMENT_3D ( 'NONE', #126, #49, #289 ) ;
#142 = ORIENTED_EDGE ( 'NONE', *, *, #206, .T. ) ;
#143 = PLANE ( 'NONE',  #200 ) ;
#144 = FILL_AREA_STYLE_COLOUR ( '', #199 ) ;
#145 = CARTESIAN_POINT ( 'NONE',  ( 0.000000000000000000, 1.750000000000000000, 0.000000000000000000 ) ) ;
#146 = DIRECTION ( 'NONE',  ( 0.000000000000000000, -1.000000000000000000, -0.000000000000000000 ) ) ;
#147 = EDGE_LOOP ( 'NONE', ( #265, #167 ) ) ;
#148 = CARTESIAN_POINT ( 'NONE',  ( 0.000000000000000000, 1.750000000000000000, 0.000000000000000000 ) ) ;
#149 = PRODUCT ( '03212', '03212', '', ( #211 ) ) ;
#150 =( LENGTH_UNIT ( ) NAMED_UNIT ( * ) SI_UNIT ( $, .METRE. ) );
#151 = FACE_OUTER_BOUND ( 'NONE', #27, .T. ) ;
#152 = DIRECTION ( 'NONE',  ( 0.000000000000000000, 1.000000000000000000, 0.000000000000000000 ) ) ;
#153 = EDGE_CURVE ( 'NONE', #227, #101, #78, .T. ) ;
#154 = DIRECTION ( 'NONE',  ( -0.000000000000000000, -1.000000000000000000, -0.000000000000000000 ) ) ;
#155 = FILL_AREA_STYLE ('',( #215 ) ) ;
#156 = MANIFOLD_SOLID_BREP ( 'Revolve - Cutting Edge', #283 ) ;
#157 = UNCERTAINTY_MEASURE_WITH_UNIT (LENGTH_MEASURE( 1.000000000000000082E-05 ), #138, 'distance_accuracy_value', 'NONE');
#158 = COLOUR_RGB ( '',1.000000000000000000, 0.000000000000000000, 0.000000000000000000 ) ;
#159 = EDGE_LOOP ( 'NONE', ( #116, #77, #82, #234 ) ) ;
#160 = DIRECTION ( 'NONE',  ( -5.442874662877122626E-17, 1.000000000000000000, -0.000000000000000000 ) ) ;
#161 =( NAMED_UNIT ( * ) PLANE_ANGLE_UNIT ( ) SI_UNIT ( $, .RADIAN. ) );
#162 = CIRCLE ( 'NONE', #105, 0.1250000000000000000 ) ;
#163 = EDGE_LOOP ( 'NONE', ( #277, #244 ) ) ;
#164 =( GEOMETRIC_REPRESENTATION_CONTEXT ( 3 ) GLOBAL_UNCERTAINTY_ASSIGNED_CONTEXT ( ( #74 ) ) GLOBAL_UNIT_ASSIGNED_CONTEXT ( ( #275, #33, #231 ) ) REPRESENTATION_CONTEXT ( 'NONE', 'WORKASPACE' ) );
#165 = CARTESIAN_POINT ( 'NONE',  ( -0.1250000000000001388, 4.000000000000000000, 0.000000000000000000 ) ) ;
#166 = PRESENTATION_STYLE_ASSIGNMENT (( #292 ) ) ;
#167 = ORIENTED_EDGE ( 'NONE', *, *, #300, .F. ) ;
#168 = CARTESIAN_POINT ( 'NONE',  ( -0.1250000000000002220, 4.000000000000000000, 0.000000000000000000 ) ) ;
#169 = SURFACE_STYLE_FILL_AREA ( #295 ) ;
#170 = ORIENTED_EDGE ( 'NONE', *, *, #91, .T. ) ;
#171 = STYLED_ITEM ( 'NONE', ( #56 ), #128 ) ;
#172 = SURFACE_SIDE_STYLE ('',( #297 ) ) ;
#173 =( LENGTH_UNIT ( ) NAMED_UNIT ( * ) SI_UNIT ( $, .METRE. ) );
#174 = PRODUCT_DEFINITION_SHAPE ( 'NONE', 'NONE',  #34 ) ;
#175 = DIRECTION ( 'NONE',  ( -0.000000000000000000, -1.000000000000000000, -0.000000000000000000 ) ) ;
#176 = CIRCLE ( 'NONE', #184, 0.1250000000000001110 ) ;
#177 = DIRECTION ( 'NONE',  ( -1.000000000000000000, 0.000000000000000000, 0.000000000000000000 ) ) ;
#178 = EDGE_CURVE ( 'NONE', #101, #95, #176, .T. ) ;
#179 =( LENGTH_UNIT ( ) NAMED_UNIT ( * ) SI_UNIT ( $, .METRE. ) );
#180 = AXIS2_PLACEMENT_3D ( 'NONE', #213, #146, #100 ) ;
#181 = LENGTH_MEASURE_WITH_UNIT ( LENGTH_MEASURE( 0.02539999999999999897 ), #205 );
#182 =( NAMED_UNIT ( * ) SI_UNIT ( $, .STERADIAN. ) SOLID_ANGLE_UNIT ( ) );
#183 = STYLED_ITEM ( 'NONE', ( #81 ), #21 ) ;
#184 = AXIS2_PLACEMENT_3D ( 'NONE', #106, #87, #177 ) ;
#185 = FILL_AREA_STYLE ('',( #212 ) ) ;
#186 = SURFACE_STYLE_USAGE ( .BOTH. , #216 ) ;
#187 = EDGE_CURVE ( 'NONE', #2, #95, #19, .T. ) ;
#188 = AXIS2_PLACEMENT_3D ( 'NONE', #280, #259, #207 ) ;
#189 =( CONVERSION_BASED_UNIT ( 'INCH', #31 ) LENGTH_UNIT ( ) NAMED_UNIT ( #68 ) );
#190 = FILL_AREA_STYLE_COLOUR ( '', #3 ) ;
#191 =( NAMED_UNIT ( * ) PLANE_ANGLE_UNIT ( ) SI_UNIT ( $, .RADIAN. ) );
#192 = CARTESIAN_POINT ( 'NONE',  ( -1.224646799147352714E-16, 4.000000000000000000, 0.000000000000000000 ) ) ;
#193 = SURFACE_STYLE_FILL_AREA ( #264 ) ;
#194 = ORIENTED_EDGE ( 'NONE', *, *, #187, .F. ) ;
#195 = MECHANICAL_DESIGN_GEOMETRIC_PRESENTATION_REPRESENTATION (  '', ( #221 ), #164 ) ;
#196 = PRESENTATION_STYLE_ASSIGNMENT (( #55 ) ) ;
#197 = DIRECTION ( 'NONE',  ( -5.442874662877122010E-17, 1.000000000000000000, -0.000000000000000000 ) ) ;
#198 = CARTESIAN_POINT ( 'NONE',  ( 0.000000000000000000, 1.750000000000000000, 0.000000000000000000 ) ) ;
#199 = COLOUR_RGB ( '',1.000000000000000000, 0.000000000000000000, 0.000000000000000000 ) ;
#200 = AXIS2_PLACEMENT_3D ( 'NONE', #24, #208, #47 ) ;
#201 = DIRECTION ( 'NONE',  ( -1.000000000000000000, 0.000000000000000000, 0.000000000000000000 ) ) ;
#202 = ADVANCED_FACE ( 'NONE', ( #22 ), #236, .T. ) ;
#203 = SURFACE_STYLE_FILL_AREA ( #99 ) ;
#204 =( CONVERSION_BASED_UNIT ( 'INCH', #111 ) LENGTH_UNIT ( ) NAMED_UNIT ( #107 ) );
#205 =( LENGTH_UNIT ( ) NAMED_UNIT ( * ) SI_UNIT ( $, .METRE. ) );
#206 = EDGE_CURVE ( 'NONE', #296, #214, #245, .T. ) ;
#207 = DIRECTION ( 'NONE',  ( 1.000000000000000000, 5.442874662877122010E-17, 0.000000000000000000 ) ) ;
#208 = DIRECTION ( 'NONE',  ( -5.442874662877122010E-17, 1.000000000000000000, 0.000000000000000000 ) ) ;
#209 = DIRECTION ( 'NONE',  ( -5.442874662877122010E-17, 1.000000000000000000, -0.000000000000000000 ) ) ;
#210 =( CONVERSION_BASED_UNIT ( 'INCH', #181 ) LENGTH_UNIT ( ) NAMED_UNIT ( #13 ) );
#211 = PRODUCT_CONTEXT ( 'NONE', #70, 'mechanical' ) ;
#212 = FILL_AREA_STYLE_COLOUR ( '', #256 ) ;
#213 = CARTESIAN_POINT ( 'NONE',  ( 0.000000000000000000, 0.000000000000000000, 0.000000000000000000 ) ) ;
#214 = VERTEX_POINT ( 'NONE', #60 ) ;
#215 = FILL_AREA_STYLE_COLOUR ( '', #93 ) ;
#216 = SURFACE_SIDE_STYLE ('',( #193 ) ) ;
#217 = VERTEX_POINT ( 'NONE', #89 ) ;
#218 = DIRECTION ( 'NONE',  ( 0.000000000000000000, 0.000000000000000000, -1.000000000000000000 ) ) ;
#219 =( NAMED_UNIT ( * ) SI_UNIT ( $, .STERADIAN. ) SOLID_ANGLE_UNIT ( ) );
#220 = CARTESIAN_POINT ( 'NONE',  ( -0.1249999999999999861, 1.750000000000000000, 0.000000000000000000 ) ) ;
#221 = STYLED_ITEM ( 'NONE', ( #196 ), #202 ) ;
#222 = DIRECTION ( 'NONE',  ( 0.000000000000000000, 0.000000000000000000, -1.000000000000000000 ) ) ;
#223 =( LENGTH_UNIT ( ) NAMED_UNIT ( * ) SI_UNIT ( $, .METRE. ) );
#224 = LENGTH_MEASURE_WITH_UNIT ( LENGTH_MEASURE( 0.02539999999999999897 ), #173 );
#225 = EDGE_CURVE ( 'NONE', #59, #296, #260, .T. ) ;
#226 =( CONVERSION_BASED_UNIT ( 'INCH', #35 ) LENGTH_UNIT ( ) NAMED_UNIT ( #135 ) );
#227 = VERTEX_POINT ( 'NONE', #125 ) ;
#228 = CARTESIAN_POINT ( 'NONE',  ( 1.530808498934191509E-17, 0.000000000000000000, 0.1250000000000000000 ) ) ;
#229 =( NAMED_UNIT ( * ) SI_UNIT ( $, .STERADIAN. ) SOLID_ANGLE_UNIT ( ) );
#230 =( GEOMETRIC_REPRESENTATION_CONTEXT ( 3 ) GLOBAL_UNCERTAINTY_ASSIGNED_CONTEXT ( ( #137 ) ) GLOBAL_UNIT_ASSIGNED_CONTEXT ( ( #204, #191, #232 ) ) REPRESENTATION_CONTEXT ( 'NONE', 'WORKASPACE' ) );
#231 =( NAMED_UNIT ( * ) SI_UNIT ( $, .STERADIAN. ) SOLID_ANGLE_UNIT ( ) );
#232 =( NAMED_UNIT ( * ) SI_UNIT ( $, .STERADIAN. ) SOLID_ANGLE_UNIT ( ) );
#233 =( GEOMETRIC_REPRESENTATION_CONTEXT ( 3 ) GLOBAL_UNCERTAINTY_ASSIGNED_CONTEXT ( ( #308 ) ) GLOBAL_UNIT_ASSIGNED_CONTEXT ( ( #210, #115, #182 ) ) REPRESENTATION_CONTEXT ( 'NONE', 'WORKASPACE' ) );
#234 = ORIENTED_EDGE ( 'NONE', *, *, #112, .F. ) ;
#235 = DIRECTION ( 'NONE',  ( -5.442874662877122626E-17, 1.000000000000000000, -0.000000000000000000 ) ) ;
#236 = CYLINDRICAL_SURFACE ( 'NONE', #85, 0.1250000000000000000 ) ;
#237 = CARTESIAN_POINT ( 'NONE',  ( 0.000000000000000000, 1.750000000000000000, -0.1249999999999999861 ) ) ;
#238 = EDGE_CURVE ( 'NONE', #296, #59, #90, .T. ) ;
#239 = CARTESIAN_POINT ( 'NONE',  ( 1.530808498934191201E-17, 1.750000000000000000, 0.1249999999999999861 ) ) ;
#240 = SURFACE_SIDE_STYLE ('',( #203 ) ) ;
#241 = MECHANICAL_DESIGN_GEOMETRIC_PRESENTATION_REPRESENTATION (  '', ( #15 ), #233 ) ;
#242 = ORIENTED_EDGE ( 'NONE', *, *, #187, .T. ) ;
#243 = DIRECTION ( 'NONE',  ( -0.000000000000000000, -1.000000000000000000, -0.000000000000000000 ) ) ;
#244 = ORIENTED_EDGE ( 'NONE', *, *, #178, .T. ) ;
#245 = LINE ( 'NONE', #228, #299 ) ;
#246 =( NAMED_UNIT ( * ) SI_UNIT ( $, .STERADIAN. ) SOLID_ANGLE_UNIT ( ) );
#247 = SURFACE_STYLE_FILL_AREA ( #185 ) ;
#248 = MECHANICAL_DESIGN_GEOMETRIC_PRESENTATION_REPRESENTATION (  '', ( #262 ), #10 ) ;
#249 = DIRECTION ( 'NONE',  ( -0.000000000000000000, -1.000000000000000000, -0.000000000000000000 ) ) ;
#250 = LENGTH_MEASURE_WITH_UNIT ( LENGTH_MEASURE( 0.02539999999999999897 ), #223 );
#251 = PRESENTATION_LAYER_ASSIGNMENT (  '', '', ( #38 ) ) ;
#252 = ADVANCED_FACE ( 'NONE', ( #151 ), #8, .T. ) ;
#253 = CIRCLE ( 'NONE', #5, 0.1249999999999999861 ) ;
#254 =( GEOMETRIC_REPRESENTATION_CONTEXT ( 3 ) GLOBAL_UNCERTAINTY_ASSIGNED_CONTEXT ( ( #42 ) ) GLOBAL_UNIT_ASSIGNED_CONTEXT ( ( #88, #276, #229 ) ) REPRESENTATION_CONTEXT ( 'NONE', 'WORKASPACE' ) );
#255 = AXIS2_PLACEMENT_3D ( 'NONE', #148, #4, #222 ) ;
#256 = COLOUR_RGB ( '',1.000000000000000000, 0.000000000000000000, 0.000000000000000000 ) ;
#257 = DIRECTION ( 'NONE',  ( -1.000000000000000000, 0.000000000000000000, 0.000000000000000000 ) ) ;
#258 = PLANE ( 'NONE',  #188 ) ;
#259 = DIRECTION ( 'NONE',  ( 5.442874662877122010E-17, -1.000000000000000000, 0.000000000000000000 ) ) ;
#260 = CIRCLE ( 'NONE', #303, 0.1249999999999999861 ) ;
#261 = DIRECTION ( 'NONE',  ( -1.000000000000000000, 0.000000000000000000, 0.000000000000000000 ) ) ;
#262 = STYLED_ITEM ( 'NONE', ( #166 ), #133 ) ;
#263 = AXIS2_PLACEMENT_3D ( 'NONE', #282, #235, #139 ) ;
#264 = FILL_AREA_STYLE ('',( #309 ) ) ;
#265 = ORIENTED_EDGE ( 'NONE', *, *, #270, .F. ) ;
#266 = CYLINDRICAL_SURFACE ( 'NONE', #141, 0.1250000000000000000 ) ;
#267 = ORIENTED_EDGE ( 'NONE', *, *, #178, .F. ) ;
#268 = DIRECTION ( 'NONE',  ( 0.000000000000000000, -0.000000000000000000, 1.000000000000000000 ) ) ;
#269 = FACE_OUTER_BOUND ( 'NONE', #159, .T. ) ;
#270 = EDGE_CURVE ( 'NONE', #2, #227, #253, .T. ) ;
#271 = DIRECTION ( 'NONE',  ( -0.000000000000000000, -1.000000000000000000, -0.000000000000000000 ) ) ;
#272 = ORIENTED_EDGE ( 'NONE', *, *, #153, .F. ) ;
#273 = DIRECTION ( 'NONE',  ( 0.000000000000000000, 0.000000000000000000, -1.000000000000000000 ) ) ;
#274 = ORIENTED_EDGE ( 'NONE', *, *, #225, .F. ) ;
#275 =( CONVERSION_BASED_UNIT ( 'INCH', #224 ) LENGTH_UNIT ( ) NAMED_UNIT ( #131 ) );
#276 =( NAMED_UNIT ( * ) PLANE_ANGLE_UNIT ( ) SI_UNIT ( $, .RADIAN. ) );
#277 = ORIENTED_EDGE ( 'NONE', *, *, #48, .T. ) ;
#278 = ADVANCED_FACE ( 'NONE', ( #18 ), #76, .T. ) ;
#279 = MECHANICAL_DESIGN_GEOMETRIC_PRESENTATION_REPRESENTATION (  '', ( #171 ), #45 ) ;
#280 = CARTESIAN_POINT ( 'NONE',  ( 0.1249999999999999861, 4.000000000000000000, 0.000000000000000000 ) ) ;
#281 = DIRECTION ( 'NONE',  ( 0.000000000000000000, 0.000000000000000000, 1.000000000000000000 ) ) ;
#282 = CARTESIAN_POINT ( 'NONE',  ( -1.224646799147352714E-16, 4.000000000000000000, 0.000000000000000000 ) ) ;
#283 = CLOSED_SHELL ( 'NONE', ( #202, #21, #128, #133 ) ) ;
#284 = ORIENTED_EDGE ( 'NONE', *, *, #270, .T. ) ;
#285 = PRODUCT_RELATED_PRODUCT_CATEGORY ( 'part', '', ( #149 ) ) ;
#286 = FILL_AREA_STYLE_COLOUR ( '', #307 ) ;
#287 = SURFACE_STYLE_FILL_AREA ( #155 ) ;
#288 = PLANE ( 'NONE',  #180 ) ;
#289 = DIRECTION ( 'NONE',  ( 0.000000000000000000, 0.000000000000000000, -1.000000000000000000 ) ) ;
#290 = EDGE_LOOP ( 'NONE', ( #274, #37 ) ) ;
#291 = DIRECTION ( 'NONE',  ( -0.000000000000000000, -1.000000000000000000, -0.000000000000000000 ) ) ;
#292 = SURFACE_STYLE_USAGE ( .BOTH. , #9 ) ;
#293 = SURFACE_STYLE_USAGE ( .BOTH. , #172 ) ;
#294 = SURFACE_SIDE_STYLE ('',( #247 ) ) ;
#295 = FILL_AREA_STYLE ('',( #144 ) ) ;
#296 = VERTEX_POINT ( 'NONE', #239 ) ;
#297 = SURFACE_STYLE_FILL_AREA ( #104 ) ;
#298 = PRESENTATION_LAYER_ASSIGNMENT (  '', '', ( #171 ) ) ;
#299 = VECTOR ( 'NONE', #291, 39.37007874015748143 ) ;
#300 = EDGE_CURVE ( 'NONE', #227, #2, #124, .T. ) ;
#301 = DIRECTION ( 'NONE',  ( -5.442874662877122626E-17, 1.000000000000000000, -0.000000000000000000 ) ) ;
#302 = PRESENTATION_LAYER_ASSIGNMENT (  '', '', ( #15 ) ) ;
#303 = AXIS2_PLACEMENT_3D ( 'NONE', #145, #175, #218 ) ;
#304 = ADVANCED_FACE ( 'NONE', ( #20 ), #143, .F. ) ;
#305 = DIMENSIONAL_EXPONENTS ( 1.000000000000000000, 0.000000000000000000, 0.000000000000000000, 0.000000000000000000, 0.000000000000000000, 0.000000000000000000, 0.000000000000000000 ) ;
#306 = APPLICATION_PROTOCOL_DEFINITION ( 'draft international standard', 'automotive_design', 1998, #130 ) ;
#307 = COLOUR_RGB ( '',0.7921568627450980005, 0.8196078431372548767, 0.9333333333333333481 ) ;
#308 = UNCERTAINTY_MEASURE_WITH_UNIT (LENGTH_MEASURE( 1.000000000000000082E-05 ), #210, 'distance_accuracy_value', 'NONE');
#309 = FILL_AREA_STYLE_COLOUR ( '', #158 ) ;
ENDSEC;
END-ISO-10303-21;
