ISO-10303-21;
HEADER;
FILE_DESCRIPTION (( 'STEP AP214' ),
    '1' );
FILE_NAME ('Micro_SME-011-2.STEP',
    '2021-09-02T10:02:17',
    ( '' ),
    ( '' ),
    'SwSTEP 2.0',
    'SolidWorks 2020',
    '' );
FILE_SCHEMA (( 'AUTOMOTIVE_DESIGN' ));
ENDSEC;

DATA;
#1 = VERTEX_POINT ( 'NONE', #280 ) ;
#2 = VECTOR ( 'NONE', #201, 39.37007874015748854 ) ;
#3 = DIRECTION ( 'NONE',  ( -1.224646799147353700E-16, -0.0000000000000000000, -1.000000000000000000 ) ) ;
#4 = CLOSED_SHELL ( 'NONE', ( #241, #154, #288, #28, #120, #269, #182, #47, #142, #194 ) ) ;
#5 = LINE ( 'NONE', #72, #31 ) ;
#6 = CIRCLE ( 'NONE', #49, 0.06250000000000002776 ) ;
#7 = ADVANCED_BREP_SHAPE_REPRESENTATION ( 'Micro_SME-011-2', ( #225, #258 ), #56 ) ;
#8 = DIRECTION ( 'NONE',  ( -1.224646799147353700E-16, -0.0000000000000000000, -1.000000000000000000 ) ) ;
#9 = ORIENTED_EDGE ( 'NONE', *, *, #13, .F. ) ;
#10 = EDGE_LOOP ( 'NONE', ( #168, #235, #125, #141 ) ) ;
#11 = FACE_OUTER_BOUND ( 'NONE', #252, .T. ) ;
#12 = FACE_OUTER_BOUND ( 'NONE', #259, .T. ) ;
#13 = EDGE_CURVE ( 'NONE', #158, #24, #237, .T. ) ;
#14 = DIRECTION ( 'NONE',  ( -1.224646799147353700E-16, -0.0000000000000000000, -1.000000000000000000 ) ) ;
#15 = SURFACE_STYLE_USAGE ( .BOTH. , #192 ) ;
#16 = CARTESIAN_POINT ( 'NONE',  ( -0.04750000000000064587, 0.0000000000000000000, 1.500000000000000222 ) ) ;
#17 = CARTESIAN_POINT ( 'NONE',  ( 0.0000000000000000000, 0.0000000000000000000, 0.0000000000000000000 ) ) ;
#18 = DIRECTION ( 'NONE',  ( -1.000000000000000000, 0.0000000000000000000, 0.0000000000000000000 ) ) ;
#19 = CIRCLE ( 'NONE', #251, 0.005494500000000001987 ) ;
#20 = ORIENTED_EDGE ( 'NONE', *, *, #102, .F. ) ;
#21 = ORIENTED_EDGE ( 'NONE', *, *, #137, .F. ) ;
#22 = VECTOR ( 'NONE', #247, 39.37007874015748143 ) ;
#23 = COLOUR_RGB ( '',0.7921568627450980005, 0.8196078431372548767, 0.9333333333333333481 ) ;
#24 = VERTEX_POINT ( 'NONE', #50 ) ;
#25 = DIRECTION ( 'NONE',  ( -1.224646799147353700E-16, -0.0000000000000000000, -1.000000000000000000 ) ) ;
#26 = CARTESIAN_POINT ( 'NONE',  ( 0.06250000000000006939, 7.654042494670963708E-18, 0.3392942557682157578 ) ) ;
#27 = CARTESIAN_POINT ( 'NONE',  ( 1.959434878635766185E-18, 0.0000000000000000000, 0.01600000000000000033 ) ) ;
#28 = ADVANCED_FACE ( 'NONE', ( #164 ), #140, .T. ) ;
#29 = CARTESIAN_POINT ( 'NONE',  ( 1.959434878635766185E-18, 0.0000000000000000000, 0.01600000000000000033 ) ) ;
#30 = PRESENTATION_STYLE_ASSIGNMENT (( #15 ) ) ;
#31 = VECTOR ( 'NONE', #98, 39.37007874015748854 ) ;
#32 = DIRECTION ( 'NONE',  ( -1.000000000000000000, 0.0000000000000000000, 0.0000000000000000000 ) ) ;
#33 = PRODUCT ( 'Micro_SME-011-2', 'Micro_SME-011-2', '', ( #157 ) ) ;
#34 = DIRECTION ( 'NONE',  ( 1.000000000000000000, 0.0000000000000000000, 0.0000000000000000000 ) ) ;
#35 = LINE ( 'NONE', #175, #254 ) ;
#36 = DIRECTION ( 'NONE',  ( 0.0000000000000000000, 0.0000000000000000000, 1.000000000000000000 ) ) ;
#37 = DIMENSIONAL_EXPONENTS ( 1.000000000000000000, 0.0000000000000000000, 0.0000000000000000000, 0.0000000000000000000, 0.0000000000000000000, 0.0000000000000000000, 0.0000000000000000000 ) ;
#38 = AXIS2_PLACEMENT_3D ( 'NONE', #283, #36, #190 ) ;
#39 = CARTESIAN_POINT ( 'NONE',  ( 1.959434878635766185E-18, 0.0000000000000000000, 0.01600000000000000033 ) ) ;
#40 = FILL_AREA_STYLE_COLOUR ( '', #156 ) ;
#41 = AXIS2_PLACEMENT_3D ( 'NONE', #39, #179, #149 ) ;
#42 = DIRECTION ( 'NONE',  ( -1.224646799147353700E-16, -0.0000000000000000000, -1.000000000000000000 ) ) ;
#43 = FACE_OUTER_BOUND ( 'NONE', #262, .T. ) ;
#44 = ORIENTED_EDGE ( 'NONE', *, *, #165, .T. ) ;
#45 = EDGE_CURVE ( 'NONE', #24, #256, #19, .T. ) ;
#46 = CIRCLE ( 'NONE', #99, 0.005494500000000000252 ) ;
#47 = ADVANCED_FACE ( 'NONE', ( #276 ), #292, .T. ) ;
#48 = CARTESIAN_POINT ( 'NONE',  ( 0.005494500000000001119, 6.728821837915133930E-19, -6.728821837915135856E-19 ) ) ;
#49 = AXIS2_PLACEMENT_3D ( 'NONE', #116, #226, #146 ) ;
#50 = CARTESIAN_POINT ( 'NONE',  ( 0.005494500000000001987, 6.728821837915133930E-19, 0.0000000000000000000 ) ) ;
#51 = EDGE_CURVE ( 'NONE', #187, #1, #5, .T. ) ;
#52 = DIRECTION ( 'NONE',  ( 1.000000000000000000, 0.0000000000000000000, 0.0000000000000000000 ) ) ;
#53 = DIRECTION ( 'NONE',  ( -1.000000000000000000, 0.0000000000000000000, 0.0000000000000000000 ) ) ;
#54 = LENGTH_MEASURE_WITH_UNIT ( LENGTH_MEASURE( 0.02539999999999999897 ), #106 );
#55 = AXIS2_PLACEMENT_3D ( 'NONE', #27, #143, #52 ) ;
#56 =( GEOMETRIC_REPRESENTATION_CONTEXT ( 3 ) GLOBAL_UNCERTAINTY_ASSIGNED_CONTEXT ( ( #75 ) ) GLOBAL_UNIT_ASSIGNED_CONTEXT ( ( #144, #219, #193 ) ) REPRESENTATION_CONTEXT ( 'NONE', 'WORKASPACE' ) );
#57 = ORIENTED_EDGE ( 'NONE', *, *, #233, .T. ) ;
#58 = PRODUCT_DEFINITION_SHAPE ( 'NONE', 'NONE',  #197 ) ;
#59 = LENGTH_MEASURE_WITH_UNIT ( LENGTH_MEASURE( 0.02539999999999999897 ), #217 );
#60 = PLANE ( 'NONE',  #250 ) ;
#61 = FILL_AREA_STYLE_COLOUR ( '', #23 ) ;
#62 = SURFACE_SIDE_STYLE ('',( #86 ) ) ;
#63 = FACE_OUTER_BOUND ( 'NONE', #184, .T. ) ;
#64 = CARTESIAN_POINT ( 'NONE',  ( 0.0000000000000000000, 0.0000000000000000000, 0.0000000000000000000 ) ) ;
#65 = APPLICATION_CONTEXT ( 'automotive_design' ) ;
#66 = SHAPE_DEFINITION_REPRESENTATION ( #58, #7 ) ;
#67 = DIRECTION ( 'NONE',  ( 1.000000000000000000, 0.0000000000000000000, 0.0000000000000000000 ) ) ;
#68 = STYLED_ITEM ( 'NONE', ( #243 ), #225 ) ;
#69 = ORIENTED_EDGE ( 'NONE', *, *, #299, .T. ) ;
#70 = PRODUCT_RELATED_PRODUCT_CATEGORY ( 'part', '', ( #33 ) ) ;
#71 = EDGE_LOOP ( 'NONE', ( #92, #91, #230, #162 ) ) ;
#72 = CARTESIAN_POINT ( 'NONE',  ( -0.04750000000000064587, 0.0000000000000000000, 1.500000000000000222 ) ) ;
#73 = VERTEX_POINT ( 'NONE', #26 ) ;
#74 = ORIENTED_EDGE ( 'NONE', *, *, #213, .T. ) ;
#75 = UNCERTAINTY_MEASURE_WITH_UNIT (LENGTH_MEASURE( 1.000000000000000082E-05 ), #144, 'distance_accuracy_value', 'NONE');
#76 = DIRECTION ( 'NONE',  ( -0.0000000000000000000, -0.0000000000000000000, -1.000000000000000000 ) ) ;
#77 = CARTESIAN_POINT ( 'NONE',  ( 0.0000000000000000000, 0.0000000000000000000, 1.500000000000000222 ) ) ;
#78 = VERTEX_POINT ( 'NONE', #238 ) ;
#79 = AXIS2_PLACEMENT_3D ( 'NONE', #83, #14, #173 ) ;
#80 = CIRCLE ( 'NONE', #123, 0.06250000000000002776 ) ;
#81 = CARTESIAN_POINT ( 'NONE',  ( -0.06250000000000002776, 0.0000000000000000000, 1.500000000000000222 ) ) ;
#82 = DIRECTION ( 'NONE',  ( -0.0000000000000000000, -0.0000000000000000000, -1.000000000000000000 ) ) ;
#83 = CARTESIAN_POINT ( 'NONE',  ( 0.0000000000000000000, 0.0000000000000000000, 0.0000000000000000000 ) ) ;
#84 = EDGE_CURVE ( 'NONE', #207, #158, #115, .T. ) ;
#85 = AXIS2_PLACEMENT_3D ( 'NONE', #195, #82, #18 ) ;
#86 = SURFACE_STYLE_FILL_AREA ( #204 ) ;
#87 =( CONVERSION_BASED_UNIT ( 'INCH', #294 ) LENGTH_UNIT ( ) NAMED_UNIT ( #139 ) );
#88 = EDGE_LOOP ( 'NONE', ( #232, #209 ) ) ;
#89 = CARTESIAN_POINT ( 'NONE',  ( 0.06250000000000002776, 7.654042494670959086E-18, 1.500000000000000222 ) ) ;
#90 = ORIENTED_EDGE ( 'NONE', *, *, #203, .F. ) ;
#91 = ORIENTED_EDGE ( 'NONE', *, *, #13, .T. ) ;
#92 = ORIENTED_EDGE ( 'NONE', *, *, #84, .T. ) ;
#93 = PRESENTATION_LAYER_ASSIGNMENT (  '', '', ( #135 ) ) ;
#94 = ORIENTED_EDGE ( 'NONE', *, *, #165, .F. ) ;
#95 = EDGE_CURVE ( 'NONE', #158, #73, #166, .T. ) ;
#96 = DIMENSIONAL_EXPONENTS ( 1.000000000000000000, 0.0000000000000000000, 0.0000000000000000000, 0.0000000000000000000, 0.0000000000000000000, 0.0000000000000000000, 0.0000000000000000000 ) ;
#97 = ORIENTED_EDGE ( 'NONE', *, *, #137, .T. ) ;
#98 = DIRECTION ( 'NONE',  ( -0.7071067811865462405, 0.0000000000000000000, -0.7071067811865486830 ) ) ;
#99 = AXIS2_PLACEMENT_3D ( 'NONE', #126, #3, #32 ) ;
#100 = MECHANICAL_DESIGN_GEOMETRIC_PRESENTATION_REPRESENTATION (  '', ( #135 ), #293 ) ;
#101 = ORIENTED_EDGE ( 'NONE', *, *, #45, .F. ) ;
#102 = EDGE_CURVE ( 'NONE', #158, #207, #46, .T. ) ;
#103 = UNCERTAINTY_MEASURE_WITH_UNIT (LENGTH_MEASURE( 1.000000000000000082E-05 ), #160, 'distance_accuracy_value', 'NONE');
#104 = FACE_OUTER_BOUND ( 'NONE', #208, .T. ) ;
#105 = FILL_AREA_STYLE ('',( #61 ) ) ;
#106 =( LENGTH_UNIT ( ) NAMED_UNIT ( * ) SI_UNIT ( $, .METRE. ) );
#107 = CARTESIAN_POINT ( 'NONE',  ( 0.005494500000000001987, 0.0000000000000000000, 0.01600000000000000033 ) ) ;
#108 = MECHANICAL_DESIGN_GEOMETRIC_PRESENTATION_REPRESENTATION (  '', ( #68 ), #222 ) ;
#109 = APPLICATION_PROTOCOL_DEFINITION ( 'draft international standard', 'automotive_design', 1998, #211 ) ;
#110 = DIRECTION ( 'NONE',  ( 0.0000000000000000000, 0.0000000000000000000, -1.000000000000000000 ) ) ;
#111 = CARTESIAN_POINT ( 'NONE',  ( 0.06250000000000002776, 7.654042494670959086E-18, 1.485000000000000764 ) ) ;
#112 = EDGE_CURVE ( 'NONE', #1, #188, #196, .T. ) ;
#113 = DIRECTION ( 'NONE',  ( -1.000000000000000000, 0.0000000000000000000, 1.224646799147353700E-16 ) ) ;
#114 = CARTESIAN_POINT ( 'NONE',  ( 0.0000000000000000000, 0.0000000000000000000, 1.500000000000000222 ) ) ;
#115 = CIRCLE ( 'NONE', #274, 0.005494500000000000252 ) ;
#116 = CARTESIAN_POINT ( 'NONE',  ( 0.0000000000000000000, 0.0000000000000000000, 1.485000000000000764 ) ) ;
#117 = ORIENTED_EDGE ( 'NONE', *, *, #178, .T. ) ;
#118 = PRESENTATION_LAYER_ASSIGNMENT (  '', '', ( #68 ) ) ;
#119 = ORIENTED_EDGE ( 'NONE', *, *, #159, .T. ) ;
#120 = ADVANCED_FACE ( 'NONE', ( #104 ), #170, .T. ) ;
#121 = ORIENTED_EDGE ( 'NONE', *, *, #51, .T. ) ;
#122 = ORIENTED_EDGE ( 'NONE', *, *, #299, .F. ) ;
#123 = AXIS2_PLACEMENT_3D ( 'NONE', #153, #291, #131 ) ;
#124 = DIRECTION ( 'NONE',  ( -1.000000000000000000, 0.0000000000000000000, 0.0000000000000000000 ) ) ;
#125 = ORIENTED_EDGE ( 'NONE', *, *, #213, .F. ) ;
#126 = CARTESIAN_POINT ( 'NONE',  ( 1.959434878635766185E-18, 0.0000000000000000000, 0.01600000000000000033 ) ) ;
#127 = CARTESIAN_POINT ( 'NONE',  ( 0.0000000000000000000, 0.0000000000000000000, 1.485000000000000764 ) ) ;
#128 = PRODUCT_DEFINITION_CONTEXT ( 'detailed design', #211, 'design' ) ;
#129 = DIRECTION ( 'NONE',  ( -1.000000000000000000, 0.0000000000000000000, 0.0000000000000000000 ) ) ;
#130 = AXIS2_PLACEMENT_3D ( 'NONE', #152, #155, #297 ) ;
#131 = DIRECTION ( 'NONE',  ( 1.000000000000000000, 0.0000000000000000000, 0.0000000000000000000 ) ) ;
#132 = DIRECTION ( 'NONE',  ( -0.0000000000000000000, -0.0000000000000000000, -1.000000000000000000 ) ) ;
#133 = PLANE ( 'NONE',  #38 ) ;
#134 = ORIENTED_EDGE ( 'NONE', *, *, #233, .F. ) ;
#135 = STYLED_ITEM ( 'NONE', ( #30 ), #7 ) ;
#136 = ORIENTED_EDGE ( 'NONE', *, *, #102, .T. ) ;
#137 = EDGE_CURVE ( 'NONE', #187, #273, #183, .T. ) ;
#138 = CARTESIAN_POINT ( 'NONE',  ( 8.240430125835586345E-35, 0.0000000000000000000, 6.728821837915137782E-19 ) ) ;
#139 = DIMENSIONAL_EXPONENTS ( 1.000000000000000000, 0.0000000000000000000, 0.0000000000000000000, 0.0000000000000000000, 0.0000000000000000000, 0.0000000000000000000, 0.0000000000000000000 ) ;
#140 = CYLINDRICAL_SURFACE ( 'NONE', #240, 0.06250000000000002776 ) ;
#141 = ORIENTED_EDGE ( 'NONE', *, *, #171, .F. ) ;
#142 = ADVANCED_FACE ( 'NONE', ( #227 ), #248, .T. ) ;
#143 = DIRECTION ( 'NONE',  ( 1.224646799147353700E-16, 0.0000000000000000000, 1.000000000000000000 ) ) ;
#144 =( CONVERSION_BASED_UNIT ( 'INCH', #54 ) LENGTH_UNIT ( ) NAMED_UNIT ( #37 ) );
#145 = VECTOR ( 'NONE', #212, 39.37007874015748143 ) ;
#146 = DIRECTION ( 'NONE',  ( 1.000000000000000000, 0.0000000000000000000, 0.0000000000000000000 ) ) ;
#147 = CARTESIAN_POINT ( 'NONE',  ( 0.04750000000000064587, 5.817072295950006528E-18, 1.500000000000000222 ) ) ;
#148 = DIRECTION ( 'NONE',  ( 1.000000000000000000, 0.0000000000000000000, 0.0000000000000000000 ) ) ;
#149 = DIRECTION ( 'NONE',  ( 1.000000000000000000, 0.0000000000000000000, 0.0000000000000000000 ) ) ;
#150 = AXIS2_PLACEMENT_3D ( 'NONE', #77, #287, #245 ) ;
#151 = DIRECTION ( 'NONE',  ( 1.000000000000000000, 0.0000000000000000000, -0.0000000000000000000 ) ) ;
#152 = CARTESIAN_POINT ( 'NONE',  ( 8.240430125835586345E-35, 0.0000000000000000000, 6.728821837915137782E-19 ) ) ;
#153 = CARTESIAN_POINT ( 'NONE',  ( 4.155156242956289392E-17, 0.0000000000000000000, 0.3392942557682157578 ) ) ;
#154 = ADVANCED_FACE ( 'NONE', ( #11 ), #284, .T. ) ;
#155 = DIRECTION ( 'NONE',  ( -1.224646799147353700E-16, -0.0000000000000000000, -1.000000000000000000 ) ) ;
#156 = COLOUR_RGB ( '',0.7921568627450980005, 0.8196078431372548767, 0.9333333333333333481 ) ;
#157 = PRODUCT_CONTEXT ( 'NONE', #65, 'mechanical' ) ;
#158 = VERTEX_POINT ( 'NONE', #107 ) ;
#159 = EDGE_CURVE ( 'NONE', #207, #256, #35, .T. ) ;
#160 =( CONVERSION_BASED_UNIT ( 'INCH', #59 ) LENGTH_UNIT ( ) NAMED_UNIT ( #96 ) );
#161 = DIRECTION ( 'NONE',  ( -1.224646799147353700E-16, -0.0000000000000000000, -1.000000000000000000 ) ) ;
#162 = ORIENTED_EDGE ( 'NONE', *, *, #159, .F. ) ;
#163 = AXIS2_PLACEMENT_3D ( 'NONE', #205, #42, #67 ) ;
#164 = FACE_OUTER_BOUND ( 'NONE', #10, .T. ) ;
#165 = EDGE_CURVE ( 'NONE', #188, #1, #6, .T. ) ;
#166 = LINE ( 'NONE', #191, #145 ) ;
#167 = DIRECTION ( 'NONE',  ( 0.0000000000000000000, 0.0000000000000000000, 1.000000000000000000 ) ) ;
#168 = ORIENTED_EDGE ( 'NONE', *, *, #112, .T. ) ;
#169 = CONICAL_SURFACE ( 'NONE', #210, 0.04750000000000064587, 0.7853981633974466137 ) ;
#170 = CYLINDRICAL_SURFACE ( 'NONE', #85, 0.06250000000000002776 ) ;
#171 = EDGE_CURVE ( 'NONE', #1, #78, #244, .T. ) ;
#172 = VECTOR ( 'NONE', #186, 39.37007874015748143 ) ;
#173 = DIRECTION ( 'NONE',  ( -1.000000000000000000, 0.0000000000000000000, 1.224646799147353700E-16 ) ) ;
#174 = APPLICATION_PROTOCOL_DEFINITION ( 'draft international standard', 'automotive_design', 1998, #65 ) ;
#175 = CARTESIAN_POINT ( 'NONE',  ( -0.005494500000000001119, 0.0000000000000000000, 6.728821837915135856E-19 ) ) ;
#176 = CONICAL_SURFACE ( 'NONE', #150, 0.04750000000000064587, 0.7853981633974466137 ) ;
#177 = SURFACE_STYLE_USAGE ( .BOTH. , #62 ) ;
#178 = EDGE_CURVE ( 'NONE', #207, #78, #266, .T. ) ;
#179 = DIRECTION ( 'NONE',  ( 1.224646799147353700E-16, 0.0000000000000000000, 1.000000000000000000 ) ) ;
#180 = FACE_OUTER_BOUND ( 'NONE', #71, .T. ) ;
#181 =( NAMED_UNIT ( * ) SI_UNIT ( $, .STERADIAN. ) SOLID_ANGLE_UNIT ( ) );
#182 = ADVANCED_FACE ( 'NONE', ( #63 ), #169, .T. ) ;
#183 = CIRCLE ( 'NONE', #228, 0.04750000000000064587 ) ;
#184 = EDGE_LOOP ( 'NONE', ( #90, #21, #121, #94 ) ) ;
#185 = CARTESIAN_POINT ( 'NONE',  ( 0.0000000000000000000, 0.0000000000000000000, 0.0000000000000000000 ) ) ;
#186 = DIRECTION ( 'NONE',  ( -1.224646799147353700E-16, -0.0000000000000000000, -1.000000000000000000 ) ) ;
#187 = VERTEX_POINT ( 'NONE', #16 ) ;
#188 = VERTEX_POINT ( 'NONE', #111 ) ;
#189 = ORIENTED_EDGE ( 'NONE', *, *, #51, .F. ) ;
#190 = DIRECTION ( 'NONE',  ( 1.000000000000000000, 0.0000000000000000000, -0.0000000000000000000 ) ) ;
#191 = CARTESIAN_POINT ( 'NONE',  ( 0.005494500000000001987, 0.0000000000000000000, 0.01600000000000000033 ) ) ;
#192 = SURFACE_SIDE_STYLE ('',( #199 ) ) ;
#193 =( NAMED_UNIT ( * ) SI_UNIT ( $, .STERADIAN. ) SOLID_ANGLE_UNIT ( ) );
#194 = ADVANCED_FACE ( 'NONE', ( #270 ), #60, .F. ) ;
#195 = CARTESIAN_POINT ( 'NONE',  ( 0.0000000000000000000, 0.0000000000000000000, 1.500000000000000222 ) ) ;
#196 = CIRCLE ( 'NONE', #231, 0.06250000000000002776 ) ;
#197 = PRODUCT_DEFINITION ( 'UNKNOWN', '', #223, #128 ) ;
#198 = DIRECTION ( 'NONE',  ( -0.1736481776669311639, 2.126576849575783008E-17, 0.9848077530122080203 ) ) ;
#199 = SURFACE_STYLE_FILL_AREA ( #105 ) ;
#200 =( LENGTH_UNIT ( ) NAMED_UNIT ( * ) SI_UNIT ( $, .METRE. ) );
#201 = DIRECTION ( 'NONE',  ( 0.7071067811865462405, 8.659560562354916834E-17, -0.7071067811865486830 ) ) ;
#202 = CARTESIAN_POINT ( 'NONE',  ( -0.005494500000000001987, 0.0000000000000000000, 1.345764367583027556E-18 ) ) ;
#203 = EDGE_CURVE ( 'NONE', #273, #188, #289, .T. ) ;
#204 = FILL_AREA_STYLE ('',( #40 ) ) ;
#205 = CARTESIAN_POINT ( 'NONE',  ( 4.155156242956289392E-17, 0.0000000000000000000, 0.3392942557682157578 ) ) ;
#206 = AXIS2_PLACEMENT_3D ( 'NONE', #185, #8, #113 ) ;
#207 = VERTEX_POINT ( 'NONE', #242 ) ;
#208 = EDGE_LOOP ( 'NONE', ( #234, #44, #279, #134 ) ) ;
#209 = ORIENTED_EDGE ( 'NONE', *, *, #45, .T. ) ;
#210 = AXIS2_PLACEMENT_3D ( 'NONE', #114, #110, #129 ) ;
#211 = APPLICATION_CONTEXT ( 'automotive_design' ) ;
#212 = DIRECTION ( 'NONE',  ( 0.1736481776669313581, 0.0000000000000000000, 0.9848077530122077983 ) ) ;
#213 = EDGE_CURVE ( 'NONE', #78, #73, #80, .T. ) ;
#214 = ORIENTED_EDGE ( 'NONE', *, *, #203, .T. ) ;
#215 = ORIENTED_EDGE ( 'NONE', *, *, #84, .F. ) ;
#216 = VECTOR ( 'NONE', #198, 39.37007874015747433 ) ;
#217 =( LENGTH_UNIT ( ) NAMED_UNIT ( * ) SI_UNIT ( $, .METRE. ) );
#218 = DIRECTION ( 'NONE',  ( 0.0000000000000000000, 0.0000000000000000000, -1.000000000000000000 ) ) ;
#219 =( NAMED_UNIT ( * ) PLANE_ANGLE_UNIT ( ) SI_UNIT ( $, .RADIAN. ) );
#220 = DIRECTION ( 'NONE',  ( 0.0000000000000000000, 0.0000000000000000000, 1.000000000000000000 ) ) ;
#221 =( NAMED_UNIT ( * ) PLANE_ANGLE_UNIT ( ) SI_UNIT ( $, .RADIAN. ) );
#222 =( GEOMETRIC_REPRESENTATION_CONTEXT ( 3 ) GLOBAL_UNCERTAINTY_ASSIGNED_CONTEXT ( ( #261 ) ) GLOBAL_UNIT_ASSIGNED_CONTEXT ( ( #87, #221, #181 ) ) REPRESENTATION_CONTEXT ( 'NONE', 'WORKASPACE' ) );
#223 = PRODUCT_DEFINITION_FORMATION_WITH_SPECIFIED_SOURCE ( 'ANY', '', #33, .NOT_KNOWN. ) ;
#224 = CARTESIAN_POINT ( 'NONE',  ( 0.0000000000000000000, 0.0000000000000000000, 1.500000000000000222 ) ) ;
#225 = MANIFOLD_SOLID_BREP ( 'Cut-Revolve1', #4 ) ;
#226 = DIRECTION ( 'NONE',  ( 0.0000000000000000000, 0.0000000000000000000, -1.000000000000000000 ) ) ;
#227 = FACE_OUTER_BOUND ( 'NONE', #277, .T. ) ;
#228 = AXIS2_PLACEMENT_3D ( 'NONE', #224, #220, #34 ) ;
#229 = EDGE_CURVE ( 'NONE', #256, #24, #257, .T. ) ;
#230 = ORIENTED_EDGE ( 'NONE', *, *, #229, .F. ) ;
#231 = AXIS2_PLACEMENT_3D ( 'NONE', #127, #218, #282 ) ;
#232 = ORIENTED_EDGE ( 'NONE', *, *, #229, .T. ) ;
#233 = EDGE_CURVE ( 'NONE', #73, #78, #298, .T. ) ;
#234 = ORIENTED_EDGE ( 'NONE', *, *, #236, .F. ) ;
#235 = ORIENTED_EDGE ( 'NONE', *, *, #236, .T. ) ;
#236 = EDGE_CURVE ( 'NONE', #188, #73, #296, .T. ) ;
#237 = LINE ( 'NONE', #48, #172 ) ;
#238 = CARTESIAN_POINT ( 'NONE',  ( -0.06249999999999997918, 0.0000000000000000000, 0.3392942557682157578 ) ) ;
#239 = CARTESIAN_POINT ( 'NONE',  ( 0.0000000000000000000, 0.0000000000000000000, 1.500000000000000222 ) ) ;
#240 = AXIS2_PLACEMENT_3D ( 'NONE', #239, #76, #53 ) ;
#241 = ADVANCED_FACE ( 'NONE', ( #180 ), #253, .T. ) ;
#242 = CARTESIAN_POINT ( 'NONE',  ( -0.005494499999999997650, 4.163462339231237636E-18, 0.01600000000000000033 ) ) ;
#243 = PRESENTATION_STYLE_ASSIGNMENT (( #177 ) ) ;
#244 = LINE ( 'NONE', #81, #265 ) ;
#245 = DIRECTION ( 'NONE',  ( -1.000000000000000000, 0.0000000000000000000, 0.0000000000000000000 ) ) ;
#246 = CIRCLE ( 'NONE', #278, 0.04750000000000064587 ) ;
#247 = DIRECTION ( 'NONE',  ( -0.0000000000000000000, -0.0000000000000000000, -1.000000000000000000 ) ) ;
#248 = CYLINDRICAL_SURFACE ( 'NONE', #79, 0.005494500000000001119 ) ;
#249 = DIRECTION ( 'NONE',  ( 0.0000000000000000000, 0.0000000000000000000, 1.000000000000000000 ) ) ;
#250 = AXIS2_PLACEMENT_3D ( 'NONE', #64, #268, #151 ) ;
#251 = AXIS2_PLACEMENT_3D ( 'NONE', #138, #25, #260 ) ;
#252 = EDGE_LOOP ( 'NONE', ( #215, #117, #74, #275 ) ) ;
#253 = CYLINDRICAL_SURFACE ( 'NONE', #206, 0.005494500000000001119 ) ;
#254 = VECTOR ( 'NONE', #285, 39.37007874015748143 ) ;
#255 = ORIENTED_EDGE ( 'NONE', *, *, #112, .F. ) ;
#256 = VERTEX_POINT ( 'NONE', #202 ) ;
#257 = CIRCLE ( 'NONE', #130, 0.005494500000000001987 ) ;
#258 = AXIS2_PLACEMENT_3D ( 'NONE', #17, #249, #148 ) ;
#259 = EDGE_LOOP ( 'NONE', ( #122, #214, #255, #189 ) ) ;
#260 = DIRECTION ( 'NONE',  ( -1.000000000000000000, 0.0000000000000000000, 1.224646799147353700E-16 ) ) ;
#261 = UNCERTAINTY_MEASURE_WITH_UNIT (LENGTH_MEASURE( 1.000000000000000082E-05 ), #87, 'distance_accuracy_value', 'NONE');
#262 = EDGE_LOOP ( 'NONE', ( #97, #69 ) ) ;
#263 = DIRECTION ( 'NONE',  ( 1.000000000000000000, 0.0000000000000000000, 0.0000000000000000000 ) ) ;
#264 = EDGE_LOOP ( 'NONE', ( #295, #20, #272, #57 ) ) ;
#265 = VECTOR ( 'NONE', #132, 39.37007874015748143 ) ;
#266 = LINE ( 'NONE', #271, #216 ) ;
#267 =( NAMED_UNIT ( * ) SI_UNIT ( $, .STERADIAN. ) SOLID_ANGLE_UNIT ( ) );
#268 = DIRECTION ( 'NONE',  ( 0.0000000000000000000, 0.0000000000000000000, 1.000000000000000000 ) ) ;
#269 = ADVANCED_FACE ( 'NONE', ( #43 ), #133, .T. ) ;
#270 = FACE_OUTER_BOUND ( 'NONE', #88, .T. ) ;
#271 = CARTESIAN_POINT ( 'NONE',  ( -0.005494499999999997650, 6.728821837915132967E-19, 0.01600000000000000033 ) ) ;
#272 = ORIENTED_EDGE ( 'NONE', *, *, #95, .T. ) ;
#273 = VERTEX_POINT ( 'NONE', #281 ) ;
#274 = AXIS2_PLACEMENT_3D ( 'NONE', #29, #161, #124 ) ;
#275 = ORIENTED_EDGE ( 'NONE', *, *, #95, .F. ) ;
#276 = FACE_OUTER_BOUND ( 'NONE', #264, .T. ) ;
#277 = EDGE_LOOP ( 'NONE', ( #9, #136, #119, #101 ) ) ;
#278 = AXIS2_PLACEMENT_3D ( 'NONE', #286, #167, #263 ) ;
#279 = ORIENTED_EDGE ( 'NONE', *, *, #171, .T. ) ;
#280 = CARTESIAN_POINT ( 'NONE',  ( -0.06250000000000002776, 0.0000000000000000000, 1.485000000000000764 ) ) ;
#281 = CARTESIAN_POINT ( 'NONE',  ( 0.04750000000000064587, 6.735557395310483192E-18, 1.500000000000000222 ) ) ;
#282 = DIRECTION ( 'NONE',  ( 1.000000000000000000, 0.0000000000000000000, 0.0000000000000000000 ) ) ;
#283 = CARTESIAN_POINT ( 'NONE',  ( 0.0000000000000000000, 0.0000000000000000000, 1.500000000000000222 ) ) ;
#284 = CONICAL_SURFACE ( 'NONE', #41, 0.005494500000000000252, 0.1745329251994338637 ) ;
#285 = DIRECTION ( 'NONE',  ( -1.224646799147353700E-16, -0.0000000000000000000, -1.000000000000000000 ) ) ;
#286 = CARTESIAN_POINT ( 'NONE',  ( 0.0000000000000000000, 0.0000000000000000000, 1.500000000000000222 ) ) ;
#287 = DIRECTION ( 'NONE',  ( 0.0000000000000000000, 0.0000000000000000000, -1.000000000000000000 ) ) ;
#288 = ADVANCED_FACE ( 'NONE', ( #12 ), #176, .T. ) ;
#289 = LINE ( 'NONE', #147, #2 ) ;
#290 =( NAMED_UNIT ( * ) PLANE_ANGLE_UNIT ( ) SI_UNIT ( $, .RADIAN. ) );
#291 = DIRECTION ( 'NONE',  ( -1.224646799147353700E-16, -0.0000000000000000000, -1.000000000000000000 ) ) ;
#292 = CONICAL_SURFACE ( 'NONE', #55, 0.005494500000000000252, 0.1745329251994338637 ) ;
#293 =( GEOMETRIC_REPRESENTATION_CONTEXT ( 3 ) GLOBAL_UNCERTAINTY_ASSIGNED_CONTEXT ( ( #103 ) ) GLOBAL_UNIT_ASSIGNED_CONTEXT ( ( #160, #290, #267 ) ) REPRESENTATION_CONTEXT ( 'NONE', 'WORKASPACE' ) );
#294 = LENGTH_MEASURE_WITH_UNIT ( LENGTH_MEASURE( 0.02539999999999999897 ), #200 );
#295 = ORIENTED_EDGE ( 'NONE', *, *, #178, .F. ) ;
#296 = LINE ( 'NONE', #89, #22 ) ;
#297 = DIRECTION ( 'NONE',  ( -1.000000000000000000, 0.0000000000000000000, 1.224646799147353700E-16 ) ) ;
#298 = CIRCLE ( 'NONE', #163, 0.06250000000000002776 ) ;
#299 = EDGE_CURVE ( 'NONE', #273, #187, #246, .T. ) ;
ENDSEC;
END-ISO-10303-21;
