ISO-10303-21;
HEADER;
FILE_DESCRIPTION (( 'STEP AP214' ),
    '1' );
FILE_NAME ('59693.STEP',
    '2023-07-24T15:24:48',
    ( '' ),
    ( '' ),
    'SwSTEP 2.0',
    'SolidWorks 2023',
    '' );
FILE_SCHEMA (( 'AUTOMOTIVE_DESIGN' ));
ENDSEC;

DATA;
#1 = FILL_AREA_STYLE_COLOUR ( '', #67 ) ;
#2 = DIRECTION ( 'NONE',  ( -1.000000000000000000, 0.000000000000000000, 0.000000000000000000 ) ) ;
#3 = AXIS2_PLACEMENT_3D ( 'NONE', #244, #341, #312 ) ;
#4 = ORIENTED_EDGE ( 'NONE', *, *, #60, .F. ) ;
#5 = PRODUCT_CONTEXT ( 'NONE', #151, 'mechanical' ) ;
#6 = DIRECTION ( 'NONE',  ( -1.000000000000000000, 0.000000000000000000, 0.000000000000000000 ) ) ;
#7 = VERTEX_POINT ( 'NONE', #125 ) ;
#8 = ADVANCED_FACE ( 'NONE', ( #68 ), #232, .T. ) ;
#9 = DIRECTION ( 'NONE',  ( -1.213614799521464586E-16, 1.000000000000000000, -0.000000000000000000 ) ) ;
#10 = AXIS2_PLACEMENT_3D ( 'NONE', #71, #349, #208 ) ;
#11 =( NAMED_UNIT ( * ) SI_UNIT ( $, .STERADIAN. ) SOLID_ANGLE_UNIT ( ) );
#12 = CIRCLE ( 'NONE', #181, 2.500000000000000000 ) ;
#13 = DIRECTION ( 'NONE',  ( 0.000000000000000000, 0.000000000000000000, 1.000000000000000000 ) ) ;
#14 = CARTESIAN_POINT ( 'NONE',  ( 3.367778697655221505E-16, 0.000000000000000000, 2.500000000000000000 ) ) ;
#15 =( NAMED_UNIT ( * ) PLANE_ANGLE_UNIT ( ) SI_UNIT ( $, .RADIAN. ) );
#16 = PRESENTATION_STYLE_ASSIGNMENT (( #130 ) ) ;
#17 = DIRECTION ( 'NONE',  ( 0.000000000000000000, 0.000000000000000000, -1.000000000000000000 ) ) ;
#18 = FACE_OUTER_BOUND ( 'NONE', #217, .T. ) ;
#19 = AXIS2_PLACEMENT_3D ( 'NONE', #206, #9, #6 ) ;
#20 = PRESENTATION_LAYER_ASSIGNMENT (  '', '', ( #211 ) ) ;
#21 = CARTESIAN_POINT ( 'NONE',  ( 0.000000000000000000, 9.000000000000000000, 0.000000000000000000 ) ) ;
#22 = SURFACE_STYLE_USAGE ( .BOTH. , #276 ) ;
#23 =( NAMED_UNIT ( * ) PLANE_ANGLE_UNIT ( ) SI_UNIT ( $, .RADIAN. ) );
#24 = EDGE_CURVE ( 'NONE', #196, #58, #74, .T. ) ;
#25 = DIRECTION ( 'NONE',  ( -1.213614799521464586E-16, 1.000000000000000000, -0.000000000000000000 ) ) ;
#26 = VERTEX_POINT ( 'NONE', #353 ) ;
#27 = FILL_AREA_STYLE ('',( #258 ) ) ;
#28 = ORIENTED_EDGE ( 'NONE', *, *, #24, .T. ) ;
#29 = AXIS2_PLACEMENT_3D ( 'NONE', #109, #35, #288 ) ;
#30 = COLOUR_RGB ( '',1.000000000000000000, 0.000000000000000000, 0.000000000000000000 ) ;
#31 = DIRECTION ( 'NONE',  ( -0.000000000000000000, -1.000000000000000000, -0.000000000000000000 ) ) ;
#32 = EDGE_LOOP ( 'NONE', ( #177, #191, #257, #175 ) ) ;
#33 = SHAPE_DEFINITION_REPRESENTATION ( #304, #190 ) ;
#34 = PRESENTATION_LAYER_ASSIGNMENT (  '', '', ( #69 ) ) ;
#35 = DIRECTION ( 'NONE',  ( -1.213614799521464586E-16, 1.000000000000000000, -0.000000000000000000 ) ) ;
#36 = SURFACE_STYLE_USAGE ( .BOTH. , #295 ) ;
#37 = ADVANCED_FACE ( 'NONE', ( #146 ), #296, .F. ) ;
#38 = ORIENTED_EDGE ( 'NONE', *, *, #157, .T. ) ;
#39 =( LENGTH_UNIT ( ) NAMED_UNIT ( * ) SI_UNIT ( .MILLI., .METRE. ) );
#40 = AXIS2_PLACEMENT_3D ( 'NONE', #98, #207, #322 ) ;
#41 = AXIS2_PLACEMENT_3D ( 'NONE', #105, #108, #124 ) ;
#42 = DIRECTION ( 'NONE',  ( -0.000000000000000000, -1.000000000000000000, -0.000000000000000000 ) ) ;
#43 =( NAMED_UNIT ( * ) PLANE_ANGLE_UNIT ( ) SI_UNIT ( $, .RADIAN. ) );
#44 = SURFACE_STYLE_FILL_AREA ( #302 ) ;
#45 = APPLICATION_CONTEXT ( 'automotive_design' ) ;
#46 = PRESENTATION_STYLE_ASSIGNMENT (( #22 ) ) ;
#47 = AXIS2_PLACEMENT_3D ( 'NONE', #180, #94, #128 ) ;
#48 = AXIS2_PLACEMENT_3D ( 'NONE', #160, #55, #280 ) ;
#49 = DIRECTION ( 'NONE',  ( 1.000000000000000000, 0.000000000000000000, -1.224646799147353207E-16 ) ) ;
#50 = DIRECTION ( 'NONE',  ( 0.000000000000000000, 0.000000000000000000, -1.000000000000000000 ) ) ;
#51 = SURFACE_STYLE_FILL_AREA ( #187 ) ;
#52 = DIRECTION ( 'NONE',  ( 0.000000000000000000, 0.000000000000000000, -1.000000000000000000 ) ) ;
#53 =( GEOMETRIC_REPRESENTATION_CONTEXT ( 3 ) GLOBAL_UNCERTAINTY_ASSIGNED_CONTEXT ( ( #116 ) ) GLOBAL_UNIT_ASSIGNED_CONTEXT ( ( #161, #15, #301 ) ) REPRESENTATION_CONTEXT ( 'NONE', 'WORKASPACE' ) );
#54 = AXIS2_PLACEMENT_3D ( 'NONE', #21, #137, #50 ) ;
#55 = DIRECTION ( 'NONE',  ( -0.000000000000000000, -1.000000000000000000, -0.000000000000000000 ) ) ;
#56 = UNCERTAINTY_MEASURE_WITH_UNIT (LENGTH_MEASURE( 1.000000000000000082E-05 ), #345, 'distance_accuracy_value', 'NONE');
#57 = FILL_AREA_STYLE ('',( #176 ) ) ;
#58 = VERTEX_POINT ( 'NONE', #325 ) ;
#59 = SURFACE_SIDE_STYLE ('',( #249 ) ) ;
#60 = EDGE_CURVE ( 'NONE', #284, #87, #287, .T. ) ;
#61 = STYLED_ITEM ( 'NONE', ( #46 ), #233 ) ;
#62 = VECTOR ( 'NONE', #31, 1000.000000000000000 ) ;
#63 = ORIENTED_EDGE ( 'NONE', *, *, #330, .F. ) ;
#64 = DIRECTION ( 'NONE',  ( 0.000000000000000000, 0.000000000000000000, -1.000000000000000000 ) ) ;
#65 = FILL_AREA_STYLE_COLOUR ( '', #30 ) ;
#66 = SURFACE_STYLE_FILL_AREA ( #106 ) ;
#67 = COLOUR_RGB ( '',1.000000000000000000, 0.000000000000000000, 0.000000000000000000 ) ;
#68 = FACE_OUTER_BOUND ( 'NONE', #32, .T. ) ;
#69 = STYLED_ITEM ( 'NONE', ( #16 ), #333 ) ;
#70 = ORIENTED_EDGE ( 'NONE', *, *, #224, .T. ) ;
#71 = CARTESIAN_POINT ( 'NONE',  ( 0.000000000000000000, 0.000000000000000000, 0.000000000000000000 ) ) ;
#72 = EDGE_LOOP ( 'NONE', ( #154, #140, #150, #294 ) ) ;
#73 =( NAMED_UNIT ( * ) SI_UNIT ( $, .STERADIAN. ) SOLID_ANGLE_UNIT ( ) );
#74 = CIRCLE ( 'NONE', #47, 3.000000000000000000 ) ;
#75 =( GEOMETRIC_REPRESENTATION_CONTEXT ( 3 ) GLOBAL_UNCERTAINTY_ASSIGNED_CONTEXT ( ( #253 ) ) GLOBAL_UNIT_ASSIGNED_CONTEXT ( ( #318, #43, #79 ) ) REPRESENTATION_CONTEXT ( 'NONE', 'WORKASPACE' ) );
#76 = ADVANCED_FACE ( 'NONE', ( #262 ), #178, .T. ) ;
#77 = CIRCLE ( 'NONE', #3, 2.999999999999992450 ) ;
#78 =( NAMED_UNIT ( * ) PLANE_ANGLE_UNIT ( ) SI_UNIT ( $, .RADIAN. ) );
#79 =( NAMED_UNIT ( * ) SI_UNIT ( $, .STERADIAN. ) SOLID_ANGLE_UNIT ( ) );
#80 = ADVANCED_FACE ( 'NONE', ( #143 ), #264, .T. ) ;
#81 = AXIS2_PLACEMENT_3D ( 'NONE', #274, #103, #17 ) ;
#82 = EDGE_LOOP ( 'NONE', ( #120, #102 ) ) ;
#83 = CARTESIAN_POINT ( 'NONE',  ( 2.999999999999996891, 63.00000000000000000, 3.673940397442054445E-16 ) ) ;
#84 = MECHANICAL_DESIGN_GEOMETRIC_PRESENTATION_REPRESENTATION (  '', ( #227 ), #306 ) ;
#85 =( LENGTH_UNIT ( ) NAMED_UNIT ( * ) SI_UNIT ( .MILLI., .METRE. ) );
#86 = SURFACE_SIDE_STYLE ('',( #193 ) ) ;
#87 = VERTEX_POINT ( 'NONE', #310 ) ;
#88 = SURFACE_SIDE_STYLE ('',( #344 ) ) ;
#89 = EDGE_CURVE ( 'NONE', #26, #241, #213, .T. ) ;
#90 = CIRCLE ( 'NONE', #48, 3.000000000000000000 ) ;
#91 = ORIENTED_EDGE ( 'NONE', *, *, #275, .T. ) ;
#92 = DIRECTION ( 'NONE',  ( 0.000000000000000000, 0.000000000000000000, -1.000000000000000000 ) ) ;
#93 = EDGE_CURVE ( 'NONE', #222, #7, #90, .T. ) ;
#94 = DIRECTION ( 'NONE',  ( -0.000000000000000000, -1.000000000000000000, -0.000000000000000000 ) ) ;
#95 = CARTESIAN_POINT ( 'NONE',  ( 3.673940397442059868E-16, 0.000000000000000000, 3.000000000000000000 ) ) ;
#96 =( NAMED_UNIT ( * ) PLANE_ANGLE_UNIT ( ) SI_UNIT ( $, .RADIAN. ) );
#97 = EDGE_CURVE ( 'NONE', #241, #87, #110, .T. ) ;
#98 = CARTESIAN_POINT ( 'NONE',  ( 8.023096076392732812E-15, 9.000000000000000000, 0.000000000000000000 ) ) ;
#99 = MECHANICAL_DESIGN_GEOMETRIC_PRESENTATION_REPRESENTATION (  '', ( #255 ), #136 ) ;
#100 = STYLED_ITEM ( 'NONE', ( #297 ), #267 ) ;
#101 = EDGE_CURVE ( 'NONE', #58, #123, #317, .T. ) ;
#102 = ORIENTED_EDGE ( 'NONE', *, *, #360, .F. ) ;
#103 = DIRECTION ( 'NONE',  ( 0.000000000000000000, -1.000000000000000000, -0.000000000000000000 ) ) ;
#104 = VECTOR ( 'NONE', #254, 1000.000000000000000 ) ;
#105 = CARTESIAN_POINT ( 'NONE',  ( 0.000000000000000000, 0.000000000000000000, 0.000000000000000000 ) ) ;
#106 = FILL_AREA_STYLE ('',( #210 ) ) ;
#107 = EDGE_LOOP ( 'NONE', ( #313, #38 ) ) ;
#108 = DIRECTION ( 'NONE',  ( 0.000000000000000000, 0.000000000000000000, 1.000000000000000000 ) ) ;
#109 = CARTESIAN_POINT ( 'NONE',  ( 1.469576158976823750E-15, 63.00000000000000000, 0.000000000000000000 ) ) ;
#110 = CIRCLE ( 'NONE', #292, 2.999999999999998668 ) ;
#111 = ORIENTED_EDGE ( 'NONE', *, *, #263, .T. ) ;
#112 = DIRECTION ( 'NONE',  ( -0.000000000000000000, -1.000000000000000000, -0.000000000000000000 ) ) ;
#113 = DIRECTION ( 'NONE',  ( -0.000000000000000000, -1.000000000000000000, -0.000000000000000000 ) ) ;
#114 = PRESENTATION_STYLE_ASSIGNMENT (( #119 ) ) ;
#115 = SURFACE_STYLE_FILL_AREA ( #201 ) ;
#116 = UNCERTAINTY_MEASURE_WITH_UNIT (LENGTH_MEASURE( 1.000000000000000082E-05 ), #161, 'distance_accuracy_value', 'NONE');
#117 = PRESENTATION_LAYER_ASSIGNMENT (  '', '', ( #61 ) ) ;
#118 = AXIS2_PLACEMENT_3D ( 'NONE', #362, #361, #214 ) ;
#119 = SURFACE_STYLE_USAGE ( .BOTH. , #86 ) ;
#120 = ORIENTED_EDGE ( 'NONE', *, *, #93, .F. ) ;
#121 = DIRECTION ( 'NONE',  ( -0.000000000000000000, -1.000000000000000000, -0.000000000000000000 ) ) ;
#122 = CARTESIAN_POINT ( 'NONE',  ( -2.999999999999984457, 9.000000000000001776, 0.000000000000000000 ) ) ;
#123 = VERTEX_POINT ( 'NONE', #359 ) ;
#124 = DIRECTION ( 'NONE',  ( 1.000000000000000000, 0.000000000000000000, 0.000000000000000000 ) ) ;
#125 = CARTESIAN_POINT ( 'NONE',  ( 3.673940397442059868E-16, 9.000000000000000000, 3.000000000000000000 ) ) ;
#126 = ADVANCED_FACE ( 'NONE', ( #209 ), #336, .F. ) ;
#127 = MECHANICAL_DESIGN_GEOMETRIC_PRESENTATION_REPRESENTATION (  '', ( #188 ), #339 ) ;
#128 = DIRECTION ( 'NONE',  ( 0.000000000000000000, 0.000000000000000000, -1.000000000000000000 ) ) ;
#129 = LINE ( 'NONE', #95, #218 ) ;
#130 = SURFACE_STYLE_USAGE ( .BOTH. , #272 ) ;
#131 = FACE_OUTER_BOUND ( 'NONE', #107, .T. ) ;
#132 = PRODUCT_RELATED_PRODUCT_CATEGORY ( 'part', '', ( #358 ) ) ;
#133 =( LENGTH_UNIT ( ) NAMED_UNIT ( * ) SI_UNIT ( .MILLI., .METRE. ) );
#134 = DIRECTION ( 'NONE',  ( 0.000000000000000000, 1.000000000000000000, 0.000000000000000000 ) ) ;
#135 = ORIENTED_EDGE ( 'NONE', *, *, #89, .T. ) ;
#136 =( GEOMETRIC_REPRESENTATION_CONTEXT ( 3 ) GLOBAL_UNCERTAINTY_ASSIGNED_CONTEXT ( ( #174 ) ) GLOBAL_UNIT_ASSIGNED_CONTEXT ( ( #351, #23, #242 ) ) REPRESENTATION_CONTEXT ( 'NONE', 'WORKASPACE' ) );
#137 = DIRECTION ( 'NONE',  ( -0.000000000000000000, -1.000000000000000000, -0.000000000000000000 ) ) ;
#138 = CARTESIAN_POINT ( 'NONE',  ( 0.000000000000000000, 9.000000000000000000, -3.000000000000000000 ) ) ;
#139 = DIRECTION ( 'NONE',  ( -1.000000000000000000, 0.000000000000000000, 0.000000000000000000 ) ) ;
#140 = ORIENTED_EDGE ( 'NONE', *, *, #360, .T. ) ;
#141 = EDGE_CURVE ( 'NONE', #123, #338, #298, .T. ) ;
#142 = CIRCLE ( 'NONE', #365, 3.000000000000000000 ) ;
#143 = FACE_OUTER_BOUND ( 'NONE', #368, .T. ) ;
#144 = CARTESIAN_POINT ( 'NONE',  ( 0.000000000000000000, 0.000000000000000000, 0.000000000000000000 ) ) ;
#145 = CYLINDRICAL_SURFACE ( 'NONE', #185, 3.000000000000000000 ) ;
#146 = FACE_OUTER_BOUND ( 'NONE', #247, .T. ) ;
#147 = DIRECTION ( 'NONE',  ( 1.000000000000000000, 1.213614799521464586E-16, 0.000000000000000000 ) ) ;
#148 = UNCERTAINTY_MEASURE_WITH_UNIT (LENGTH_MEASURE( 1.000000000000000082E-05 ), #234, 'distance_accuracy_value', 'NONE');
#149 = MECHANICAL_DESIGN_GEOMETRIC_PRESENTATION_REPRESENTATION (  '', ( #61 ), #53 ) ;
#150 = ORIENTED_EDGE ( 'NONE', *, *, #271, .T. ) ;
#151 = APPLICATION_CONTEXT ( 'automotive_design' ) ;
#152 = PLANE ( 'NONE',  #230 ) ;
#153 = CARTESIAN_POINT ( 'NONE',  ( 1.469576158976823750E-15, 63.00000000000000000, 0.000000000000000000 ) ) ;
#154 = ORIENTED_EDGE ( 'NONE', *, *, #263, .F. ) ;
#155 = AXIS2_PLACEMENT_3D ( 'NONE', #153, #225, #2 ) ;
#156 =( GEOMETRIC_REPRESENTATION_CONTEXT ( 3 ) GLOBAL_UNCERTAINTY_ASSIGNED_CONTEXT ( ( #148 ) ) GLOBAL_UNIT_ASSIGNED_CONTEXT ( ( #234, #78, #73 ) ) REPRESENTATION_CONTEXT ( 'NONE', 'WORKASPACE' ) );
#157 = EDGE_CURVE ( 'NONE', #338, #123, #12, .T. ) ;
#158 = SURFACE_SIDE_STYLE ('',( #44 ) ) ;
#159 = COLOUR_RGB ( '',1.000000000000000000, 0.000000000000000000, 0.000000000000000000 ) ;
#160 = CARTESIAN_POINT ( 'NONE',  ( 0.000000000000000000, 9.000000000000000000, 0.000000000000000000 ) ) ;
#161 =( LENGTH_UNIT ( ) NAMED_UNIT ( * ) SI_UNIT ( .MILLI., .METRE. ) );
#162 = PLANE ( 'NONE',  #81 ) ;
#163 = EDGE_CURVE ( 'NONE', #87, #241, #164, .T. ) ;
#164 = CIRCLE ( 'NONE', #29, 2.999999999999998668 ) ;
#165 = CARTESIAN_POINT ( 'NONE',  ( 1.469576158976823750E-15, 63.00000000000000000, 0.000000000000000000 ) ) ;
#166 = MECHANICAL_DESIGN_GEOMETRIC_PRESENTATION_REPRESENTATION (  '', ( #327 ), #335 ) ;
#167 = UNCERTAINTY_MEASURE_WITH_UNIT (LENGTH_MEASURE( 1.000000000000000082E-05 ), #350, 'distance_accuracy_value', 'NONE');
#168 = SURFACE_STYLE_USAGE ( .BOTH. , #59 ) ;
#169 = EDGE_LOOP ( 'NONE', ( #290, #111, #268, #279 ) ) ;
#170 = APPLICATION_PROTOCOL_DEFINITION ( 'draft international standard', 'automotive_design', 1998, #151 ) ;
#171 = ORIENTED_EDGE ( 'NONE', *, *, #163, .F. ) ;
#172 = SURFACE_STYLE_USAGE ( .BOTH. , #88 ) ;
#173 = ORIENTED_EDGE ( 'NONE', *, *, #97, .T. ) ;
#174 = UNCERTAINTY_MEASURE_WITH_UNIT (LENGTH_MEASURE( 1.000000000000000082E-05 ), #351, 'distance_accuracy_value', 'NONE');
#175 = ORIENTED_EDGE ( 'NONE', *, *, #97, .F. ) ;
#176 = FILL_AREA_STYLE_COLOUR ( '', #347 ) ;
#177 = ORIENTED_EDGE ( 'NONE', *, *, #89, .F. ) ;
#178 = CYLINDRICAL_SURFACE ( 'NONE', #155, 2.999999999999995559 ) ;
#179 = CYLINDRICAL_SURFACE ( 'NONE', #10, 3.000000000000000000 ) ;
#180 = CARTESIAN_POINT ( 'NONE',  ( 0.000000000000000000, 0.5000000000000000000, 0.000000000000000000 ) ) ;
#181 = AXIS2_PLACEMENT_3D ( 'NONE', #144, #121, #92 ) ;
#182 = CIRCLE ( 'NONE', #54, 3.000000000000000000 ) ;
#183 = CARTESIAN_POINT ( 'NONE',  ( 0.000000000000000000, 9.000000000000000000, 0.000000000000000000 ) ) ;
#184 =( NAMED_UNIT ( * ) PLANE_ANGLE_UNIT ( ) SI_UNIT ( $, .RADIAN. ) );
#185 = AXIS2_PLACEMENT_3D ( 'NONE', #197, #319, #64 ) ;
#186 = TOROIDAL_SURFACE ( 'NONE', #205, 2.500000000000000000, 0.5000000000000000000 ) ;
#187 = FILL_AREA_STYLE ('',( #337 ) ) ;
#188 = STYLED_ITEM ( 'NONE', ( #259 ), #256 ) ;
#189 = DIRECTION ( 'NONE',  ( -0.000000000000000000, -1.000000000000000000, -0.000000000000000000 ) ) ;
#190 = ADVANCED_BREP_SHAPE_REPRESENTATION ( '59693', ( #333, #326, #41 ), #156 ) ;
#191 = ORIENTED_EDGE ( 'NONE', *, *, #330, .T. ) ;
#192 = CARTESIAN_POINT ( 'NONE',  ( 0.000000000000000000, 0.5000000000000000000, 0.000000000000000000 ) ) ;
#193 = SURFACE_STYLE_FILL_AREA ( #57 ) ;
#194 = ORIENTED_EDGE ( 'NONE', *, *, #343, .F. ) ;
#195 = UNCERTAINTY_MEASURE_WITH_UNIT (LENGTH_MEASURE( 1.000000000000000082E-05 ), #39, 'distance_accuracy_value', 'NONE');
#196 = VERTEX_POINT ( 'NONE', #219 ) ;
#197 = CARTESIAN_POINT ( 'NONE',  ( 0.000000000000000000, 0.000000000000000000, 0.000000000000000000 ) ) ;
#198 = AXIS2_PLACEMENT_3D ( 'NONE', #314, #112, #226 ) ;
#199 =( GEOMETRIC_REPRESENTATION_CONTEXT ( 3 ) GLOBAL_UNCERTAINTY_ASSIGNED_CONTEXT ( ( #195 ) ) GLOBAL_UNIT_ASSIGNED_CONTEXT ( ( #39, #184, #331 ) ) REPRESENTATION_CONTEXT ( 'NONE', 'WORKASPACE' ) );
#200 = PRESENTATION_STYLE_ASSIGNMENT (( #168 ) ) ;
#201 = FILL_AREA_STYLE ('',( #1 ) ) ;
#202 = UNCERTAINTY_MEASURE_WITH_UNIT (LENGTH_MEASURE( 1.000000000000000082E-05 ), #133, 'distance_accuracy_value', 'NONE');
#203 = ORIENTED_EDGE ( 'NONE', *, *, #224, .F. ) ;
#204 = ADVANCED_FACE ( 'NONE', ( #223 ), #152, .T. ) ;
#205 = AXIS2_PLACEMENT_3D ( 'NONE', #192, #113, #283 ) ;
#206 = CARTESIAN_POINT ( 'NONE',  ( 1.469576158976823750E-15, 63.00000000000000000, 0.000000000000000000 ) ) ;
#207 = DIRECTION ( 'NONE',  ( -1.213614799521464586E-16, 1.000000000000000000, 0.000000000000000000 ) ) ;
#208 = DIRECTION ( 'NONE',  ( 0.000000000000000000, 0.000000000000000000, -1.000000000000000000 ) ) ;
#209 = FACE_OUTER_BOUND ( 'NONE', #316, .T. ) ;
#210 = FILL_AREA_STYLE_COLOUR ( '', #356 ) ;
#211 = STYLED_ITEM ( 'NONE', ( #286 ), #204 ) ;
#212 = PRESENTATION_LAYER_ASSIGNMENT (  '', '', ( #327 ) ) ;
#213 = LINE ( 'NONE', #83, #270 ) ;
#214 = DIRECTION ( 'NONE',  ( -1.000000000000000000, 0.000000000000000000, 0.000000000000000000 ) ) ;
#215 = FACE_OUTER_BOUND ( 'NONE', #72, .T. ) ;
#216 = FILL_AREA_STYLE_COLOUR ( '', #265 ) ;
#217 = EDGE_LOOP ( 'NONE', ( #203, #28, #291, #229 ) ) ;
#218 = VECTOR ( 'NONE', #329, 1000.000000000000000 ) ;
#219 = CARTESIAN_POINT ( 'NONE',  ( 3.673940397442059868E-16, 0.5000000000000000000, 3.000000000000000000 ) ) ;
#220 = MECHANICAL_DESIGN_GEOMETRIC_PRESENTATION_REPRESENTATION (  '', ( #100 ), #199 ) ;
#221 = UNCERTAINTY_MEASURE_WITH_UNIT (LENGTH_MEASURE( 1.000000000000000082E-05 ), #85, 'distance_accuracy_value', 'NONE');
#222 = VERTEX_POINT ( 'NONE', #138 ) ;
#223 = FACE_OUTER_BOUND ( 'NONE', #82, .T. ) ;
#224 = EDGE_CURVE ( 'NONE', #196, #338, #352, .T. ) ;
#225 = DIRECTION ( 'NONE',  ( -1.213614799521464586E-16, 1.000000000000000000, -0.000000000000000000 ) ) ;
#226 = DIRECTION ( 'NONE',  ( 0.000000000000000000, 0.000000000000000000, -1.000000000000000000 ) ) ;
#227 = STYLED_ITEM ( 'NONE', ( #200 ), #324 ) ;
#228 = SURFACE_SIDE_STYLE ('',( #115 ) ) ;
#229 = ORIENTED_EDGE ( 'NONE', *, *, #157, .F. ) ;
#230 = AXIS2_PLACEMENT_3D ( 'NONE', #183, #134, #300 ) ;
#231 = CIRCLE ( 'NONE', #118, 2.999999999999992450 ) ;
#232 = CYLINDRICAL_SURFACE ( 'NONE', #19, 2.999999999999995559 ) ;
#233 = ADVANCED_FACE ( 'NONE', ( #303 ), #145, .T. ) ;
#234 =( LENGTH_UNIT ( ) NAMED_UNIT ( * ) SI_UNIT ( .MILLI., .METRE. ) );
#235 = CLOSED_SHELL ( 'NONE', ( #233, #80, #267, #324, #256, #204 ) ) ;
#236 = CARTESIAN_POINT ( 'NONE',  ( 3.061616997868383141E-16, 0.5000000000000000000, 2.500000000000000000 ) ) ;
#237 = PRESENTATION_LAYER_ASSIGNMENT (  '', '', ( #255 ) ) ;
#238 = SURFACE_STYLE_FILL_AREA ( #354 ) ;
#239 = PRODUCT_DEFINITION_FORMATION_WITH_SPECIFIED_SOURCE ( 'ANY', '', #358, .NOT_KNOWN. ) ;
#240 = MECHANICAL_DESIGN_GEOMETRIC_PRESENTATION_REPRESENTATION (  '', ( #69 ), #248 ) ;
#241 = VERTEX_POINT ( 'NONE', #289 ) ;
#242 =( NAMED_UNIT ( * ) SI_UNIT ( $, .STERADIAN. ) SOLID_ANGLE_UNIT ( ) );
#243 = PRODUCT_DEFINITION ( 'UNKNOWN', '', #239, #308 ) ;
#244 = CARTESIAN_POINT ( 'NONE',  ( 8.023096076392732812E-15, 9.000000000000001776, 0.000000000000000000 ) ) ;
#245 = EDGE_LOOP ( 'NONE', ( #342, #135, #171, #4 ) ) ;
#246 = CARTESIAN_POINT ( 'NONE',  ( 0.000000000000000000, 0.5000000000000000000, 0.000000000000000000 ) ) ;
#247 = EDGE_LOOP ( 'NONE', ( #194, #63 ) ) ;
#248 =( GEOMETRIC_REPRESENTATION_CONTEXT ( 3 ) GLOBAL_UNCERTAINTY_ASSIGNED_CONTEXT ( ( #202 ) ) GLOBAL_UNIT_ASSIGNED_CONTEXT ( ( #133, #328, #357 ) ) REPRESENTATION_CONTEXT ( 'NONE', 'WORKASPACE' ) );
#249 = SURFACE_STYLE_FILL_AREA ( #315 ) ;
#250 =( NAMED_UNIT ( * ) PLANE_ANGLE_UNIT ( ) SI_UNIT ( $, .RADIAN. ) );
#251 = APPLICATION_PROTOCOL_DEFINITION ( 'draft international standard', 'automotive_design', 1998, #45 ) ;
#252 = CARTESIAN_POINT ( 'NONE',  ( -2.999999999999994227, 63.00000000000000000, 0.000000000000000000 ) ) ;
#253 = UNCERTAINTY_MEASURE_WITH_UNIT (LENGTH_MEASURE( 1.000000000000000082E-05 ), #318, 'distance_accuracy_value', 'NONE');
#254 = DIRECTION ( 'NONE',  ( -1.213614799521464586E-16, 1.000000000000000000, -0.000000000000000000 ) ) ;
#255 = STYLED_ITEM ( 'NONE', ( #320 ), #80 ) ;
#256 = ADVANCED_FACE ( 'NONE', ( #215 ), #179, .T. ) ;
#257 = ORIENTED_EDGE ( 'NONE', *, *, #60, .T. ) ;
#258 = FILL_AREA_STYLE_COLOUR ( '', #159 ) ;
#259 = PRESENTATION_STYLE_ASSIGNMENT (( #36 ) ) ;
#260 = SURFACE_STYLE_USAGE ( .BOTH. , #228 ) ;
#261 = SURFACE_STYLE_USAGE ( .BOTH. , #158 ) ;
#262 = FACE_OUTER_BOUND ( 'NONE', #245, .T. ) ;
#263 = EDGE_CURVE ( 'NONE', #7, #196, #129, .T. ) ;
#264 = TOROIDAL_SURFACE ( 'NONE', #346, 2.500000000000000000, 0.5000000000000000000 ) ;
#265 = COLOUR_RGB ( '',0.7921568627450980005, 0.8196078431372548767, 0.9333333333333333481 ) ;
#266 = FILL_AREA_STYLE_COLOUR ( '', #334 ) ;
#267 = ADVANCED_FACE ( 'NONE', ( #131 ), #162, .T. ) ;
#268 = ORIENTED_EDGE ( 'NONE', *, *, #275, .F. ) ;
#269 = DIRECTION ( 'NONE',  ( 0.000000000000000000, 0.000000000000000000, -1.000000000000000000 ) ) ;
#270 = VECTOR ( 'NONE', #367, 1000.000000000000000 ) ;
#271 = EDGE_CURVE ( 'NONE', #222, #58, #278, .T. ) ;
#272 = SURFACE_SIDE_STYLE ('',( #238 ) ) ;
#273 = CARTESIAN_POINT ( 'NONE',  ( 0.000000000000000000, 0.5000000000000000000, -2.500000000000000000 ) ) ;
#274 = CARTESIAN_POINT ( 'NONE',  ( 0.000000000000000000, 0.000000000000000000, 0.000000000000000000 ) ) ;
#275 = EDGE_CURVE ( 'NONE', #58, #196, #142, .T. ) ;
#276 = SURFACE_SIDE_STYLE ('',( #51 ) ) ;
#277 = AXIS2_PLACEMENT_3D ( 'NONE', #236, #49, #364 ) ;
#278 = LINE ( 'NONE', #282, #62 ) ;
#279 = ORIENTED_EDGE ( 'NONE', *, *, #271, .F. ) ;
#280 = DIRECTION ( 'NONE',  ( 0.000000000000000000, 0.000000000000000000, -1.000000000000000000 ) ) ;
#281 =( NAMED_UNIT ( * ) SI_UNIT ( $, .STERADIAN. ) SOLID_ANGLE_UNIT ( ) );
#282 = CARTESIAN_POINT ( 'NONE',  ( 0.000000000000000000, 0.000000000000000000, -3.000000000000000000 ) ) ;
#283 = DIRECTION ( 'NONE',  ( 0.000000000000000000, 0.000000000000000000, -1.000000000000000000 ) ) ;
#284 = VERTEX_POINT ( 'NONE', #122 ) ;
#285 = PRESENTATION_LAYER_ASSIGNMENT (  '', '', ( #188 ) ) ;
#286 = PRESENTATION_STYLE_ASSIGNMENT (( #172 ) ) ;
#287 = LINE ( 'NONE', #252, #104 ) ;
#288 = DIRECTION ( 'NONE',  ( -1.000000000000000000, 0.000000000000000000, 0.000000000000000000 ) ) ;
#289 = CARTESIAN_POINT ( 'NONE',  ( 3.000000000000000444, 63.00000000000000000, 3.673940397442056910E-16 ) ) ;
#290 = ORIENTED_EDGE ( 'NONE', *, *, #93, .T. ) ;
#291 = ORIENTED_EDGE ( 'NONE', *, *, #101, .T. ) ;
#292 = AXIS2_PLACEMENT_3D ( 'NONE', #165, #25, #139 ) ;
#293 = PRESENTATION_LAYER_ASSIGNMENT (  '', '', ( #100 ) ) ;
#294 = ORIENTED_EDGE ( 'NONE', *, *, #24, .F. ) ;
#295 = SURFACE_SIDE_STYLE ('',( #66 ) ) ;
#296 = PLANE ( 'NONE',  #40 ) ;
#297 = PRESENTATION_STYLE_ASSIGNMENT (( #261 ) ) ;
#298 = CIRCLE ( 'NONE', #198, 2.500000000000000000 ) ;
#299 = CARTESIAN_POINT ( 'NONE',  ( 0.000000000000000000, 0.5000000000000000000, 0.000000000000000000 ) ) ;
#300 = DIRECTION ( 'NONE',  ( 0.000000000000000000, -0.000000000000000000, 1.000000000000000000 ) ) ;
#301 =( NAMED_UNIT ( * ) SI_UNIT ( $, .STERADIAN. ) SOLID_ANGLE_UNIT ( ) );
#302 = FILL_AREA_STYLE ('',( #266 ) ) ;
#303 = FACE_OUTER_BOUND ( 'NONE', #169, .T. ) ;
#304 = PRODUCT_DEFINITION_SHAPE ( 'NONE', 'NONE',  #243 ) ;
#305 = COLOUR_RGB ( '',1.000000000000000000, 0.000000000000000000, 0.000000000000000000 ) ;
#306 =( GEOMETRIC_REPRESENTATION_CONTEXT ( 3 ) GLOBAL_UNCERTAINTY_ASSIGNED_CONTEXT ( ( #221 ) ) GLOBAL_UNIT_ASSIGNED_CONTEXT ( ( #85, #250, #281 ) ) REPRESENTATION_CONTEXT ( 'NONE', 'WORKASPACE' ) );
#307 = DIRECTION ( 'NONE',  ( 1.213614799521464586E-16, -1.000000000000000000, 0.000000000000000000 ) ) ;
#308 = PRODUCT_DEFINITION_CONTEXT ( 'detailed design', #45, 'design' ) ;
#309 = MECHANICAL_DESIGN_GEOMETRIC_PRESENTATION_REPRESENTATION (  '', ( #211 ), #75 ) ;
#310 = CARTESIAN_POINT ( 'NONE',  ( -2.999999999999997335, 63.00000000000000000, 0.000000000000000000 ) ) ;
#311 = ORIENTED_EDGE ( 'NONE', *, *, #163, .T. ) ;
#312 = DIRECTION ( 'NONE',  ( -1.000000000000000000, 0.000000000000000000, 0.000000000000000000 ) ) ;
#313 = ORIENTED_EDGE ( 'NONE', *, *, #141, .T. ) ;
#314 = CARTESIAN_POINT ( 'NONE',  ( 0.000000000000000000, 0.000000000000000000, 0.000000000000000000 ) ) ;
#315 = FILL_AREA_STYLE ('',( #65 ) ) ;
#316 = EDGE_LOOP ( 'NONE', ( #311, #173 ) ) ;
#317 = CIRCLE ( 'NONE', #323, 0.5000000000000000000 ) ;
#318 =( LENGTH_UNIT ( ) NAMED_UNIT ( * ) SI_UNIT ( .MILLI., .METRE. ) );
#319 = DIRECTION ( 'NONE',  ( -0.000000000000000000, -1.000000000000000000, -0.000000000000000000 ) ) ;
#320 = PRESENTATION_STYLE_ASSIGNMENT (( #260 ) ) ;
#321 =( NAMED_UNIT ( * ) SI_UNIT ( $, .STERADIAN. ) SOLID_ANGLE_UNIT ( ) );
#322 = DIRECTION ( 'NONE',  ( -1.000000000000000000, -1.213614799521464586E-16, 0.000000000000000000 ) ) ;
#323 = AXIS2_PLACEMENT_3D ( 'NONE', #273, #369, #13 ) ;
#324 = ADVANCED_FACE ( 'NONE', ( #18 ), #186, .T. ) ;
#325 = CARTESIAN_POINT ( 'NONE',  ( 0.000000000000000000, 0.5000000000000000000, -3.000000000000000000 ) ) ;
#326 = MANIFOLD_SOLID_BREP ( 'Revolve - Tool Body (Straight Shanked)', #355 ) ;
#327 = STYLED_ITEM ( 'NONE', ( #114 ), #326 ) ;
#328 =( NAMED_UNIT ( * ) PLANE_ANGLE_UNIT ( ) SI_UNIT ( $, .RADIAN. ) );
#329 = DIRECTION ( 'NONE',  ( -0.000000000000000000, -1.000000000000000000, -0.000000000000000000 ) ) ;
#330 = EDGE_CURVE ( 'NONE', #26, #284, #77, .T. ) ;
#331 =( NAMED_UNIT ( * ) SI_UNIT ( $, .STERADIAN. ) SOLID_ANGLE_UNIT ( ) );
#332 = CARTESIAN_POINT ( 'NONE',  ( 3.000000000000000000, 63.00000000000000000, 0.000000000000000000 ) ) ;
#333 = MANIFOLD_SOLID_BREP ( 'Revolve - Cutting Edge', #235 ) ;
#334 = COLOUR_RGB ( '',1.000000000000000000, 0.000000000000000000, 0.000000000000000000 ) ;
#335 =( GEOMETRIC_REPRESENTATION_CONTEXT ( 3 ) GLOBAL_UNCERTAINTY_ASSIGNED_CONTEXT ( ( #56 ) ) GLOBAL_UNIT_ASSIGNED_CONTEXT ( ( #345, #348, #321 ) ) REPRESENTATION_CONTEXT ( 'NONE', 'WORKASPACE' ) );
#336 = PLANE ( 'NONE',  #363 ) ;
#337 = FILL_AREA_STYLE_COLOUR ( '', #305 ) ;
#338 = VERTEX_POINT ( 'NONE', #14 ) ;
#339 =( GEOMETRIC_REPRESENTATION_CONTEXT ( 3 ) GLOBAL_UNCERTAINTY_ASSIGNED_CONTEXT ( ( #167 ) ) GLOBAL_UNIT_ASSIGNED_CONTEXT ( ( #350, #96, #11 ) ) REPRESENTATION_CONTEXT ( 'NONE', 'WORKASPACE' ) );
#340 = PRESENTATION_LAYER_ASSIGNMENT (  '', '', ( #227 ) ) ;
#341 = DIRECTION ( 'NONE',  ( -1.213614799521464586E-16, 1.000000000000000000, -0.000000000000000000 ) ) ;
#342 = ORIENTED_EDGE ( 'NONE', *, *, #343, .T. ) ;
#343 = EDGE_CURVE ( 'NONE', #284, #26, #231, .T. ) ;
#344 = SURFACE_STYLE_FILL_AREA ( #27 ) ;
#345 =( LENGTH_UNIT ( ) NAMED_UNIT ( * ) SI_UNIT ( .MILLI., .METRE. ) );
#346 = AXIS2_PLACEMENT_3D ( 'NONE', #246, #189, #52 ) ;
#347 = COLOUR_RGB ( '',0.7921568627450980005, 0.8196078431372548767, 0.9333333333333333481 ) ;
#348 =( NAMED_UNIT ( * ) PLANE_ANGLE_UNIT ( ) SI_UNIT ( $, .RADIAN. ) );
#349 = DIRECTION ( 'NONE',  ( -0.000000000000000000, -1.000000000000000000, -0.000000000000000000 ) ) ;
#350 =( LENGTH_UNIT ( ) NAMED_UNIT ( * ) SI_UNIT ( .MILLI., .METRE. ) );
#351 =( LENGTH_UNIT ( ) NAMED_UNIT ( * ) SI_UNIT ( .MILLI., .METRE. ) );
#352 = CIRCLE ( 'NONE', #277, 0.5000000000000000000 ) ;
#353 = CARTESIAN_POINT ( 'NONE',  ( 3.000000000000000888, 9.000000000000001776, 3.673940397442056910E-16 ) ) ;
#354 = FILL_AREA_STYLE ('',( #216 ) ) ;
#355 = CLOSED_SHELL ( 'NONE', ( #76, #37, #8, #126 ) ) ;
#356 = COLOUR_RGB ( '',1.000000000000000000, 0.000000000000000000, 0.000000000000000000 ) ;
#357 =( NAMED_UNIT ( * ) SI_UNIT ( $, .STERADIAN. ) SOLID_ANGLE_UNIT ( ) );
#358 = PRODUCT ( '59693', '59693', '', ( #5 ) ) ;
#359 = CARTESIAN_POINT ( 'NONE',  ( 0.000000000000000000, 0.000000000000000000, -2.500000000000000000 ) ) ;
#360 = EDGE_CURVE ( 'NONE', #7, #222, #182, .T. ) ;
#361 = DIRECTION ( 'NONE',  ( -1.213614799521464586E-16, 1.000000000000000000, -0.000000000000000000 ) ) ;
#362 = CARTESIAN_POINT ( 'NONE',  ( 8.023096076392732812E-15, 9.000000000000001776, 0.000000000000000000 ) ) ;
#363 = AXIS2_PLACEMENT_3D ( 'NONE', #332, #307, #147 ) ;
#364 = DIRECTION ( 'NONE',  ( -1.224646799147353454E-16, 0.000000000000000000, -1.000000000000000000 ) ) ;
#365 = AXIS2_PLACEMENT_3D ( 'NONE', #299, #42, #269 ) ;
#366 = ORIENTED_EDGE ( 'NONE', *, *, #101, .F. ) ;
#367 = DIRECTION ( 'NONE',  ( -1.213614799521464586E-16, 1.000000000000000000, -0.000000000000000000 ) ) ;
#368 = EDGE_LOOP ( 'NONE', ( #91, #70, #370, #366 ) ) ;
#369 = DIRECTION ( 'NONE',  ( -1.000000000000000000, 0.000000000000000000, 0.000000000000000000 ) ) ;
#370 = ORIENTED_EDGE ( 'NONE', *, *, #141, .F. ) ;
ENDSEC;
END-ISO-10303-21;
