ISO-10303-21;
HEADER;
FILE_DESCRIPTION (( 'STEP AP214' ),
    '1' );
FILE_NAME ('84988.STEP',
    '2023-06-23T15:13:21',
    ( '' ),
    ( '' ),
    'SwSTEP 2.0',
    'SolidWorks 2023',
    '' );
FILE_SCHEMA (( 'AUTOMOTIVE_DESIGN' ));
ENDSEC;

DATA;
#1 =( GEOMETRIC_REPRESENTATION_CONTEXT ( 3 ) GLOBAL_UNCERTAINTY_ASSIGNED_CONTEXT ( ( #262 ) ) GLOBAL_UNIT_ASSIGNED_CONTEXT ( ( #17, #279, #250 ) ) REPRESENTATION_CONTEXT ( 'NONE', 'WORKASPACE' ) );
#2 = CIRCLE ( 'NONE', #260, 0.3750000000000000555 ) ;
#3 = DIRECTION ( 'NONE',  ( 0.000000000000000000, 0.000000000000000000, -1.000000000000000000 ) ) ;
#4 = CARTESIAN_POINT ( 'NONE',  ( -0.3750000000000001665, 6.500000000000000000, 0.000000000000000000 ) ) ;
#5 = ORIENTED_EDGE ( 'NONE', *, *, #287, .T. ) ;
#6 =( CONVERSION_BASED_UNIT ( 'INCH', #117 ) LENGTH_UNIT ( ) NAMED_UNIT ( #271 ) );
#7 = ORIENTED_EDGE ( 'NONE', *, *, #16, .F. ) ;
#8 = PLANE ( 'NONE',  #168 ) ;
#9 = CIRCLE ( 'NONE', #91, 0.3750000000000000555 ) ;
#10 = EDGE_CURVE ( 'NONE', #140, #218, #193, .T. ) ;
#11 =( LENGTH_UNIT ( ) NAMED_UNIT ( * ) SI_UNIT ( $, .METRE. ) );
#12 = CARTESIAN_POINT ( 'NONE',  ( 0.000000000000000000, 0.000000000000000000, 0.000000000000000000 ) ) ;
#13 =( NAMED_UNIT ( * ) PLANE_ANGLE_UNIT ( ) SI_UNIT ( $, .RADIAN. ) );
#14 = DIMENSIONAL_EXPONENTS ( 1.000000000000000000, 0.000000000000000000, 0.000000000000000000, 0.000000000000000000, 0.000000000000000000, 0.000000000000000000, 0.000000000000000000 ) ;
#15 = VECTOR ( 'NONE', #159, 39.37007874015748143 ) ;
#16 = EDGE_CURVE ( 'NONE', #221, #289, #36, .T. ) ;
#17 =( CONVERSION_BASED_UNIT ( 'INCH', #224 ) LENGTH_UNIT ( ) NAMED_UNIT ( #200 ) );
#18 = SURFACE_STYLE_USAGE ( .BOTH. , #78 ) ;
#19 = CARTESIAN_POINT ( 'NONE',  ( 0.000000000000000000, 4.000000000000000000, 0.000000000000000000 ) ) ;
#20 = EDGE_CURVE ( 'NONE', #140, #42, #87, .T. ) ;
#21 = AXIS2_PLACEMENT_3D ( 'NONE', #96, #217, #187 ) ;
#22 = DIRECTION ( 'NONE',  ( -2.449293598294704072E-17, 1.000000000000000000, -0.000000000000000000 ) ) ;
#23 =( NAMED_UNIT ( * ) SI_UNIT ( $, .STERADIAN. ) SOLID_ANGLE_UNIT ( ) );
#24 = DIRECTION ( 'NONE',  ( 0.000000000000000000, 1.000000000000000000, 0.000000000000000000 ) ) ;
#25 = MECHANICAL_DESIGN_GEOMETRIC_PRESENTATION_REPRESENTATION (  '', ( #230 ), #40 ) ;
#26 = ADVANCED_FACE ( 'NONE', ( #261 ), #150, .T. ) ;
#27 = FILL_AREA_STYLE ('',( #94 ) ) ;
#28 = ORIENTED_EDGE ( 'NONE', *, *, #137, .F. ) ;
#29 =( CONVERSION_BASED_UNIT ( 'INCH', #147 ) LENGTH_UNIT ( ) NAMED_UNIT ( #179 ) );
#30 = ORIENTED_EDGE ( 'NONE', *, *, #254, .T. ) ;
#31 = UNCERTAINTY_MEASURE_WITH_UNIT (LENGTH_MEASURE( 1.000000000000000082E-05 ), #67, 'distance_accuracy_value', 'NONE');
#32 = ADVANCED_BREP_SHAPE_REPRESENTATION ( '84988', ( #69, #72, #157 ), #52 ) ;
#33 = SURFACE_SIDE_STYLE ('',( #237 ) ) ;
#34 = ORIENTED_EDGE ( 'NONE', *, *, #98, .T. ) ;
#35 = VERTEX_POINT ( 'NONE', #243 ) ;
#36 = CIRCLE ( 'NONE', #209, 0.3750000000000001110 ) ;
#37 = CARTESIAN_POINT ( 'NONE',  ( 0.000000000000000000, 4.000000000000000000, 0.000000000000000000 ) ) ;
#38 = DIMENSIONAL_EXPONENTS ( 1.000000000000000000, 0.000000000000000000, 0.000000000000000000, 0.000000000000000000, 0.000000000000000000, 0.000000000000000000, 0.000000000000000000 ) ;
#39 = DIRECTION ( 'NONE',  ( 0.000000000000000000, 0.000000000000000000, -1.000000000000000000 ) ) ;
#40 =( GEOMETRIC_REPRESENTATION_CONTEXT ( 3 ) GLOBAL_UNCERTAINTY_ASSIGNED_CONTEXT ( ( #158 ) ) GLOBAL_UNIT_ASSIGNED_CONTEXT ( ( #85, #13, #203 ) ) REPRESENTATION_CONTEXT ( 'NONE', 'WORKASPACE' ) );
#41 = SURFACE_SIDE_STYLE ('',( #212 ) ) ;
#42 = VERTEX_POINT ( 'NONE', #56 ) ;
#43 = ORIENTED_EDGE ( 'NONE', *, *, #287, .F. ) ;
#44 = AXIS2_PLACEMENT_3D ( 'NONE', #284, #146, #165 ) ;
#45 = FACE_OUTER_BOUND ( 'NONE', #285, .T. ) ;
#46 = PRESENTATION_LAYER_ASSIGNMENT (  '', '', ( #300 ) ) ;
#47 = CYLINDRICAL_SURFACE ( 'NONE', #99, 0.3750000000000000555 ) ;
#48 = CARTESIAN_POINT ( 'NONE',  ( 0.000000000000000000, 0.000000000000000000, 0.000000000000000000 ) ) ;
#49 = CARTESIAN_POINT ( 'NONE',  ( 7.582401355855259480E-33, 4.000000000000000000, 0.000000000000000000 ) ) ;
#50 =( NAMED_UNIT ( * ) PLANE_ANGLE_UNIT ( ) SI_UNIT ( $, .RADIAN. ) );
#51 = EDGE_LOOP ( 'NONE', ( #216, #238 ) ) ;
#52 =( GEOMETRIC_REPRESENTATION_CONTEXT ( 3 ) GLOBAL_UNCERTAINTY_ASSIGNED_CONTEXT ( ( #188 ) ) GLOBAL_UNIT_ASSIGNED_CONTEXT ( ( #215, #222, #108 ) ) REPRESENTATION_CONTEXT ( 'NONE', 'WORKASPACE' ) );
#53 = CARTESIAN_POINT ( 'NONE',  ( 0.3750000000000000555, 4.000000000000000000, 4.592425496802576068E-17 ) ) ;
#54 = SURFACE_SIDE_STYLE ('',( #135 ) ) ;
#55 = CARTESIAN_POINT ( 'NONE',  ( 0.000000000000000000, 4.000000000000000000, -0.3750000000000000555 ) ) ;
#56 = CARTESIAN_POINT ( 'NONE',  ( 4.592425496802575451E-17, 4.000000000000000000, 0.3750000000000000555 ) ) ;
#57 = VECTOR ( 'NONE', #267, 39.37007874015748143 ) ;
#58 = PRESENTATION_STYLE_ASSIGNMENT (( #18 ) ) ;
#59 = VECTOR ( 'NONE', #107, 39.37007874015748143 ) ;
#60 = CARTESIAN_POINT ( 'NONE',  ( 0.000000000000000000, 4.000000000000000000, 0.000000000000000000 ) ) ;
#61 = DIRECTION ( 'NONE',  ( -0.000000000000000000, -1.000000000000000000, -0.000000000000000000 ) ) ;
#62 = ORIENTED_EDGE ( 'NONE', *, *, #149, .F. ) ;
#63 =( LENGTH_UNIT ( ) NAMED_UNIT ( * ) SI_UNIT ( $, .METRE. ) );
#64 = COLOUR_RGB ( '',0.7921568627450980005, 0.8196078431372548767, 0.9333333333333333481 ) ;
#65 = STYLED_ITEM ( 'NONE', ( #79 ), #293 ) ;
#66 = MECHANICAL_DESIGN_GEOMETRIC_PRESENTATION_REPRESENTATION (  '', ( #276 ), #1 ) ;
#67 =( CONVERSION_BASED_UNIT ( 'INCH', #306 ) LENGTH_UNIT ( ) NAMED_UNIT ( #14 ) );
#68 = ORIENTED_EDGE ( 'NONE', *, *, #98, .F. ) ;
#69 = MANIFOLD_SOLID_BREP ( 'Revolve - Cutting Edge', #299 ) ;
#70 = COLOUR_RGB ( '',1.000000000000000000, 0.000000000000000000, 0.000000000000000000 ) ;
#71 = LINE ( 'NONE', #257, #15 ) ;
#72 = MANIFOLD_SOLID_BREP ( 'Revolve - Tool Body (Straight Shanked)', #90 ) ;
#73 = ORIENTED_EDGE ( 'NONE', *, *, #112, .F. ) ;
#74 = EDGE_LOOP ( 'NONE', ( #184, #5, #195, #83 ) ) ;
#75 = AXIS2_PLACEMENT_3D ( 'NONE', #60, #172, #174 ) ;
#76 = DIRECTION ( 'NONE',  ( -1.000000000000000000, 0.000000000000000000, 0.000000000000000000 ) ) ;
#77 = VERTEX_POINT ( 'NONE', #235 ) ;
#78 = SURFACE_SIDE_STYLE ('',( #292 ) ) ;
#79 = PRESENTATION_STYLE_ASSIGNMENT (( #106 ) ) ;
#80 = EDGE_LOOP ( 'NONE', ( #92, #34, #103, #7 ) ) ;
#81 = AXIS2_PLACEMENT_3D ( 'NONE', #145, #194, #290 ) ;
#82 = DIRECTION ( 'NONE',  ( -2.449293598294704072E-17, 1.000000000000000000, -0.000000000000000000 ) ) ;
#83 = ORIENTED_EDGE ( 'NONE', *, *, #259, .F. ) ;
#84 = FILL_AREA_STYLE_COLOUR ( '', #121 ) ;
#85 =( CONVERSION_BASED_UNIT ( 'INCH', #111 ) LENGTH_UNIT ( ) NAMED_UNIT ( #38 ) );
#86 = PLANE ( 'NONE',  #201 ) ;
#87 = CIRCLE ( 'NONE', #75, 0.3750000000000000555 ) ;
#88 =( GEOMETRIC_REPRESENTATION_CONTEXT ( 3 ) GLOBAL_UNCERTAINTY_ASSIGNED_CONTEXT ( ( #236 ) ) GLOBAL_UNIT_ASSIGNED_CONTEXT ( ( #128, #50, #131 ) ) REPRESENTATION_CONTEXT ( 'NONE', 'WORKASPACE' ) );
#89 = CYLINDRICAL_SURFACE ( 'NONE', #160, 0.3750000000000001110 ) ;
#90 = CLOSED_SHELL ( 'NONE', ( #226, #277, #26, #302 ) ) ;
#91 = AXIS2_PLACEMENT_3D ( 'NONE', #228, #133, #173 ) ;
#92 = ORIENTED_EDGE ( 'NONE', *, *, #213, .F. ) ;
#93 = SURFACE_STYLE_USAGE ( .BOTH. , #272 ) ;
#94 = FILL_AREA_STYLE_COLOUR ( '', #247 ) ;
#95 = EDGE_LOOP ( 'NONE', ( #223, #241 ) ) ;
#96 = CARTESIAN_POINT ( 'NONE',  ( 0.000000000000000000, 0.000000000000000000, 0.000000000000000000 ) ) ;
#97 = SURFACE_STYLE_USAGE ( .BOTH. , #206 ) ;
#98 = EDGE_CURVE ( 'NONE', #308, #77, #125, .T. ) ;
#99 = AXIS2_PLACEMENT_3D ( 'NONE', #113, #275, #204 ) ;
#100 = PLANE ( 'NONE',  #81 ) ;
#101 = ORIENTED_EDGE ( 'NONE', *, *, #20, .F. ) ;
#102 = PRODUCT_CONTEXT ( 'NONE', #255, 'mechanical' ) ;
#103 = ORIENTED_EDGE ( 'NONE', *, *, #149, .T. ) ;
#104 = PRESENTATION_LAYER_ASSIGNMENT (  '', '', ( #276 ) ) ;
#105 = VECTOR ( 'NONE', #305, 39.37007874015748143 ) ;
#106 = SURFACE_STYLE_USAGE ( .BOTH. , #33 ) ;
#107 = DIRECTION ( 'NONE',  ( -2.449293598294703764E-17, 1.000000000000000000, -0.000000000000000000 ) ) ;
#108 =( NAMED_UNIT ( * ) SI_UNIT ( $, .STERADIAN. ) SOLID_ANGLE_UNIT ( ) );
#109 =( NAMED_UNIT ( * ) PLANE_ANGLE_UNIT ( ) SI_UNIT ( $, .RADIAN. ) );
#110 = EDGE_LOOP ( 'NONE', ( #144, #68 ) ) ;
#111 = LENGTH_MEASURE_WITH_UNIT ( LENGTH_MEASURE( 0.02539999999999999897 ), #11 );
#112 = EDGE_CURVE ( 'NONE', #289, #221, #220, .T. ) ;
#113 = CARTESIAN_POINT ( 'NONE',  ( 0.000000000000000000, 0.000000000000000000, 0.000000000000000000 ) ) ;
#114 = COLOUR_RGB ( '',0.7921568627450980005, 0.8196078431372548767, 0.9333333333333333481 ) ;
#115 = COLOUR_RGB ( '',1.000000000000000000, 0.000000000000000000, 0.000000000000000000 ) ;
#116 =( LENGTH_UNIT ( ) NAMED_UNIT ( * ) SI_UNIT ( $, .METRE. ) );
#117 = LENGTH_MEASURE_WITH_UNIT ( LENGTH_MEASURE( 0.02539999999999999897 ), #63 );
#118 = PRODUCT_RELATED_PRODUCT_CATEGORY ( 'part', '', ( #258 ) ) ;
#119 = DIRECTION ( 'NONE',  ( -1.000000000000000000, 0.000000000000000000, 0.000000000000000000 ) ) ;
#120 = STYLED_ITEM ( 'NONE', ( #225 ), #69 ) ;
#121 = COLOUR_RGB ( '',1.000000000000000000, 0.000000000000000000, 0.000000000000000000 ) ;
#122 =( LENGTH_UNIT ( ) NAMED_UNIT ( * ) SI_UNIT ( $, .METRE. ) );
#123 = APPLICATION_CONTEXT ( 'automotive_design' ) ;
#124 = CARTESIAN_POINT ( 'NONE',  ( 4.592425496802575451E-17, 0.000000000000000000, 0.3750000000000000555 ) ) ;
#125 = CIRCLE ( 'NONE', #44, 0.3750000000000000555 ) ;
#126 =( GEOMETRIC_REPRESENTATION_CONTEXT ( 3 ) GLOBAL_UNCERTAINTY_ASSIGNED_CONTEXT ( ( #31 ) ) GLOBAL_UNIT_ASSIGNED_CONTEXT ( ( #67, #185, #208 ) ) REPRESENTATION_CONTEXT ( 'NONE', 'WORKASPACE' ) );
#127 = CARTESIAN_POINT ( 'NONE',  ( 0.3750000000000000555, 6.500000000000000000, 4.592425496802576068E-17 ) ) ;
#128 =( CONVERSION_BASED_UNIT ( 'INCH', #191 ) LENGTH_UNIT ( ) NAMED_UNIT ( #229 ) );
#129 = CARTESIAN_POINT ( 'NONE',  ( 0.000000000000000000, 0.000000000000000000, 0.000000000000000000 ) ) ;
#130 = CARTESIAN_POINT ( 'NONE',  ( 0.000000000000000000, 0.000000000000000000, -0.3750000000000000555 ) ) ;
#131 =( NAMED_UNIT ( * ) SI_UNIT ( $, .STERADIAN. ) SOLID_ANGLE_UNIT ( ) );
#132 = PRESENTATION_LAYER_ASSIGNMENT (  '', '', ( #230 ) ) ;
#133 = DIRECTION ( 'NONE',  ( -0.000000000000000000, -1.000000000000000000, -0.000000000000000000 ) ) ;
#134 =( LENGTH_UNIT ( ) NAMED_UNIT ( * ) SI_UNIT ( $, .METRE. ) );
#135 = SURFACE_STYLE_FILL_AREA ( #294 ) ;
#136 = SURFACE_STYLE_USAGE ( .BOTH. , #54 ) ;
#137 = EDGE_CURVE ( 'NONE', #218, #35, #9, .T. ) ;
#138 =( GEOMETRIC_REPRESENTATION_CONTEXT ( 3 ) GLOBAL_UNCERTAINTY_ASSIGNED_CONTEXT ( ( #169 ) ) GLOBAL_UNIT_ASSIGNED_CONTEXT ( ( #29, #210, #23 ) ) REPRESENTATION_CONTEXT ( 'NONE', 'WORKASPACE' ) );
#139 =( GEOMETRIC_REPRESENTATION_CONTEXT ( 3 ) GLOBAL_UNCERTAINTY_ASSIGNED_CONTEXT ( ( #148 ) ) GLOBAL_UNIT_ASSIGNED_CONTEXT ( ( #6, #109, #296 ) ) REPRESENTATION_CONTEXT ( 'NONE', 'WORKASPACE' ) );
#140 = VERTEX_POINT ( 'NONE', #55 ) ;
#141 = AXIS2_PLACEMENT_3D ( 'NONE', #12, #61, #207 ) ;
#142 = FACE_OUTER_BOUND ( 'NONE', #95, .T. ) ;
#143 = LINE ( 'NONE', #124, #105 ) ;
#144 = ORIENTED_EDGE ( 'NONE', *, *, #244, .F. ) ;
#145 = CARTESIAN_POINT ( 'NONE',  ( 0.3750000000000000555, 6.500000000000000000, 0.000000000000000000 ) ) ;
#146 = DIRECTION ( 'NONE',  ( -2.449293598294704072E-17, 1.000000000000000000, -0.000000000000000000 ) ) ;
#147 = LENGTH_MEASURE_WITH_UNIT ( LENGTH_MEASURE( 0.02539999999999999897 ), #167 );
#148 = UNCERTAINTY_MEASURE_WITH_UNIT (LENGTH_MEASURE( 1.000000000000000082E-05 ), #6, 'distance_accuracy_value', 'NONE');
#149 = EDGE_CURVE ( 'NONE', #77, #289, #269, .T. ) ;
#150 = CYLINDRICAL_SURFACE ( 'NONE', #246, 0.3750000000000001110 ) ;
#151 = FACE_OUTER_BOUND ( 'NONE', #161, .T. ) ;
#152 = DIRECTION ( 'NONE',  ( -2.449293598294704072E-17, 1.000000000000000000, -0.000000000000000000 ) ) ;
#153 = CIRCLE ( 'NONE', #21, 0.3750000000000000555 ) ;
#154 = DIRECTION ( 'NONE',  ( -1.000000000000000000, 0.000000000000000000, 0.000000000000000000 ) ) ;
#155 = DIRECTION ( 'NONE',  ( -0.000000000000000000, -1.000000000000000000, -0.000000000000000000 ) ) ;
#156 = MECHANICAL_DESIGN_GEOMETRIC_PRESENTATION_REPRESENTATION (  '', ( #120 ), #138 ) ;
#157 = AXIS2_PLACEMENT_3D ( 'NONE', #129, #219, #192 ) ;
#158 = UNCERTAINTY_MEASURE_WITH_UNIT (LENGTH_MEASURE( 1.000000000000000082E-05 ), #85, 'distance_accuracy_value', 'NONE');
#159 = DIRECTION ( 'NONE',  ( -2.449293598294703764E-17, 1.000000000000000000, -0.000000000000000000 ) ) ;
#160 = AXIS2_PLACEMENT_3D ( 'NONE', #163, #282, #119 ) ;
#161 = EDGE_LOOP ( 'NONE', ( #101, #43 ) ) ;
#162 = FILL_AREA_STYLE_COLOUR ( '', #70 ) ;
#163 = CARTESIAN_POINT ( 'NONE',  ( -6.123233995736759873E-17, 6.500000000000000000, 0.000000000000000000 ) ) ;
#164 = LENGTH_MEASURE_WITH_UNIT ( LENGTH_MEASURE( 0.02539999999999999897 ), #197 );
#165 = DIRECTION ( 'NONE',  ( -1.000000000000000000, 0.000000000000000000, 0.000000000000000000 ) ) ;
#166 = EDGE_LOOP ( 'NONE', ( #199, #30, #28, #186 ) ) ;
#167 =( LENGTH_UNIT ( ) NAMED_UNIT ( * ) SI_UNIT ( $, .METRE. ) );
#168 = AXIS2_PLACEMENT_3D ( 'NONE', #19, #24, #211 ) ;
#169 = UNCERTAINTY_MEASURE_WITH_UNIT (LENGTH_MEASURE( 1.000000000000000082E-05 ), #29, 'distance_accuracy_value', 'NONE');
#170 = SURFACE_STYLE_FILL_AREA ( #233 ) ;
#171 = SHAPE_DEFINITION_REPRESENTATION ( #240, #32 ) ;
#172 = DIRECTION ( 'NONE',  ( -0.000000000000000000, -1.000000000000000000, -0.000000000000000000 ) ) ;
#173 = DIRECTION ( 'NONE',  ( 0.000000000000000000, 0.000000000000000000, -1.000000000000000000 ) ) ;
#174 = DIRECTION ( 'NONE',  ( 0.000000000000000000, 0.000000000000000000, -1.000000000000000000 ) ) ;
#175 = CARTESIAN_POINT ( 'NONE',  ( -6.123233995736759873E-17, 6.500000000000000000, 0.000000000000000000 ) ) ;
#176 = MECHANICAL_DESIGN_GEOMETRIC_PRESENTATION_REPRESENTATION (  '', ( #65 ), #88 ) ;
#177 = FACE_OUTER_BOUND ( 'NONE', #74, .T. ) ;
#178 = DIRECTION ( 'NONE',  ( -2.449293598294703764E-17, 1.000000000000000000, 0.000000000000000000 ) ) ;
#179 = DIMENSIONAL_EXPONENTS ( 1.000000000000000000, 0.000000000000000000, 0.000000000000000000, 0.000000000000000000, 0.000000000000000000, 0.000000000000000000, 0.000000000000000000 ) ;
#180 = ADVANCED_FACE ( 'NONE', ( #177 ), #231, .T. ) ;
#181 = DIRECTION ( 'NONE',  ( -1.000000000000000000, 0.000000000000000000, 0.000000000000000000 ) ) ;
#182 = PRESENTATION_LAYER_ASSIGNMENT (  '', '', ( #65 ) ) ;
#183 = ADVANCED_FACE ( 'NONE', ( #151 ), #8, .T. ) ;
#184 = ORIENTED_EDGE ( 'NONE', *, *, #254, .F. ) ;
#185 =( NAMED_UNIT ( * ) PLANE_ANGLE_UNIT ( ) SI_UNIT ( $, .RADIAN. ) );
#186 = ORIENTED_EDGE ( 'NONE', *, *, #10, .F. ) ;
#187 = DIRECTION ( 'NONE',  ( 0.000000000000000000, 0.000000000000000000, -1.000000000000000000 ) ) ;
#188 = UNCERTAINTY_MEASURE_WITH_UNIT (LENGTH_MEASURE( 1.000000000000000082E-05 ), #215, 'distance_accuracy_value', 'NONE');
#189 = MECHANICAL_DESIGN_GEOMETRIC_PRESENTATION_REPRESENTATION (  '', ( #283 ), #126 ) ;
#190 = AXIS2_PLACEMENT_3D ( 'NONE', #49, #22, #181 ) ;
#191 = LENGTH_MEASURE_WITH_UNIT ( LENGTH_MEASURE( 0.02539999999999999897 ), #134 );
#192 = DIRECTION ( 'NONE',  ( 1.000000000000000000, 0.000000000000000000, 0.000000000000000000 ) ) ;
#193 = LINE ( 'NONE', #130, #57 ) ;
#194 = DIRECTION ( 'NONE',  ( 2.449293598294703764E-17, -1.000000000000000000, 0.000000000000000000 ) ) ;
#195 = ORIENTED_EDGE ( 'NONE', *, *, #10, .T. ) ;
#196 = FILL_AREA_STYLE ('',( #249 ) ) ;
#197 =( LENGTH_UNIT ( ) NAMED_UNIT ( * ) SI_UNIT ( $, .METRE. ) );
#198 = FILL_AREA_STYLE_COLOUR ( '', #114 ) ;
#199 = ORIENTED_EDGE ( 'NONE', *, *, #20, .T. ) ;
#200 = DIMENSIONAL_EXPONENTS ( 1.000000000000000000, 0.000000000000000000, 0.000000000000000000, 0.000000000000000000, 0.000000000000000000, 0.000000000000000000, 0.000000000000000000 ) ;
#201 = AXIS2_PLACEMENT_3D ( 'NONE', #301, #178, #274 ) ;
#202 = FILL_AREA_STYLE ('',( #84 ) ) ;
#203 =( NAMED_UNIT ( * ) SI_UNIT ( $, .STERADIAN. ) SOLID_ANGLE_UNIT ( ) );
#204 = DIRECTION ( 'NONE',  ( 0.000000000000000000, 0.000000000000000000, -1.000000000000000000 ) ) ;
#205 = CIRCLE ( 'NONE', #190, 0.3750000000000000555 ) ;
#206 = SURFACE_SIDE_STYLE ('',( #170 ) ) ;
#207 = DIRECTION ( 'NONE',  ( 0.000000000000000000, 0.000000000000000000, -1.000000000000000000 ) ) ;
#208 =( NAMED_UNIT ( * ) SI_UNIT ( $, .STERADIAN. ) SOLID_ANGLE_UNIT ( ) );
#209 = AXIS2_PLACEMENT_3D ( 'NONE', #286, #152, #76 ) ;
#210 =( NAMED_UNIT ( * ) PLANE_ANGLE_UNIT ( ) SI_UNIT ( $, .RADIAN. ) );
#211 = DIRECTION ( 'NONE',  ( 0.000000000000000000, -0.000000000000000000, 1.000000000000000000 ) ) ;
#212 = SURFACE_STYLE_FILL_AREA ( #253 ) ;
#213 = EDGE_CURVE ( 'NONE', #308, #221, #71, .T. ) ;
#214 = AXIS2_PLACEMENT_3D ( 'NONE', #48, #239, #3 ) ;
#215 =( CONVERSION_BASED_UNIT ( 'INCH', #164 ) LENGTH_UNIT ( ) NAMED_UNIT ( #251 ) );
#216 = ORIENTED_EDGE ( 'NONE', *, *, #112, .T. ) ;
#217 = DIRECTION ( 'NONE',  ( -0.000000000000000000, -1.000000000000000000, -0.000000000000000000 ) ) ;
#218 = VERTEX_POINT ( 'NONE', #256 ) ;
#219 = DIRECTION ( 'NONE',  ( 0.000000000000000000, 0.000000000000000000, 1.000000000000000000 ) ) ;
#220 = CIRCLE ( 'NONE', #242, 0.3750000000000001110 ) ;
#221 = VERTEX_POINT ( 'NONE', #127 ) ;
#222 =( NAMED_UNIT ( * ) PLANE_ANGLE_UNIT ( ) SI_UNIT ( $, .RADIAN. ) );
#223 = ORIENTED_EDGE ( 'NONE', *, *, #137, .T. ) ;
#224 = LENGTH_MEASURE_WITH_UNIT ( LENGTH_MEASURE( 0.02539999999999999897 ), #116 );
#225 = PRESENTATION_STYLE_ASSIGNMENT (( #136 ) ) ;
#226 = ADVANCED_FACE ( 'NONE', ( #45 ), #89, .T. ) ;
#227 = PRODUCT_DEFINITION_FORMATION_WITH_SPECIFIED_SOURCE ( 'ANY', '', #258, .NOT_KNOWN. ) ;
#228 = CARTESIAN_POINT ( 'NONE',  ( 0.000000000000000000, 0.000000000000000000, 0.000000000000000000 ) ) ;
#229 = DIMENSIONAL_EXPONENTS ( 1.000000000000000000, 0.000000000000000000, 0.000000000000000000, 0.000000000000000000, 0.000000000000000000, 0.000000000000000000, 0.000000000000000000 ) ;
#230 = STYLED_ITEM ( 'NONE', ( #268 ), #266 ) ;
#231 = CYLINDRICAL_SURFACE ( 'NONE', #141, 0.3750000000000000555 ) ;
#232 = SURFACE_STYLE_USAGE ( .BOTH. , #41 ) ;
#233 = FILL_AREA_STYLE ('',( #270 ) ) ;
#234 = FACE_OUTER_BOUND ( 'NONE', #51, .T. ) ;
#235 = CARTESIAN_POINT ( 'NONE',  ( -0.3750000000000000555, 4.000000000000000000, 0.000000000000000000 ) ) ;
#236 = UNCERTAINTY_MEASURE_WITH_UNIT (LENGTH_MEASURE( 1.000000000000000082E-05 ), #128, 'distance_accuracy_value', 'NONE');
#237 = SURFACE_STYLE_FILL_AREA ( #27 ) ;
#238 = ORIENTED_EDGE ( 'NONE', *, *, #16, .T. ) ;
#239 = DIRECTION ( 'NONE',  ( 0.000000000000000000, -1.000000000000000000, -0.000000000000000000 ) ) ;
#240 = PRODUCT_DEFINITION_SHAPE ( 'NONE', 'NONE',  #273 ) ;
#241 = ORIENTED_EDGE ( 'NONE', *, *, #259, .T. ) ;
#242 = AXIS2_PLACEMENT_3D ( 'NONE', #291, #82, #154 ) ;
#243 = CARTESIAN_POINT ( 'NONE',  ( 4.592425496802575451E-17, 0.000000000000000000, 0.3750000000000000555 ) ) ;
#244 = EDGE_CURVE ( 'NONE', #77, #308, #205, .T. ) ;
#245 = DIRECTION ( 'NONE',  ( -1.000000000000000000, 0.000000000000000000, 0.000000000000000000 ) ) ;
#246 = AXIS2_PLACEMENT_3D ( 'NONE', #175, #263, #245 ) ;
#247 = COLOUR_RGB ( '',1.000000000000000000, 0.000000000000000000, 0.000000000000000000 ) ;
#248 = PRESENTATION_STYLE_ASSIGNMENT (( #97 ) ) ;
#249 = FILL_AREA_STYLE_COLOUR ( '', #115 ) ;
#250 =( NAMED_UNIT ( * ) SI_UNIT ( $, .STERADIAN. ) SOLID_ANGLE_UNIT ( ) );
#251 = DIMENSIONAL_EXPONENTS ( 1.000000000000000000, 0.000000000000000000, 0.000000000000000000, 0.000000000000000000, 0.000000000000000000, 0.000000000000000000, 0.000000000000000000 ) ;
#252 = PRODUCT_DEFINITION_CONTEXT ( 'detailed design', #123, 'design' ) ;
#253 = FILL_AREA_STYLE ('',( #162 ) ) ;
#254 = EDGE_CURVE ( 'NONE', #42, #35, #143, .T. ) ;
#255 = APPLICATION_CONTEXT ( 'automotive_design' ) ;
#256 = CARTESIAN_POINT ( 'NONE',  ( 0.000000000000000000, 0.000000000000000000, -0.3750000000000000555 ) ) ;
#257 = CARTESIAN_POINT ( 'NONE',  ( 0.3750000000000000555, 6.500000000000000000, 4.592425496802576068E-17 ) ) ;
#258 = PRODUCT ( '84988', '84988', '', ( #102 ) ) ;
#259 = EDGE_CURVE ( 'NONE', #35, #218, #153, .T. ) ;
#260 = AXIS2_PLACEMENT_3D ( 'NONE', #37, #155, #39 ) ;
#261 = FACE_OUTER_BOUND ( 'NONE', #80, .T. ) ;
#262 = UNCERTAINTY_MEASURE_WITH_UNIT (LENGTH_MEASURE( 1.000000000000000082E-05 ), #17, 'distance_accuracy_value', 'NONE');
#263 = DIRECTION ( 'NONE',  ( -2.449293598294704072E-17, 1.000000000000000000, -0.000000000000000000 ) ) ;
#264 = PRESENTATION_LAYER_ASSIGNMENT (  '', '', ( #120 ) ) ;
#265 = ORIENTED_EDGE ( 'NONE', *, *, #213, .T. ) ;
#266 = ADVANCED_FACE ( 'NONE', ( #278 ), #47, .T. ) ;
#267 = DIRECTION ( 'NONE',  ( -0.000000000000000000, -1.000000000000000000, -0.000000000000000000 ) ) ;
#268 = PRESENTATION_STYLE_ASSIGNMENT (( #232 ) ) ;
#269 = LINE ( 'NONE', #4, #59 ) ;
#270 = FILL_AREA_STYLE_COLOUR ( '', #64 ) ;
#271 = DIMENSIONAL_EXPONENTS ( 1.000000000000000000, 0.000000000000000000, 0.000000000000000000, 0.000000000000000000, 0.000000000000000000, 0.000000000000000000, 0.000000000000000000 ) ;
#272 = SURFACE_SIDE_STYLE ('',( #297 ) ) ;
#273 = PRODUCT_DEFINITION ( 'UNKNOWN', '', #227, #252 ) ;
#274 = DIRECTION ( 'NONE',  ( -1.000000000000000000, -2.449293598294703764E-17, 0.000000000000000000 ) ) ;
#275 = DIRECTION ( 'NONE',  ( -0.000000000000000000, -1.000000000000000000, -0.000000000000000000 ) ) ;
#276 = STYLED_ITEM ( 'NONE', ( #248 ), #72 ) ;
#277 = ADVANCED_FACE ( 'NONE', ( #298 ), #86, .F. ) ;
#278 = FACE_OUTER_BOUND ( 'NONE', #166, .T. ) ;
#279 =( NAMED_UNIT ( * ) PLANE_ANGLE_UNIT ( ) SI_UNIT ( $, .RADIAN. ) );
#280 = PRESENTATION_STYLE_ASSIGNMENT (( #93 ) ) ;
#281 = ORIENTED_EDGE ( 'NONE', *, *, #244, .T. ) ;
#282 = DIRECTION ( 'NONE',  ( -2.449293598294704072E-17, 1.000000000000000000, -0.000000000000000000 ) ) ;
#283 = STYLED_ITEM ( 'NONE', ( #280 ), #183 ) ;
#284 = CARTESIAN_POINT ( 'NONE',  ( 7.582401355855259480E-33, 4.000000000000000000, 0.000000000000000000 ) ) ;
#285 = EDGE_LOOP ( 'NONE', ( #281, #265, #73, #62 ) ) ;
#286 = CARTESIAN_POINT ( 'NONE',  ( -6.123233995736759873E-17, 6.500000000000000000, 0.000000000000000000 ) ) ;
#287 = EDGE_CURVE ( 'NONE', #42, #140, #2, .T. ) ;
#288 = APPLICATION_PROTOCOL_DEFINITION ( 'draft international standard', 'automotive_design', 1998, #123 ) ;
#289 = VERTEX_POINT ( 'NONE', #303 ) ;
#290 = DIRECTION ( 'NONE',  ( 1.000000000000000000, 2.449293598294703764E-17, 0.000000000000000000 ) ) ;
#291 = CARTESIAN_POINT ( 'NONE',  ( -6.123233995736759873E-17, 6.500000000000000000, 0.000000000000000000 ) ) ;
#292 = SURFACE_STYLE_FILL_AREA ( #196 ) ;
#293 = ADVANCED_FACE ( 'NONE', ( #142 ), #304, .T. ) ;
#294 = FILL_AREA_STYLE ('',( #198 ) ) ;
#295 = MECHANICAL_DESIGN_GEOMETRIC_PRESENTATION_REPRESENTATION (  '', ( #300 ), #139 ) ;
#296 =( NAMED_UNIT ( * ) SI_UNIT ( $, .STERADIAN. ) SOLID_ANGLE_UNIT ( ) );
#297 = SURFACE_STYLE_FILL_AREA ( #202 ) ;
#298 = FACE_OUTER_BOUND ( 'NONE', #110, .T. ) ;
#299 = CLOSED_SHELL ( 'NONE', ( #266, #183, #180, #293 ) ) ;
#300 = STYLED_ITEM ( 'NONE', ( #58 ), #180 ) ;
#301 = CARTESIAN_POINT ( 'NONE',  ( 1.124819836996391367E-34, 4.000000000000000000, 0.000000000000000000 ) ) ;
#302 = ADVANCED_FACE ( 'NONE', ( #234 ), #100, .F. ) ;
#303 = CARTESIAN_POINT ( 'NONE',  ( -0.3750000000000001665, 6.500000000000000000, 0.000000000000000000 ) ) ;
#304 = PLANE ( 'NONE',  #214 ) ;
#305 = DIRECTION ( 'NONE',  ( -0.000000000000000000, -1.000000000000000000, -0.000000000000000000 ) ) ;
#306 = LENGTH_MEASURE_WITH_UNIT ( LENGTH_MEASURE( 0.02539999999999999897 ), #122 );
#307 = PRESENTATION_LAYER_ASSIGNMENT (  '', '', ( #283 ) ) ;
#308 = VERTEX_POINT ( 'NONE', #53 ) ;
#309 = APPLICATION_PROTOCOL_DEFINITION ( 'draft international standard', 'automotive_design', 1998, #255 ) ;
ENDSEC;
END-ISO-10303-21;
