ISO-10303-21;
HEADER;
FILE_DESCRIPTION (( 'STEP AP214' ),
    '1' );
FILE_NAME ('Micro_BEM-078-03.STEP',
    '2021-09-03T12:59:29',
    ( '' ),
    ( '' ),
    'SwSTEP 2.0',
    'SolidWorks 2020',
    '' );
FILE_SCHEMA (( 'AUTOMOTIVE_DESIGN' ));
ENDSEC;

DATA;
#1 = EDGE_CURVE ( 'NONE', #288, #95, #24, .T. ) ;
#2 = CIRCLE ( 'NONE', #259, 0.06250000000000002776 ) ;
#3 = DIRECTION ( 'NONE',  ( 0.0000000000000000000, 0.0000000000000000000, 1.000000000000000000 ) ) ;
#4 = DIRECTION ( 'NONE',  ( 1.000000000000000000, 0.0000000000000000000, 0.0000000000000000000 ) ) ;
#5 = SPHERICAL_SURFACE ( 'NONE', #31, 0.03901095000000000257 ) ;
#6 = ADVANCED_FACE ( 'NONE', ( #74 ), #146, .T. ) ;
#7 = DIRECTION ( 'NONE',  ( -1.224646799147353700E-16, -0.0000000000000000000, -1.000000000000000000 ) ) ;
#8 = AXIS2_PLACEMENT_3D ( 'NONE', #255, #228, #82 ) ;
#9 = DIRECTION ( 'NONE',  ( 0.0000000000000000000, 0.0000000000000000000, -1.000000000000000000 ) ) ;
#10 = CARTESIAN_POINT ( 'NONE',  ( 0.03901095000000000257, 4.777463504919744426E-18, -4.777463504919746737E-18 ) ) ;
#11 = DIRECTION ( 'NONE',  ( -1.224646799147353700E-16, -0.0000000000000000000, -1.000000000000000000 ) ) ;
#12 = ADVANCED_FACE ( 'NONE', ( #272 ), #241, .T. ) ;
#13 = PRESENTATION_LAYER_ASSIGNMENT (  '', '', ( #154 ) ) ;
#14 = DIRECTION ( 'NONE',  ( 1.000000000000000000, 0.0000000000000000000, 0.0000000000000000000 ) ) ;
#15 = DIRECTION ( 'NONE',  ( -0.0000000000000000000, -0.0000000000000000000, -1.000000000000000000 ) ) ;
#16 = SURFACE_STYLE_FILL_AREA ( #86 ) ;
#17 = PRODUCT ( 'Micro_BEM-078-03', 'Micro_BEM-078-03', '', ( #315 ) ) ;
#18 = EDGE_CURVE ( 'NONE', #136, #263, #248, .T. ) ;
#19 = CARTESIAN_POINT ( 'NONE',  ( 0.0000000000000000000, 0.0000000000000000000, 1.500000000000000222 ) ) ;
#20 = ORIENTED_EDGE ( 'NONE', *, *, #118, .F. ) ;
#21 = EDGE_LOOP ( 'NONE', ( #20, #48, #267, #322 ) ) ;
#22 = CARTESIAN_POINT ( 'NONE',  ( 4.777463504919746737E-18, 0.0000000000000000000, 0.03901095000000000257 ) ) ;
#23 = ORIENTED_EDGE ( 'NONE', *, *, #231, .T. ) ;
#24 = LINE ( 'NONE', #200, #75 ) ;
#25 = CIRCLE ( 'NONE', #243, 0.03901095000000000257 ) ;
#26 = CARTESIAN_POINT ( 'NONE',  ( 0.0000000000000000000, 0.0000000000000000000, 1.500000000000000222 ) ) ;
#27 = EDGE_CURVE ( 'NONE', #288, #195, #63, .T. ) ;
#28 = DIRECTION ( 'NONE',  ( -1.224646799147353700E-16, -0.0000000000000000000, -1.000000000000000000 ) ) ;
#29 = CARTESIAN_POINT ( 'NONE',  ( 4.777463504919746737E-18, 0.0000000000000000000, 0.03901095000000000257 ) ) ;
#30 = EDGE_LOOP ( 'NONE', ( #101, #23, #153, #139 ) ) ;
#31 = AXIS2_PLACEMENT_3D ( 'NONE', #29, #54, #277 ) ;
#32 = FACE_OUTER_BOUND ( 'NONE', #103, .T. ) ;
#33 = DIRECTION ( 'NONE',  ( -1.000000000000000000, 0.0000000000000000000, 0.0000000000000000000 ) ) ;
#34 = CYLINDRICAL_SURFACE ( 'NONE', #286, 0.06250000000000002776 ) ;
#35 = VECTOR ( 'NONE', #129, 39.37007874015748143 ) ;
#36 = VECTOR ( 'NONE', #78, 39.37007874015748143 ) ;
#37 = FACE_OUTER_BOUND ( 'NONE', #70, .T. ) ;
#38 = CARTESIAN_POINT ( 'NONE',  ( 4.777463504919746737E-18, 0.0000000000000000000, 0.03901095000000000257 ) ) ;
#39 = CIRCLE ( 'NONE', #185, 0.03901095000000000257 ) ;
#40 = DIRECTION ( 'NONE',  ( 1.224646799147353700E-16, 0.0000000000000000000, 1.000000000000000000 ) ) ;
#41 = LENGTH_MEASURE_WITH_UNIT ( LENGTH_MEASURE( 0.02539999999999999897 ), #192 );
#42 =( NAMED_UNIT ( * ) SI_UNIT ( $, .STERADIAN. ) SOLID_ANGLE_UNIT ( ) );
#43 = ORIENTED_EDGE ( 'NONE', *, *, #83, .F. ) ;
#44 = AXIS2_PLACEMENT_3D ( 'NONE', #205, #252, #14 ) ;
#45 = ORIENTED_EDGE ( 'NONE', *, *, #1, .F. ) ;
#46 = VERTEX_POINT ( 'NONE', #172 ) ;
#47 = CARTESIAN_POINT ( 'NONE',  ( 0.0000000000000000000, 0.0000000000000000000, 0.0000000000000000000 ) ) ;
#48 = ORIENTED_EDGE ( 'NONE', *, *, #258, .F. ) ;
#49 = ADVANCED_FACE ( 'NONE', ( #148 ), #278, .T. ) ;
#50 = ORIENTED_EDGE ( 'NONE', *, *, #182, .F. ) ;
#51 = CARTESIAN_POINT ( 'NONE',  ( 0.0000000000000000000, 0.0000000000000000000, 1.500000000000000222 ) ) ;
#52 = CARTESIAN_POINT ( 'NONE',  ( 0.03901095000000003032, 0.0000000000000000000, 0.1880000000000000282 ) ) ;
#53 = EDGE_CURVE ( 'NONE', #88, #126, #119, .T. ) ;
#54 = DIRECTION ( 'NONE',  ( 0.0000000000000000000, 1.000000000000000000, 0.0000000000000000000 ) ) ;
#55 = UNCERTAINTY_MEASURE_WITH_UNIT (LENGTH_MEASURE( 1.000000000000000082E-05 ), #211, 'distance_accuracy_value', 'NONE');
#56 = DIRECTION ( 'NONE',  ( -1.000000000000000000, 0.0000000000000000000, 1.224646799147353947E-16 ) ) ;
#57 = DIRECTION ( 'NONE',  ( 0.0000000000000000000, 0.0000000000000000000, -1.000000000000000000 ) ) ;
#58 = LINE ( 'NONE', #10, #223 ) ;
#59 = ADVANCED_FACE ( 'NONE', ( #198 ), #5, .T. ) ;
#60 = CARTESIAN_POINT ( 'NONE',  ( 0.03901095000000000951, 4.777463504919744426E-18, 0.03901094999999999563 ) ) ;
#61 = ORIENTED_EDGE ( 'NONE', *, *, #175, .F. ) ;
#62 = APPLICATION_PROTOCOL_DEFINITION ( 'draft international standard', 'automotive_design', 1998, #296 ) ;
#63 = CIRCLE ( 'NONE', #170, 0.03901095000000000257 ) ;
#64 = CARTESIAN_POINT ( 'NONE',  ( 2.302335982397025094E-17, 0.0000000000000000000, 0.1880000000000000282 ) ) ;
#65 = ORIENTED_EDGE ( 'NONE', *, *, #53, .F. ) ;
#66 = SURFACE_STYLE_FILL_AREA ( #167 ) ;
#67 = DIRECTION ( 'NONE',  ( 1.000000000000000000, 0.0000000000000000000, 0.0000000000000000000 ) ) ;
#68 = APPLICATION_CONTEXT ( 'automotive_design' ) ;
#69 = AXIS2_PLACEMENT_3D ( 'NONE', #206, #11, #56 ) ;
#70 = EDGE_LOOP ( 'NONE', ( #93, #301, #65, #193 ) ) ;
#71 = CARTESIAN_POINT ( 'NONE',  ( 2.302335982397025094E-17, 0.0000000000000000000, 0.1880000000000000282 ) ) ;
#72 = VECTOR ( 'NONE', #226, 39.37007874015747433 ) ;
#73 = ORIENTED_EDGE ( 'NONE', *, *, #18, .F. ) ;
#74 = FACE_OUTER_BOUND ( 'NONE', #212, .T. ) ;
#75 = VECTOR ( 'NONE', #245, 39.37007874015748143 ) ;
#76 = ADVANCED_FACE ( 'NONE', ( #221 ), #85, .T. ) ;
#77 = CARTESIAN_POINT ( 'NONE',  ( -0.03901094999999999563, 0.0000000000000000000, 0.03901095000000000951 ) ) ;
#78 = DIRECTION ( 'NONE',  ( -0.0000000000000000000, -0.0000000000000000000, -1.000000000000000000 ) ) ;
#79 = AXIS2_PLACEMENT_3D ( 'NONE', #26, #125, #124 ) ;
#80 = CARTESIAN_POINT ( 'NONE',  ( -0.06249999999999997918, 0.0000000000000000000, 0.3212130222250907940 ) ) ;
#81 = CLOSED_SHELL ( 'NONE', ( #281, #6, #215, #49, #105, #100, #12, #268, #76, #199, #59 ) ) ;
#82 = DIRECTION ( 'NONE',  ( -1.000000000000000000, 0.0000000000000000000, 0.0000000000000000000 ) ) ;
#83 = EDGE_CURVE ( 'NONE', #195, #126, #84, .T. ) ;
#84 = LINE ( 'NONE', #308, #35 ) ;
#85 = CONICAL_SURFACE ( 'NONE', #233, 0.03901095000000000257, 0.1745329251994338915 ) ;
#86 = FILL_AREA_STYLE ('',( #141 ) ) ;
#87 = EDGE_LOOP ( 'NONE', ( #122, #269, #216 ) ) ;
#88 = VERTEX_POINT ( 'NONE', #80 ) ;
#89 = DIRECTION ( 'NONE',  ( 1.224646799147353207E-16, 1.000000000000000000, -0.0000000000000000000 ) ) ;
#90 = ORIENTED_EDGE ( 'NONE', *, *, #1, .T. ) ;
#91 =( LENGTH_UNIT ( ) NAMED_UNIT ( * ) SI_UNIT ( $, .METRE. ) );
#92 =( NAMED_UNIT ( * ) SI_UNIT ( $, .STERADIAN. ) SOLID_ANGLE_UNIT ( ) );
#93 = ORIENTED_EDGE ( 'NONE', *, *, #147, .T. ) ;
#94 =( NAMED_UNIT ( * ) PLANE_ANGLE_UNIT ( ) SI_UNIT ( $, .RADIAN. ) );
#95 = VERTEX_POINT ( 'NONE', #77 ) ;
#96 = VECTOR ( 'NONE', #158, 39.37007874015748854 ) ;
#97 = COLOUR_RGB ( '',0.7921568627450980005, 0.8196078431372548767, 0.9333333333333333481 ) ;
#98 = EDGE_LOOP ( 'NONE', ( #145, #151 ) ) ;
#99 = ORIENTED_EDGE ( 'NONE', *, *, #104, .T. ) ;
#100 = ADVANCED_FACE ( 'NONE', ( #133 ), #251, .T. ) ;
#101 = ORIENTED_EDGE ( 'NONE', *, *, #162, .F. ) ;
#102 = AXIS2_PLACEMENT_3D ( 'NONE', #47, #28, #298 ) ;
#103 = EDGE_LOOP ( 'NONE', ( #299, #266, #90, #176 ) ) ;
#104 = EDGE_CURVE ( 'NONE', #195, #257, #58, .T. ) ;
#105 = ADVANCED_FACE ( 'NONE', ( #37 ), #34, .T. ) ;
#106 = DIRECTION ( 'NONE',  ( 0.7071067811865462405, 8.659560562354916834E-17, -0.7071067811865486830 ) ) ;
#107 = LINE ( 'NONE', #249, #72 ) ;
#108 = FACE_OUTER_BOUND ( 'NONE', #260, .T. ) ;
#109 = CONICAL_SURFACE ( 'NONE', #196, 0.04750000000000064587, 0.7853981633974466137 ) ;
#110 = CARTESIAN_POINT ( 'NONE',  ( 0.06250000000000006939, 7.654042494670963708E-18, 0.3212130222250907940 ) ) ;
#111 = DIRECTION ( 'NONE',  ( 1.000000000000000000, 0.0000000000000000000, 0.0000000000000000000 ) ) ;
#112 = SURFACE_SIDE_STYLE ('',( #16 ) ) ;
#113 = VECTOR ( 'NONE', #15, 39.37007874015748143 ) ;
#114 = DIRECTION ( 'NONE',  ( -1.224646799147353700E-16, -0.0000000000000000000, -1.000000000000000000 ) ) ;
#115 = EDGE_LOOP ( 'NONE', ( #236, #265, #197, #171 ) ) ;
#116 =( CONVERSION_BASED_UNIT ( 'INCH', #41 ) LENGTH_UNIT ( ) NAMED_UNIT ( #227 ) );
#117 = ORIENTED_EDGE ( 'NONE', *, *, #53, .T. ) ;
#118 = EDGE_CURVE ( 'NONE', #288, #88, #107, .T. ) ;
#119 = CIRCLE ( 'NONE', #218, 0.06250000000000002776 ) ;
#120 =( NAMED_UNIT ( * ) PLANE_ANGLE_UNIT ( ) SI_UNIT ( $, .RADIAN. ) );
#121 = APPLICATION_PROTOCOL_DEFINITION ( 'draft international standard', 'automotive_design', 1998, #68 ) ;
#122 = ORIENTED_EDGE ( 'NONE', *, *, #312, .F. ) ;
#123 = CONICAL_SURFACE ( 'NONE', #44, 0.03901095000000000257, 0.1745329251994338915 ) ;
#124 = DIRECTION ( 'NONE',  ( -1.000000000000000000, 0.0000000000000000000, 0.0000000000000000000 ) ) ;
#125 = DIRECTION ( 'NONE',  ( 0.0000000000000000000, 0.0000000000000000000, -1.000000000000000000 ) ) ;
#126 = VERTEX_POINT ( 'NONE', #110 ) ;
#127 = AXIS2_PLACEMENT_3D ( 'NONE', #320, #209, #135 ) ;
#128 = CARTESIAN_POINT ( 'NONE',  ( 0.0000000000000000000, 0.0000000000000000000, 1.485000000000000764 ) ) ;
#129 = DIRECTION ( 'NONE',  ( 0.1736481776669313859, 0.0000000000000000000, 0.9848077530122077983 ) ) ;
#130 = LINE ( 'NONE', #183, #96 ) ;
#131 = CARTESIAN_POINT ( 'NONE',  ( 0.0000000000000000000, 0.0000000000000000000, 1.500000000000000222 ) ) ;
#132 =( GEOMETRIC_REPRESENTATION_CONTEXT ( 3 ) GLOBAL_UNCERTAINTY_ASSIGNED_CONTEXT ( ( #307 ) ) GLOBAL_UNIT_ASSIGNED_CONTEXT ( ( #189, #94, #210 ) ) REPRESENTATION_CONTEXT ( 'NONE', 'WORKASPACE' ) );
#133 = FACE_OUTER_BOUND ( 'NONE', #30, .T. ) ;
#134 = CARTESIAN_POINT ( 'NONE',  ( 0.04750000000000064587, 6.735557395310483192E-18, 1.500000000000000222 ) ) ;
#135 = DIRECTION ( 'NONE',  ( 1.000000000000000000, 0.0000000000000000000, 0.0000000000000000000 ) ) ;
#136 = VERTEX_POINT ( 'NONE', #186 ) ;
#137 = AXIS2_PLACEMENT_3D ( 'NONE', #316, #164, #67 ) ;
#138 = SPHERICAL_SURFACE ( 'NONE', #127, 0.03901095000000000257 ) ;
#139 = ORIENTED_EDGE ( 'NONE', *, *, #289, .F. ) ;
#140 = EDGE_CURVE ( 'NONE', #136, #169, #130, .T. ) ;
#141 = FILL_AREA_STYLE_COLOUR ( '', #294 ) ;
#142 = ORIENTED_EDGE ( 'NONE', *, *, #27, .F. ) ;
#143 = PRODUCT_RELATED_PRODUCT_CATEGORY ( 'part', '', ( #17 ) ) ;
#144 = VECTOR ( 'NONE', #106, 39.37007874015748854 ) ;
#145 = ORIENTED_EDGE ( 'NONE', *, *, #18, .T. ) ;
#146 = CYLINDRICAL_SURFACE ( 'NONE', #102, 0.03901095000000000257 ) ;
#147 = EDGE_CURVE ( 'NONE', #169, #324, #2, .T. ) ;
#148 = FACE_OUTER_BOUND ( 'NONE', #115, .T. ) ;
#149 = AXIS2_PLACEMENT_3D ( 'NONE', #152, #3, #297 ) ;
#150 = AXIS2_PLACEMENT_3D ( 'NONE', #285, #321, #293 ) ;
#151 = ORIENTED_EDGE ( 'NONE', *, *, #219, .T. ) ;
#152 = CARTESIAN_POINT ( 'NONE',  ( 0.0000000000000000000, 0.0000000000000000000, 1.500000000000000222 ) ) ;
#153 = ORIENTED_EDGE ( 'NONE', *, *, #194, .T. ) ;
#154 = STYLED_ITEM ( 'NONE', ( #292 ), #282 ) ;
#155 = CARTESIAN_POINT ( 'NONE',  ( -0.06250000000000002776, 0.0000000000000000000, 1.485000000000000764 ) ) ;
#156 = DIRECTION ( 'NONE',  ( -1.224646799147353700E-16, -0.0000000000000000000, -1.000000000000000000 ) ) ;
#157 = EDGE_CURVE ( 'NONE', #263, #324, #232, .T. ) ;
#158 = DIRECTION ( 'NONE',  ( -0.7071067811865462405, 0.0000000000000000000, -0.7071067811865486830 ) ) ;
#159 = AXIS2_PLACEMENT_3D ( 'NONE', #38, #40, #287 ) ;
#160 = DIRECTION ( 'NONE',  ( 1.224646799147353700E-16, 0.0000000000000000000, 1.000000000000000000 ) ) ;
#161 = CARTESIAN_POINT ( 'NONE',  ( 4.777463504919746737E-18, 0.0000000000000000000, 0.03901095000000000257 ) ) ;
#162 = EDGE_CURVE ( 'NONE', #324, #126, #279, .T. ) ;
#163 = UNCERTAINTY_MEASURE_WITH_UNIT (LENGTH_MEASURE( 1.000000000000000082E-05 ), #116, 'distance_accuracy_value', 'NONE');
#164 = DIRECTION ( 'NONE',  ( -1.224646799147353700E-16, -0.0000000000000000000, -1.000000000000000000 ) ) ;
#165 = DIRECTION ( 'NONE',  ( 0.0000000000000000000, 0.0000000000000000000, -1.000000000000000000 ) ) ;
#166 = CIRCLE ( 'NONE', #311, 0.03901095000000000257 ) ;
#167 = FILL_AREA_STYLE ('',( #291 ) ) ;
#168 =( LENGTH_UNIT ( ) NAMED_UNIT ( * ) SI_UNIT ( $, .METRE. ) );
#169 = VERTEX_POINT ( 'NONE', #155 ) ;
#170 = AXIS2_PLACEMENT_3D ( 'NONE', #71, #271, #222 ) ;
#171 = ORIENTED_EDGE ( 'NONE', *, *, #140, .F. ) ;
#172 = CARTESIAN_POINT ( 'NONE',  ( 7.166195257379618950E-18, 0.0000000000000000000, 0.0000000000000000000 ) ) ;
#173 = EDGE_LOOP ( 'NONE', ( #242, #73, #201, #220 ) ) ;
#174 = CIRCLE ( 'NONE', #319, 0.06250000000000002776 ) ;
#175 = EDGE_CURVE ( 'NONE', #46, #257, #166, .T. ) ;
#176 = ORIENTED_EDGE ( 'NONE', *, *, #318, .T. ) ;
#177 = ORIENTED_EDGE ( 'NONE', *, *, #27, .T. ) ;
#178 = DIRECTION ( 'NONE',  ( 1.000000000000000000, 0.0000000000000000000, 0.0000000000000000000 ) ) ;
#179 = DIMENSIONAL_EXPONENTS ( 1.000000000000000000, 0.0000000000000000000, 0.0000000000000000000, 0.0000000000000000000, 0.0000000000000000000, 0.0000000000000000000, 0.0000000000000000000 ) ;
#180 = CIRCLE ( 'NONE', #191, 0.03901095000000000257 ) ;
#181 = CARTESIAN_POINT ( 'NONE',  ( -0.06250000000000002776, 0.0000000000000000000, 1.500000000000000222 ) ) ;
#182 = EDGE_CURVE ( 'NONE', #257, #95, #39, .T. ) ;
#183 = CARTESIAN_POINT ( 'NONE',  ( -0.04750000000000064587, 0.0000000000000000000, 1.500000000000000222 ) ) ;
#184 = DIRECTION ( 'NONE',  ( 0.0000000000000000000, 0.0000000000000000000, 1.000000000000000000 ) ) ;
#185 = AXIS2_PLACEMENT_3D ( 'NONE', #202, #160, #203 ) ;
#186 = CARTESIAN_POINT ( 'NONE',  ( -0.04750000000000064587, 0.0000000000000000000, 1.500000000000000222 ) ) ;
#187 = CARTESIAN_POINT ( 'NONE',  ( -0.03901094999999998175, 6.215752999795353296E-18, 0.1880000000000000282 ) ) ;
#188 = DIRECTION ( 'NONE',  ( 0.0000000000000000000, 0.0000000000000000000, -1.000000000000000000 ) ) ;
#189 =( CONVERSION_BASED_UNIT ( 'INCH', #261 ) LENGTH_UNIT ( ) NAMED_UNIT ( #179 ) );
#190 = DIRECTION ( 'NONE',  ( -1.000000000000000000, 0.0000000000000000000, 0.0000000000000000000 ) ) ;
#191 = AXIS2_PLACEMENT_3D ( 'NONE', #22, #89, #256 ) ;
#192 =( LENGTH_UNIT ( ) NAMED_UNIT ( * ) SI_UNIT ( $, .METRE. ) );
#193 = ORIENTED_EDGE ( 'NONE', *, *, #194, .F. ) ;
#194 = EDGE_CURVE ( 'NONE', #169, #88, #273, .T. ) ;
#195 = VERTEX_POINT ( 'NONE', #52 ) ;
#196 = AXIS2_PLACEMENT_3D ( 'NONE', #19, #165, #190 ) ;
#197 = ORIENTED_EDGE ( 'NONE', *, *, #147, .F. ) ;
#198 = FACE_OUTER_BOUND ( 'NONE', #87, .T. ) ;
#199 = ADVANCED_FACE ( 'NONE', ( #32 ), #230, .T. ) ;
#200 = CARTESIAN_POINT ( 'NONE',  ( -0.03901095000000000257, 0.0000000000000000000, 4.777463504919746737E-18 ) ) ;
#201 = ORIENTED_EDGE ( 'NONE', *, *, #140, .T. ) ;
#202 = CARTESIAN_POINT ( 'NONE',  ( 4.777463504919746737E-18, 0.0000000000000000000, 0.03901095000000000257 ) ) ;
#203 = DIRECTION ( 'NONE',  ( -1.000000000000000000, 0.0000000000000000000, 2.188366338220633428E-16 ) ) ;
#204 = AXIS2_PLACEMENT_3D ( 'NONE', #51, #247, #217 ) ;
#205 = CARTESIAN_POINT ( 'NONE',  ( 2.302335982397025094E-17, 0.0000000000000000000, 0.1880000000000000282 ) ) ;
#206 = CARTESIAN_POINT ( 'NONE',  ( 0.0000000000000000000, 0.0000000000000000000, 0.0000000000000000000 ) ) ;
#207 = DIRECTION ( 'NONE',  ( -0.0000000000000000000, -0.0000000000000000000, -1.000000000000000000 ) ) ;
#208 = PRODUCT_DEFINITION ( 'UNKNOWN', '', #213, #313 ) ;
#209 = DIRECTION ( 'NONE',  ( 0.0000000000000000000, 1.000000000000000000, 0.0000000000000000000 ) ) ;
#210 =( NAMED_UNIT ( * ) SI_UNIT ( $, .STERADIAN. ) SOLID_ANGLE_UNIT ( ) );
#211 =( CONVERSION_BASED_UNIT ( 'INCH', #238 ) LENGTH_UNIT ( ) NAMED_UNIT ( #250 ) );
#212 = EDGE_LOOP ( 'NONE', ( #177, #99, #239, #45 ) ) ;
#213 = PRODUCT_DEFINITION_FORMATION_WITH_SPECIFIED_SOURCE ( 'ANY', '', #17, .NOT_KNOWN. ) ;
#214 = SURFACE_SIDE_STYLE ('',( #66 ) ) ;
#215 = ADVANCED_FACE ( 'NONE', ( #108 ), #123, .T. ) ;
#216 = ORIENTED_EDGE ( 'NONE', *, *, #318, .F. ) ;
#217 = DIRECTION ( 'NONE',  ( 1.000000000000000000, 0.0000000000000000000, -0.0000000000000000000 ) ) ;
#218 = AXIS2_PLACEMENT_3D ( 'NONE', #246, #7, #4 ) ;
#219 = EDGE_CURVE ( 'NONE', #263, #136, #270, .T. ) ;
#220 = ORIENTED_EDGE ( 'NONE', *, *, #231, .F. ) ;
#221 = FACE_OUTER_BOUND ( 'NONE', #21, .T. ) ;
#222 = DIRECTION ( 'NONE',  ( -1.000000000000000000, 0.0000000000000000000, 0.0000000000000000000 ) ) ;
#223 = VECTOR ( 'NONE', #156, 39.37007874015748143 ) ;
#224 = PRESENTATION_LAYER_ASSIGNMENT (  '', '', ( #240 ) ) ;
#225 = CARTESIAN_POINT ( 'NONE',  ( 0.06250000000000002776, 7.654042494670959086E-18, 1.500000000000000222 ) ) ;
#226 = DIRECTION ( 'NONE',  ( -0.1736481776669311916, 2.126576849575783316E-17, 0.9848077530122080203 ) ) ;
#227 = DIMENSIONAL_EXPONENTS ( 1.000000000000000000, 0.0000000000000000000, 0.0000000000000000000, 0.0000000000000000000, 0.0000000000000000000, 0.0000000000000000000, 0.0000000000000000000 ) ;
#228 = DIRECTION ( 'NONE',  ( -0.0000000000000000000, -0.0000000000000000000, -1.000000000000000000 ) ) ;
#229 = CIRCLE ( 'NONE', #137, 0.06250000000000002776 ) ;
#230 = CYLINDRICAL_SURFACE ( 'NONE', #69, 0.03901095000000000257 ) ;
#231 = EDGE_CURVE ( 'NONE', #324, #169, #174, .T. ) ;
#232 = LINE ( 'NONE', #304, #144 ) ;
#233 = AXIS2_PLACEMENT_3D ( 'NONE', #310, #302, #178 ) ;
#234 = DIRECTION ( 'NONE',  ( -1.000000000000000000, 0.0000000000000000000, 0.0000000000000000000 ) ) ;
#235 = CARTESIAN_POINT ( 'NONE',  ( 0.06250000000000002776, 7.654042494670959086E-18, 1.485000000000000764 ) ) ;
#236 = ORIENTED_EDGE ( 'NONE', *, *, #219, .F. ) ;
#237 = PRODUCT_DEFINITION_SHAPE ( 'NONE', 'NONE',  #208 ) ;
#238 = LENGTH_MEASURE_WITH_UNIT ( LENGTH_MEASURE( 0.02539999999999999897 ), #168 );
#239 = ORIENTED_EDGE ( 'NONE', *, *, #182, .T. ) ;
#240 = STYLED_ITEM ( 'NONE', ( #323 ), #303 ) ;
#241 = PLANE ( 'NONE',  #204 ) ;
#242 = ORIENTED_EDGE ( 'NONE', *, *, #157, .F. ) ;
#243 = AXIS2_PLACEMENT_3D ( 'NONE', #64, #114, #234 ) ;
#244 =( GEOMETRIC_REPRESENTATION_CONTEXT ( 3 ) GLOBAL_UNCERTAINTY_ASSIGNED_CONTEXT ( ( #163 ) ) GLOBAL_UNIT_ASSIGNED_CONTEXT ( ( #116, #120, #92 ) ) REPRESENTATION_CONTEXT ( 'NONE', 'WORKASPACE' ) );
#245 = DIRECTION ( 'NONE',  ( -1.224646799147353700E-16, -0.0000000000000000000, -1.000000000000000000 ) ) ;
#246 = CARTESIAN_POINT ( 'NONE',  ( 3.933724995124051744E-17, 0.0000000000000000000, 0.3212130222250907940 ) ) ;
#247 = DIRECTION ( 'NONE',  ( 0.0000000000000000000, 0.0000000000000000000, 1.000000000000000000 ) ) ;
#248 = CIRCLE ( 'NONE', #149, 0.04750000000000064587 ) ;
#249 = CARTESIAN_POINT ( 'NONE',  ( -0.03901094999999998175, 4.777463504919744426E-18, 0.1880000000000000282 ) ) ;
#250 = DIMENSIONAL_EXPONENTS ( 1.000000000000000000, 0.0000000000000000000, 0.0000000000000000000, 0.0000000000000000000, 0.0000000000000000000, 0.0000000000000000000, 0.0000000000000000000 ) ;
#251 = CYLINDRICAL_SURFACE ( 'NONE', #8, 0.06250000000000002776 ) ;
#252 = DIRECTION ( 'NONE',  ( 1.224646799147353700E-16, 0.0000000000000000000, 1.000000000000000000 ) ) ;
#253 = MECHANICAL_DESIGN_GEOMETRIC_PRESENTATION_REPRESENTATION (  '', ( #154 ), #274 ) ;
#254 = CARTESIAN_POINT ( 'NONE',  ( 0.0000000000000000000, 0.0000000000000000000, 1.485000000000000764 ) ) ;
#255 = CARTESIAN_POINT ( 'NONE',  ( 0.0000000000000000000, 0.0000000000000000000, 1.500000000000000222 ) ) ;
#256 = DIRECTION ( 'NONE',  ( -1.000000000000000000, 1.224646799147353207E-16, 0.0000000000000000000 ) ) ;
#257 = VERTEX_POINT ( 'NONE', #60 ) ;
#258 = EDGE_CURVE ( 'NONE', #195, #288, #25, .T. ) ;
#259 = AXIS2_PLACEMENT_3D ( 'NONE', #128, #9, #275 ) ;
#260 = EDGE_LOOP ( 'NONE', ( #142, #295, #117, #43 ) ) ;
#261 = LENGTH_MEASURE_WITH_UNIT ( LENGTH_MEASURE( 0.02539999999999999897 ), #91 );
#262 = DIRECTION ( 'NONE',  ( 1.000000000000000000, 0.0000000000000000000, 0.0000000000000000000 ) ) ;
#263 = VERTEX_POINT ( 'NONE', #134 ) ;
#264 = SURFACE_STYLE_USAGE ( .BOTH. , #214 ) ;
#265 = ORIENTED_EDGE ( 'NONE', *, *, #157, .T. ) ;
#266 = ORIENTED_EDGE ( 'NONE', *, *, #258, .T. ) ;
#267 = ORIENTED_EDGE ( 'NONE', *, *, #83, .T. ) ;
#268 = ADVANCED_FACE ( 'NONE', ( #314 ), #109, .T. ) ;
#269 = ORIENTED_EDGE ( 'NONE', *, *, #175, .T. ) ;
#270 = CIRCLE ( 'NONE', #305, 0.04750000000000064587 ) ;
#271 = DIRECTION ( 'NONE',  ( -1.224646799147353700E-16, -0.0000000000000000000, -1.000000000000000000 ) ) ;
#272 = FACE_OUTER_BOUND ( 'NONE', #98, .T. ) ;
#273 = LINE ( 'NONE', #181, #113 ) ;
#274 =( GEOMETRIC_REPRESENTATION_CONTEXT ( 3 ) GLOBAL_UNCERTAINTY_ASSIGNED_CONTEXT ( ( #55 ) ) GLOBAL_UNIT_ASSIGNED_CONTEXT ( ( #211, #283, #42 ) ) REPRESENTATION_CONTEXT ( 'NONE', 'WORKASPACE' ) );
#275 = DIRECTION ( 'NONE',  ( 1.000000000000000000, 0.0000000000000000000, 0.0000000000000000000 ) ) ;
#276 = DIRECTION ( 'NONE',  ( 0.0000000000000000000, -1.000000000000000000, 0.0000000000000000000 ) ) ;
#277 = DIRECTION ( 'NONE',  ( 1.000000000000000000, 0.0000000000000000000, 0.0000000000000000000 ) ) ;
#278 = CONICAL_SURFACE ( 'NONE', #79, 0.04750000000000064587, 0.7853981633974466137 ) ;
#279 = LINE ( 'NONE', #225, #36 ) ;
#280 = FACE_OUTER_BOUND ( 'NONE', #317, .T. ) ;
#281 = ADVANCED_FACE ( 'NONE', ( #280 ), #138, .T. ) ;
#282 = MANIFOLD_SOLID_BREP ( 'Fillet1', #81 ) ;
#283 =( NAMED_UNIT ( * ) PLANE_ANGLE_UNIT ( ) SI_UNIT ( $, .RADIAN. ) );
#284 = ORIENTED_EDGE ( 'NONE', *, *, #312, .T. ) ;
#285 = CARTESIAN_POINT ( 'NONE',  ( 0.0000000000000000000, 0.0000000000000000000, 0.0000000000000000000 ) ) ;
#286 = AXIS2_PLACEMENT_3D ( 'NONE', #131, #207, #33 ) ;
#287 = DIRECTION ( 'NONE',  ( -1.000000000000000000, 0.0000000000000000000, 2.188366338220633428E-16 ) ) ;
#288 = VERTEX_POINT ( 'NONE', #187 ) ;
#289 = EDGE_CURVE ( 'NONE', #126, #88, #229, .T. ) ;
#290 = SURFACE_STYLE_USAGE ( .BOTH. , #112 ) ;
#291 = FILL_AREA_STYLE_COLOUR ( '', #97 ) ;
#292 = PRESENTATION_STYLE_ASSIGNMENT (( #290 ) ) ;
#293 = DIRECTION ( 'NONE',  ( 1.000000000000000000, 0.0000000000000000000, 0.0000000000000000000 ) ) ;
#294 = COLOUR_RGB ( '',0.7921568627450980005, 0.8196078431372548767, 0.9333333333333333481 ) ;
#295 = ORIENTED_EDGE ( 'NONE', *, *, #118, .T. ) ;
#296 = APPLICATION_CONTEXT ( 'automotive_design' ) ;
#297 = DIRECTION ( 'NONE',  ( 1.000000000000000000, 0.0000000000000000000, 0.0000000000000000000 ) ) ;
#298 = DIRECTION ( 'NONE',  ( -1.000000000000000000, 0.0000000000000000000, 1.224646799147353947E-16 ) ) ;
#299 = ORIENTED_EDGE ( 'NONE', *, *, #104, .F. ) ;
#300 = CIRCLE ( 'NONE', #159, 0.03901095000000000257 ) ;
#301 = ORIENTED_EDGE ( 'NONE', *, *, #162, .T. ) ;
#302 = DIRECTION ( 'NONE',  ( 1.224646799147353700E-16, 0.0000000000000000000, 1.000000000000000000 ) ) ;
#303 = ADVANCED_BREP_SHAPE_REPRESENTATION ( 'Micro_BEM-078-03', ( #282, #150 ), #244 ) ;
#304 = CARTESIAN_POINT ( 'NONE',  ( 0.04750000000000064587, 5.817072295950006528E-18, 1.500000000000000222 ) ) ;
#305 = AXIS2_PLACEMENT_3D ( 'NONE', #309, #184, #111 ) ;
#306 = MECHANICAL_DESIGN_GEOMETRIC_PRESENTATION_REPRESENTATION (  '', ( #240 ), #132 ) ;
#307 = UNCERTAINTY_MEASURE_WITH_UNIT (LENGTH_MEASURE( 1.000000000000000082E-05 ), #189, 'distance_accuracy_value', 'NONE');
#308 = CARTESIAN_POINT ( 'NONE',  ( 0.03901095000000003032, 0.0000000000000000000, 0.1880000000000000282 ) ) ;
#309 = CARTESIAN_POINT ( 'NONE',  ( 0.0000000000000000000, 0.0000000000000000000, 1.500000000000000222 ) ) ;
#310 = CARTESIAN_POINT ( 'NONE',  ( 2.302335982397025094E-17, 0.0000000000000000000, 0.1880000000000000282 ) ) ;
#311 = AXIS2_PLACEMENT_3D ( 'NONE', #161, #276, #57 ) ;
#312 = EDGE_CURVE ( 'NONE', #46, #95, #180, .T. ) ;
#313 = PRODUCT_DEFINITION_CONTEXT ( 'detailed design', #296, 'design' ) ;
#314 = FACE_OUTER_BOUND ( 'NONE', #173, .T. ) ;
#315 = PRODUCT_CONTEXT ( 'NONE', #68, 'mechanical' ) ;
#316 = CARTESIAN_POINT ( 'NONE',  ( 3.933724995124051744E-17, 0.0000000000000000000, 0.3212130222250907940 ) ) ;
#317 = EDGE_LOOP ( 'NONE', ( #61, #284, #50 ) ) ;
#318 = EDGE_CURVE ( 'NONE', #95, #257, #300, .T. ) ;
#319 = AXIS2_PLACEMENT_3D ( 'NONE', #254, #188, #262 ) ;
#320 = CARTESIAN_POINT ( 'NONE',  ( 4.777463504919746737E-18, 0.0000000000000000000, 0.03901095000000000257 ) ) ;
#321 = DIRECTION ( 'NONE',  ( 0.0000000000000000000, 0.0000000000000000000, 1.000000000000000000 ) ) ;
#322 = ORIENTED_EDGE ( 'NONE', *, *, #289, .T. ) ;
#323 = PRESENTATION_STYLE_ASSIGNMENT (( #264 ) ) ;
#324 = VERTEX_POINT ( 'NONE', #235 ) ;
#325 = SHAPE_DEFINITION_REPRESENTATION ( #237, #303 ) ;
ENDSEC;
END-ISO-10303-21;
