ISO-10303-21;
HEADER;
FILE_DESCRIPTION (( 'STEP AP214' ),
    '1' );
FILE_NAME ('01047.STEP',
    '2023-06-22T14:18:55',
    ( '' ),
    ( '' ),
    'SwSTEP 2.0',
    'SolidWorks 2023',
    '' );
FILE_SCHEMA (( 'AUTOMOTIVE_DESIGN' ));
ENDSEC;

DATA;
#1 = VECTOR ( 'NONE', #43, 39.37007874015748143 ) ;
#2 = PRESENTATION_LAYER_ASSIGNMENT (  '', '', ( #146 ) ) ;
#3 = LINE ( 'NONE', #118, #233 ) ;
#4 = EDGE_CURVE ( 'NONE', #18, #99, #66, .T. ) ;
#5 = CARTESIAN_POINT ( 'NONE',  ( 0.000000000000000000, 0.5000000000000000000, 0.000000000000000000 ) ) ;
#6 = DIRECTION ( 'NONE',  ( -3.061616997868383018E-17, 1.000000000000000000, -0.000000000000000000 ) ) ;
#7 = APPLICATION_PROTOCOL_DEFINITION ( 'draft international standard', 'automotive_design', 1998, #231 ) ;
#8 = COLOUR_RGB ( '',0.7921568627450980005, 0.8196078431372548767, 0.9333333333333333481 ) ;
#9 = AXIS2_PLACEMENT_3D ( 'NONE', #155, #33, #129 ) ;
#10 = DIMENSIONAL_EXPONENTS ( 1.000000000000000000, 0.000000000000000000, 0.000000000000000000, 0.000000000000000000, 0.000000000000000000, 0.000000000000000000, 0.000000000000000000 ) ;
#11 = ORIENTED_EDGE ( 'NONE', *, *, #12, .T. ) ;
#12 = EDGE_CURVE ( 'NONE', #108, #111, #303, .T. ) ;
#13 =( LENGTH_UNIT ( ) NAMED_UNIT ( * ) SI_UNIT ( $, .METRE. ) );
#14 = DIRECTION ( 'NONE',  ( -0.000000000000000000, -1.000000000000000000, -0.000000000000000000 ) ) ;
#15 = EDGE_LOOP ( 'NONE', ( #131, #262, #235, #208 ) ) ;
#16 = ORIENTED_EDGE ( 'NONE', *, *, #61, .F. ) ;
#17 = CYLINDRICAL_SURFACE ( 'NONE', #132, 0.06250000000000001388 ) ;
#18 = VERTEX_POINT ( 'NONE', #276 ) ;
#19 = DIRECTION ( 'NONE',  ( 0.000000000000000000, 0.000000000000000000, -1.000000000000000000 ) ) ;
#20 = DIRECTION ( 'NONE',  ( -0.000000000000000000, -1.000000000000000000, -0.000000000000000000 ) ) ;
#21 = COLOUR_RGB ( '',1.000000000000000000, 0.000000000000000000, 0.000000000000000000 ) ;
#22 =( CONVERSION_BASED_UNIT ( 'INCH', #232 ) LENGTH_UNIT ( ) NAMED_UNIT ( #164 ) );
#23 = PRESENTATION_STYLE_ASSIGNMENT (( #187 ) ) ;
#24 = ORIENTED_EDGE ( 'NONE', *, *, #53, .T. ) ;
#25 = DIRECTION ( 'NONE',  ( -0.000000000000000000, -1.000000000000000000, -0.000000000000000000 ) ) ;
#26 = CARTESIAN_POINT ( 'NONE',  ( 0.000000000000000000, 0.5000000000000001110, 0.000000000000000000 ) ) ;
#27 = FACE_OUTER_BOUND ( 'NONE', #84, .T. ) ;
#28 = FACE_OUTER_BOUND ( 'NONE', #62, .T. ) ;
#29 =( NAMED_UNIT ( * ) PLANE_ANGLE_UNIT ( ) SI_UNIT ( $, .RADIAN. ) );
#30 = ADVANCED_FACE ( 'NONE', ( #283 ), #279, .T. ) ;
#31 = AXIS2_PLACEMENT_3D ( 'NONE', #246, #34, #130 ) ;
#32 = PLANE ( 'NONE',  #226 ) ;
#33 = DIRECTION ( 'NONE',  ( -0.000000000000000000, -1.000000000000000000, -0.000000000000000000 ) ) ;
#34 = DIRECTION ( 'NONE',  ( 0.000000000000000000, 0.000000000000000000, 1.000000000000000000 ) ) ;
#35 = STYLED_ITEM ( 'NONE', ( #202 ), #30 ) ;
#36 =( GEOMETRIC_REPRESENTATION_CONTEXT ( 3 ) GLOBAL_UNCERTAINTY_ASSIGNED_CONTEXT ( ( #244 ) ) GLOBAL_UNIT_ASSIGNED_CONTEXT ( ( #72, #57, #239 ) ) REPRESENTATION_CONTEXT ( 'NONE', 'WORKASPACE' ) );
#37 = EDGE_CURVE ( 'NONE', #88, #108, #81, .T. ) ;
#38 = PRODUCT_DEFINITION_SHAPE ( 'NONE', 'NONE',  #136 ) ;
#39 = CIRCLE ( 'NONE', #259, 0.06250000000000000000 ) ;
#40 = CARTESIAN_POINT ( 'NONE',  ( 0.000000000000000000, 0.000000000000000000, 0.000000000000000000 ) ) ;
#41 = PRESENTATION_STYLE_ASSIGNMENT (( #42 ) ) ;
#42 = SURFACE_STYLE_USAGE ( .BOTH. , #185 ) ;
#43 = DIRECTION ( 'NONE',  ( -0.000000000000000000, -1.000000000000000000, -0.000000000000000000 ) ) ;
#44 = VECTOR ( 'NONE', #189, 39.37007874015748143 ) ;
#45 = MECHANICAL_DESIGN_GEOMETRIC_PRESENTATION_REPRESENTATION (  '', ( #146 ), #288 ) ;
#46 = SURFACE_STYLE_USAGE ( .BOTH. , #165 ) ;
#47 = SURFACE_SIDE_STYLE ('',( #73 ) ) ;
#48 = CARTESIAN_POINT ( 'NONE',  ( 7.654042494670959086E-18, 0.000000000000000000, 0.06250000000000001388 ) ) ;
#49 = AXIS2_PLACEMENT_3D ( 'NONE', #207, #117, #163 ) ;
#50 =( NAMED_UNIT ( * ) SI_UNIT ( $, .STERADIAN. ) SOLID_ANGLE_UNIT ( ) );
#51 =( LENGTH_UNIT ( ) NAMED_UNIT ( * ) SI_UNIT ( $, .METRE. ) );
#52 = SURFACE_STYLE_USAGE ( .BOTH. , #125 ) ;
#53 = EDGE_CURVE ( 'NONE', #147, #111, #3, .T. ) ;
#54 = EDGE_LOOP ( 'NONE', ( #167, #247, #24, #200 ) ) ;
#55 =( CONVERSION_BASED_UNIT ( 'INCH', #171 ) LENGTH_UNIT ( ) NAMED_UNIT ( #159 ) );
#56 = DIRECTION ( 'NONE',  ( 0.000000000000000000, -1.000000000000000000, -0.000000000000000000 ) ) ;
#57 =( NAMED_UNIT ( * ) PLANE_ANGLE_UNIT ( ) SI_UNIT ( $, .RADIAN. ) );
#58 =( NAMED_UNIT ( * ) PLANE_ANGLE_UNIT ( ) SI_UNIT ( $, .RADIAN. ) );
#59 = SURFACE_STYLE_FILL_AREA ( #122 ) ;
#60 = DIRECTION ( 'NONE',  ( -3.061616997868383018E-17, 1.000000000000000000, -0.000000000000000000 ) ) ;
#61 = EDGE_CURVE ( 'NONE', #296, #173, #174, .T. ) ;
#62 = EDGE_LOOP ( 'NONE', ( #299, #295, #196, #121 ) ) ;
#63 = CLOSED_SHELL ( 'NONE', ( #153, #184, #107, #30 ) ) ;
#64 = ORIENTED_EDGE ( 'NONE', *, *, #186, .F. ) ;
#65 = EDGE_CURVE ( 'NONE', #99, #173, #219, .T. ) ;
#66 = LINE ( 'NONE', #255, #1 ) ;
#67 = AXIS2_PLACEMENT_3D ( 'NONE', #104, #191, #212 ) ;
#68 = FILL_AREA_STYLE ('',( #284 ) ) ;
#69 = SURFACE_STYLE_USAGE ( .BOTH. , #47 ) ;
#70 = CARTESIAN_POINT ( 'NONE',  ( -0.06250000000000012490, 2.500000000000000000, 0.000000000000000000 ) ) ;
#71 = ORIENTED_EDGE ( 'NONE', *, *, #215, .F. ) ;
#72 =( CONVERSION_BASED_UNIT ( 'INCH', #282 ) LENGTH_UNIT ( ) NAMED_UNIT ( #294 ) );
#73 = SURFACE_STYLE_FILL_AREA ( #253 ) ;
#74 = DIRECTION ( 'NONE',  ( -0.000000000000000000, -1.000000000000000000, -0.000000000000000000 ) ) ;
#75 = SURFACE_STYLE_USAGE ( .BOTH. , #98 ) ;
#76 = ORIENTED_EDGE ( 'NONE', *, *, #197, .F. ) ;
#77 = MECHANICAL_DESIGN_GEOMETRIC_PRESENTATION_REPRESENTATION (  '', ( #178 ), #36 ) ;
#78 = DIRECTION ( 'NONE',  ( 0.000000000000000000, -0.000000000000000000, 1.000000000000000000 ) ) ;
#79 = PRESENTATION_STYLE_ASSIGNMENT (( #75 ) ) ;
#80 = FILL_AREA_STYLE_COLOUR ( '', #21 ) ;
#81 = LINE ( 'NONE', #152, #44 ) ;
#82 = STYLED_ITEM ( 'NONE', ( #23 ), #107 ) ;
#83 = CIRCLE ( 'NONE', #264, 0.06250000000000000000 ) ;
#84 = EDGE_LOOP ( 'NONE', ( #76, #139 ) ) ;
#85 = PRODUCT_DEFINITION_CONTEXT ( 'detailed design', #231, 'design' ) ;
#86 = AXIS2_PLACEMENT_3D ( 'NONE', #40, #56, #124 ) ;
#87 = UNCERTAINTY_MEASURE_WITH_UNIT (LENGTH_MEASURE( 1.000000000000000082E-05 ), #172, 'distance_accuracy_value', 'NONE');
#88 = VERTEX_POINT ( 'NONE', #211 ) ;
#89 = COLOUR_RGB ( '',1.000000000000000000, 0.000000000000000000, 0.000000000000000000 ) ;
#90 = FILL_AREA_STYLE ('',( #298 ) ) ;
#91 = DIRECTION ( 'NONE',  ( -1.000000000000000000, 0.000000000000000000, 0.000000000000000000 ) ) ;
#92 =( NAMED_UNIT ( * ) PLANE_ANGLE_UNIT ( ) SI_UNIT ( $, .RADIAN. ) );
#93 = ADVANCED_BREP_SHAPE_REPRESENTATION ( '01047', ( #251, #157, #31 ), #257 ) ;
#94 = ADVANCED_FACE ( 'NONE', ( #27 ), #128, .F. ) ;
#95 = CIRCLE ( 'NONE', #67, 0.06250000000000000000 ) ;
#96 =( NAMED_UNIT ( * ) PLANE_ANGLE_UNIT ( ) SI_UNIT ( $, .RADIAN. ) );
#97 = SURFACE_SIDE_STYLE ('',( #306 ) ) ;
#98 = SURFACE_SIDE_STYLE ('',( #59 ) ) ;
#99 = VERTEX_POINT ( 'NONE', #221 ) ;
#100 =( GEOMETRIC_REPRESENTATION_CONTEXT ( 3 ) GLOBAL_UNCERTAINTY_ASSIGNED_CONTEXT ( ( #248 ) ) GLOBAL_UNIT_ASSIGNED_CONTEXT ( ( #227, #116, #302 ) ) REPRESENTATION_CONTEXT ( 'NONE', 'WORKASPACE' ) );
#101 = PRESENTATION_LAYER_ASSIGNMENT (  '', '', ( #178 ) ) ;
#102 = FACE_OUTER_BOUND ( 'NONE', #137, .T. ) ;
#103 = APPLICATION_PROTOCOL_DEFINITION ( 'draft international standard', 'automotive_design', 1998, #166 ) ;
#104 = CARTESIAN_POINT ( 'NONE',  ( 0.000000000000000000, 0.5000000000000001110, 0.000000000000000000 ) ) ;
#105 =( GEOMETRIC_REPRESENTATION_CONTEXT ( 3 ) GLOBAL_UNCERTAINTY_ASSIGNED_CONTEXT ( ( #134 ) ) GLOBAL_UNIT_ASSIGNED_CONTEXT ( ( #258, #96, #230 ) ) REPRESENTATION_CONTEXT ( 'NONE', 'WORKASPACE' ) );
#106 = CARTESIAN_POINT ( 'NONE',  ( 0.000000000000000000, 0.5000000000000000000, 0.000000000000000000 ) ) ;
#107 = ADVANCED_FACE ( 'NONE', ( #151 ), #143, .T. ) ;
#108 = VERTEX_POINT ( 'NONE', #115 ) ;
#109 = VECTOR ( 'NONE', #238, 39.37007874015748143 ) ;
#110 = AXIS2_PLACEMENT_3D ( 'NONE', #236, #25, #289 ) ;
#111 = VERTEX_POINT ( 'NONE', #70 ) ;
#112 = CARTESIAN_POINT ( 'NONE',  ( -6.123233995736766036E-17, 2.500000000000000000, 0.000000000000000000 ) ) ;
#113 = CYLINDRICAL_SURFACE ( 'NONE', #195, 0.06250000000000002776 ) ;
#114 = MECHANICAL_DESIGN_GEOMETRIC_PRESENTATION_REPRESENTATION (  '', ( #35 ), #100 ) ;
#115 = CARTESIAN_POINT ( 'NONE',  ( 0.06250000000000000000, 2.500000000000000000, 7.654042494670963708E-18 ) ) ;
#116 =( NAMED_UNIT ( * ) PLANE_ANGLE_UNIT ( ) SI_UNIT ( $, .RADIAN. ) );
#117 = DIRECTION ( 'NONE',  ( -3.061616997868383018E-17, 1.000000000000000000, -0.000000000000000000 ) ) ;
#118 = CARTESIAN_POINT ( 'NONE',  ( -0.06250000000000009714, 2.500000000000000000, 0.000000000000000000 ) ) ;
#119 = PRESENTATION_LAYER_ASSIGNMENT (  '', '', ( #82 ) ) ;
#120 =( NAMED_UNIT ( * ) SI_UNIT ( $, .STERADIAN. ) SOLID_ANGLE_UNIT ( ) );
#121 = ORIENTED_EDGE ( 'NONE', *, *, #53, .F. ) ;
#122 = FILL_AREA_STYLE ('',( #80 ) ) ;
#123 = CARTESIAN_POINT ( 'NONE',  ( 7.654042494670959086E-18, 0.5000000000000000000, 0.06250000000000000000 ) ) ;
#124 = DIRECTION ( 'NONE',  ( 0.000000000000000000, 0.000000000000000000, -1.000000000000000000 ) ) ;
#125 = SURFACE_SIDE_STYLE ('',( #265 ) ) ;
#126 = DIRECTION ( 'NONE',  ( -3.061616997868383018E-17, 1.000000000000000000, 0.000000000000000000 ) ) ;
#127 =( GEOMETRIC_REPRESENTATION_CONTEXT ( 3 ) GLOBAL_UNCERTAINTY_ASSIGNED_CONTEXT ( ( #224 ) ) GLOBAL_UNIT_ASSIGNED_CONTEXT ( ( #252, #58, #240 ) ) REPRESENTATION_CONTEXT ( 'NONE', 'WORKASPACE' ) );
#128 = PLANE ( 'NONE',  #217 ) ;
#129 = DIRECTION ( 'NONE',  ( 0.000000000000000000, 0.000000000000000000, -1.000000000000000000 ) ) ;
#130 = DIRECTION ( 'NONE',  ( 1.000000000000000000, 0.000000000000000000, 0.000000000000000000 ) ) ;
#131 = ORIENTED_EDGE ( 'NONE', *, *, #215, .T. ) ;
#132 = AXIS2_PLACEMENT_3D ( 'NONE', #138, #14, #183 ) ;
#133 = EDGE_CURVE ( 'NONE', #111, #108, #145, .T. ) ;
#134 = UNCERTAINTY_MEASURE_WITH_UNIT (LENGTH_MEASURE( 1.000000000000000082E-05 ), #258, 'distance_accuracy_value', 'NONE');
#135 = MECHANICAL_DESIGN_GEOMETRIC_PRESENTATION_REPRESENTATION (  '', ( #192 ), #160 ) ;
#136 = PRODUCT_DEFINITION ( 'UNKNOWN', '', #277, #85 ) ;
#137 = EDGE_LOOP ( 'NONE', ( #198, #11 ) ) ;
#138 = CARTESIAN_POINT ( 'NONE',  ( 0.000000000000000000, 0.000000000000000000, 0.000000000000000000 ) ) ;
#139 = ORIENTED_EDGE ( 'NONE', *, *, #290, .F. ) ;
#140 = PRESENTATION_STYLE_ASSIGNMENT (( #46 ) ) ;
#141 = EDGE_LOOP ( 'NONE', ( #16, #206, #190, #64 ) ) ;
#142 = DIMENSIONAL_EXPONENTS ( 1.000000000000000000, 0.000000000000000000, 0.000000000000000000, 0.000000000000000000, 0.000000000000000000, 0.000000000000000000, 0.000000000000000000 ) ;
#143 = CYLINDRICAL_SURFACE ( 'NONE', #181, 0.06250000000000001388 ) ;
#144 = CARTESIAN_POINT ( 'NONE',  ( 0.000000000000000000, 0.000000000000000000, 0.000000000000000000 ) ) ;
#145 = CIRCLE ( 'NONE', #49, 0.06250000000000005551 ) ;
#146 = STYLED_ITEM ( 'NONE', ( #79 ), #184 ) ;
#147 = VERTEX_POINT ( 'NONE', #161 ) ;
#148 = DIRECTION ( 'NONE',  ( -1.000000000000000000, 0.000000000000000000, 0.000000000000000000 ) ) ;
#149 = DIRECTION ( 'NONE',  ( -3.061616997868383018E-17, 1.000000000000000000, -0.000000000000000000 ) ) ;
#150 = PRESENTATION_STYLE_ASSIGNMENT (( #52 ) ) ;
#151 = FACE_OUTER_BOUND ( 'NONE', #141, .T. ) ;
#152 = CARTESIAN_POINT ( 'NONE',  ( 0.06249999999999997224, 2.500000000000000000, 7.654042494670960626E-18 ) ) ;
#153 = ADVANCED_FACE ( 'NONE', ( #261 ), #17, .T. ) ;
#154 = AXIS2_PLACEMENT_3D ( 'NONE', #237, #241, #176 ) ;
#155 = CARTESIAN_POINT ( 'NONE',  ( 0.000000000000000000, 0.000000000000000000, 0.000000000000000000 ) ) ;
#156 =( LENGTH_UNIT ( ) NAMED_UNIT ( * ) SI_UNIT ( $, .METRE. ) );
#157 = MANIFOLD_SOLID_BREP ( 'Revolve - Tool Body (Straight Shanked)', #249 ) ;
#158 = ADVANCED_FACE ( 'NONE', ( #28 ), #113, .T. ) ;
#159 = DIMENSIONAL_EXPONENTS ( 1.000000000000000000, 0.000000000000000000, 0.000000000000000000, 0.000000000000000000, 0.000000000000000000, 0.000000000000000000, 0.000000000000000000 ) ;
#160 =( GEOMETRIC_REPRESENTATION_CONTEXT ( 3 ) GLOBAL_UNCERTAINTY_ASSIGNED_CONTEXT ( ( #199 ) ) GLOBAL_UNIT_ASSIGNED_CONTEXT ( ( #22, #92, #120 ) ) REPRESENTATION_CONTEXT ( 'NONE', 'WORKASPACE' ) );
#161 = CARTESIAN_POINT ( 'NONE',  ( -0.06250000000000000000, 0.5000000000000001110, 0.000000000000000000 ) ) ;
#162 = ADVANCED_FACE ( 'NONE', ( #102 ), #32, .F. ) ;
#163 = DIRECTION ( 'NONE',  ( -1.000000000000000000, 0.000000000000000000, 0.000000000000000000 ) ) ;
#164 = DIMENSIONAL_EXPONENTS ( 1.000000000000000000, 0.000000000000000000, 0.000000000000000000, 0.000000000000000000, 0.000000000000000000, 0.000000000000000000, 0.000000000000000000 ) ;
#165 = SURFACE_SIDE_STYLE ('',( #281 ) ) ;
#166 = APPLICATION_CONTEXT ( 'automotive_design' ) ;
#167 = ORIENTED_EDGE ( 'NONE', *, *, #37, .F. ) ;
#168 = AXIS2_PLACEMENT_3D ( 'NONE', #112, #180, #91 ) ;
#169 = FILL_AREA_STYLE ('',( #309 ) ) ;
#170 =( NAMED_UNIT ( * ) SI_UNIT ( $, .STERADIAN. ) SOLID_ANGLE_UNIT ( ) );
#171 = LENGTH_MEASURE_WITH_UNIT ( LENGTH_MEASURE( 0.02539999999999999897 ), #291 );
#172 =( CONVERSION_BASED_UNIT ( 'INCH', #269 ) LENGTH_UNIT ( ) NAMED_UNIT ( #204 ) );
#173 = VERTEX_POINT ( 'NONE', #285 ) ;
#174 = LINE ( 'NONE', #48, #109 ) ;
#175 = CARTESIAN_POINT ( 'NONE',  ( -6.123233995736766036E-17, 2.500000000000000000, 0.000000000000000000 ) ) ;
#176 = DIRECTION ( 'NONE',  ( -1.000000000000000000, 0.000000000000000000, 0.000000000000000000 ) ) ;
#177 = PRESENTATION_LAYER_ASSIGNMENT (  '', '', ( #35 ) ) ;
#178 = STYLED_ITEM ( 'NONE', ( #140 ), #157 ) ;
#179 = ORIENTED_EDGE ( 'NONE', *, *, #186, .T. ) ;
#180 = DIRECTION ( 'NONE',  ( -3.061616997868383018E-17, 1.000000000000000000, -0.000000000000000000 ) ) ;
#181 = AXIS2_PLACEMENT_3D ( 'NONE', #278, #74, #19 ) ;
#182 = ORIENTED_EDGE ( 'NONE', *, *, #274, .F. ) ;
#183 = DIRECTION ( 'NONE',  ( 0.000000000000000000, 0.000000000000000000, -1.000000000000000000 ) ) ;
#184 = ADVANCED_FACE ( 'NONE', ( #188 ), #268, .T. ) ;
#185 = SURFACE_SIDE_STYLE ('',( #225 ) ) ;
#186 = EDGE_CURVE ( 'NONE', #173, #99, #297, .T. ) ;
#187 = SURFACE_STYLE_USAGE ( .BOTH. , #97 ) ;
#188 = FACE_OUTER_BOUND ( 'NONE', #220, .T. ) ;
#189 = DIRECTION ( 'NONE',  ( -3.061616997868383018E-17, 1.000000000000000000, -0.000000000000000000 ) ) ;
#190 = ORIENTED_EDGE ( 'NONE', *, *, #4, .T. ) ;
#191 = DIRECTION ( 'NONE',  ( -3.061616997868383018E-17, 1.000000000000000000, -0.000000000000000000 ) ) ;
#192 = STYLED_ITEM ( 'NONE', ( #41 ), #153 ) ;
#193 = CARTESIAN_POINT ( 'NONE',  ( 0.06250000000000000000, 2.500000000000000000, 0.000000000000000000 ) ) ;
#194 = SHAPE_DEFINITION_REPRESENTATION ( #38, #93 ) ;
#195 = AXIS2_PLACEMENT_3D ( 'NONE', #175, #6, #308 ) ;
#196 = ORIENTED_EDGE ( 'NONE', *, *, #133, .F. ) ;
#197 = EDGE_CURVE ( 'NONE', #147, #88, #95, .T. ) ;
#198 = ORIENTED_EDGE ( 'NONE', *, *, #133, .T. ) ;
#199 = UNCERTAINTY_MEASURE_WITH_UNIT (LENGTH_MEASURE( 1.000000000000000082E-05 ), #22, 'distance_accuracy_value', 'NONE');
#200 = ORIENTED_EDGE ( 'NONE', *, *, #12, .F. ) ;
#201 =( LENGTH_UNIT ( ) NAMED_UNIT ( * ) SI_UNIT ( $, .METRE. ) );
#202 = PRESENTATION_STYLE_ASSIGNMENT (( #69 ) ) ;
#203 = UNCERTAINTY_MEASURE_WITH_UNIT (LENGTH_MEASURE( 1.000000000000000082E-05 ), #55, 'distance_accuracy_value', 'NONE');
#204 = DIMENSIONAL_EXPONENTS ( 1.000000000000000000, 0.000000000000000000, 0.000000000000000000, 0.000000000000000000, 0.000000000000000000, 0.000000000000000000, 0.000000000000000000 ) ;
#205 = STYLED_ITEM ( 'NONE', ( #150 ), #251 ) ;
#206 = ORIENTED_EDGE ( 'NONE', *, *, #274, .T. ) ;
#207 = CARTESIAN_POINT ( 'NONE',  ( -6.123233995736766036E-17, 2.500000000000000000, 0.000000000000000000 ) ) ;
#208 = ORIENTED_EDGE ( 'NONE', *, *, #4, .F. ) ;
#209 = AXIS2_PLACEMENT_3D ( 'NONE', #144, #20, #267 ) ;
#210 = COLOUR_RGB ( '',0.7921568627450980005, 0.8196078431372548767, 0.9333333333333333481 ) ;
#211 = CARTESIAN_POINT ( 'NONE',  ( 0.06250000000000000000, 0.5000000000000001110, 7.654042494670963708E-18 ) ) ;
#212 = DIRECTION ( 'NONE',  ( -1.000000000000000000, 0.000000000000000000, 0.000000000000000000 ) ) ;
#213 = CARTESIAN_POINT ( 'NONE',  ( 2.929218325511440640E-35, 0.5000000000000000000, 0.000000000000000000 ) ) ;
#214 = CYLINDRICAL_SURFACE ( 'NONE', #154, 0.06250000000000002776 ) ;
#215 = EDGE_CURVE ( 'NONE', #18, #296, #270, .T. ) ;
#216 = FACE_OUTER_BOUND ( 'NONE', #54, .T. ) ;
#217 = AXIS2_PLACEMENT_3D ( 'NONE', #213, #126, #242 ) ;
#218 = FILL_AREA_STYLE_COLOUR ( '', #256 ) ;
#219 = CIRCLE ( 'NONE', #209, 0.06250000000000001388 ) ;
#220 = EDGE_LOOP ( 'NONE', ( #71, #182 ) ) ;
#221 = CARTESIAN_POINT ( 'NONE',  ( 0.000000000000000000, 0.000000000000000000, -0.06250000000000001388 ) ) ;
#222 = AXIS2_PLACEMENT_3D ( 'NONE', #5, #245, #78 ) ;
#223 = PRODUCT ( '01047', '01047', '', ( #266 ) ) ;
#224 = UNCERTAINTY_MEASURE_WITH_UNIT (LENGTH_MEASURE( 1.000000000000000082E-05 ), #252, 'distance_accuracy_value', 'NONE');
#225 = SURFACE_STYLE_FILL_AREA ( #68 ) ;
#226 = AXIS2_PLACEMENT_3D ( 'NONE', #193, #287, #272 ) ;
#227 =( CONVERSION_BASED_UNIT ( 'INCH', #228 ) LENGTH_UNIT ( ) NAMED_UNIT ( #10 ) );
#228 = LENGTH_MEASURE_WITH_UNIT ( LENGTH_MEASURE( 0.02539999999999999897 ), #13 );
#229 = PRODUCT_RELATED_PRODUCT_CATEGORY ( 'part', '', ( #223 ) ) ;
#230 =( NAMED_UNIT ( * ) SI_UNIT ( $, .STERADIAN. ) SOLID_ANGLE_UNIT ( ) );
#231 = APPLICATION_CONTEXT ( 'automotive_design' ) ;
#232 = LENGTH_MEASURE_WITH_UNIT ( LENGTH_MEASURE( 0.02539999999999999897 ), #305 );
#233 = VECTOR ( 'NONE', #149, 39.37007874015748143 ) ;
#234 = MECHANICAL_DESIGN_GEOMETRIC_PRESENTATION_REPRESENTATION (  '', ( #205 ), #127 ) ;
#235 = ORIENTED_EDGE ( 'NONE', *, *, #65, .F. ) ;
#236 = CARTESIAN_POINT ( 'NONE',  ( 0.000000000000000000, 0.5000000000000000000, 0.000000000000000000 ) ) ;
#237 = CARTESIAN_POINT ( 'NONE',  ( -6.123233995736766036E-17, 2.500000000000000000, 0.000000000000000000 ) ) ;
#238 = DIRECTION ( 'NONE',  ( -0.000000000000000000, -1.000000000000000000, -0.000000000000000000 ) ) ;
#239 =( NAMED_UNIT ( * ) SI_UNIT ( $, .STERADIAN. ) SOLID_ANGLE_UNIT ( ) );
#240 =( NAMED_UNIT ( * ) SI_UNIT ( $, .STERADIAN. ) SOLID_ANGLE_UNIT ( ) );
#241 = DIRECTION ( 'NONE',  ( -3.061616997868383018E-17, 1.000000000000000000, -0.000000000000000000 ) ) ;
#242 = DIRECTION ( 'NONE',  ( -1.000000000000000000, -3.061616997868383018E-17, 0.000000000000000000 ) ) ;
#243 = DIRECTION ( 'NONE',  ( 0.000000000000000000, 0.000000000000000000, -1.000000000000000000 ) ) ;
#244 = UNCERTAINTY_MEASURE_WITH_UNIT (LENGTH_MEASURE( 1.000000000000000082E-05 ), #72, 'distance_accuracy_value', 'NONE');
#245 = DIRECTION ( 'NONE',  ( 0.000000000000000000, 1.000000000000000000, 0.000000000000000000 ) ) ;
#246 = CARTESIAN_POINT ( 'NONE',  ( 0.000000000000000000, 0.000000000000000000, 0.000000000000000000 ) ) ;
#247 = ORIENTED_EDGE ( 'NONE', *, *, #290, .T. ) ;
#248 = UNCERTAINTY_MEASURE_WITH_UNIT (LENGTH_MEASURE( 1.000000000000000082E-05 ), #227, 'distance_accuracy_value', 'NONE');
#249 = CLOSED_SHELL ( 'NONE', ( #158, #94, #271, #162 ) ) ;
#250 = COLOUR_RGB ( '',1.000000000000000000, 0.000000000000000000, 0.000000000000000000 ) ;
#251 = MANIFOLD_SOLID_BREP ( 'Revolve - Cutting Edge', #63 ) ;
#252 =( CONVERSION_BASED_UNIT ( 'INCH', #301 ) LENGTH_UNIT ( ) NAMED_UNIT ( #280 ) );
#253 = FILL_AREA_STYLE ('',( #260 ) ) ;
#254 = LENGTH_MEASURE_WITH_UNIT ( LENGTH_MEASURE( 0.02539999999999999897 ), #51 );
#255 = CARTESIAN_POINT ( 'NONE',  ( 0.000000000000000000, 0.000000000000000000, -0.06250000000000001388 ) ) ;
#256 = COLOUR_RGB ( '',1.000000000000000000, 0.000000000000000000, 0.000000000000000000 ) ;
#257 =( GEOMETRIC_REPRESENTATION_CONTEXT ( 3 ) GLOBAL_UNCERTAINTY_ASSIGNED_CONTEXT ( ( #87 ) ) GLOBAL_UNIT_ASSIGNED_CONTEXT ( ( #172, #29, #170 ) ) REPRESENTATION_CONTEXT ( 'NONE', 'WORKASPACE' ) );
#258 =( CONVERSION_BASED_UNIT ( 'INCH', #254 ) LENGTH_UNIT ( ) NAMED_UNIT ( #142 ) );
#259 = AXIS2_PLACEMENT_3D ( 'NONE', #106, #273, #243 ) ;
#260 = FILL_AREA_STYLE_COLOUR ( '', #89 ) ;
#261 = FACE_OUTER_BOUND ( 'NONE', #15, .T. ) ;
#262 = ORIENTED_EDGE ( 'NONE', *, *, #61, .T. ) ;
#263 =( NAMED_UNIT ( * ) PLANE_ANGLE_UNIT ( ) SI_UNIT ( $, .RADIAN. ) );
#264 = AXIS2_PLACEMENT_3D ( 'NONE', #26, #60, #148 ) ;
#265 = SURFACE_STYLE_FILL_AREA ( #169 ) ;
#266 = PRODUCT_CONTEXT ( 'NONE', #166, 'mechanical' ) ;
#267 = DIRECTION ( 'NONE',  ( 0.000000000000000000, 0.000000000000000000, -1.000000000000000000 ) ) ;
#268 = PLANE ( 'NONE',  #222 ) ;
#269 = LENGTH_MEASURE_WITH_UNIT ( LENGTH_MEASURE( 0.02539999999999999897 ), #156 );
#271 = ADVANCED_FACE ( 'NONE', ( #216 ), #214, .T. ) ;
#270 = CIRCLE ( 'NONE', #110, 0.06250000000000000000 ) ;
#272 = DIRECTION ( 'NONE',  ( 1.000000000000000000, 3.061616997868383018E-17, 0.000000000000000000 ) ) ;
#273 = DIRECTION ( 'NONE',  ( -0.000000000000000000, -1.000000000000000000, -0.000000000000000000 ) ) ;
#274 = EDGE_CURVE ( 'NONE', #296, #18, #39, .T. ) ;
#275 = ORIENTED_EDGE ( 'NONE', *, *, #65, .T. ) ;
#276 = CARTESIAN_POINT ( 'NONE',  ( 0.000000000000000000, 0.5000000000000000000, -0.06250000000000000000 ) ) ;
#277 = PRODUCT_DEFINITION_FORMATION_WITH_SPECIFIED_SOURCE ( 'ANY', '', #223, .NOT_KNOWN. ) ;
#278 = CARTESIAN_POINT ( 'NONE',  ( 0.000000000000000000, 0.000000000000000000, 0.000000000000000000 ) ) ;
#279 = PLANE ( 'NONE',  #86 ) ;
#280 = DIMENSIONAL_EXPONENTS ( 1.000000000000000000, 0.000000000000000000, 0.000000000000000000, 0.000000000000000000, 0.000000000000000000, 0.000000000000000000, 0.000000000000000000 ) ;
#281 = SURFACE_STYLE_FILL_AREA ( #90 ) ;
#282 = LENGTH_MEASURE_WITH_UNIT ( LENGTH_MEASURE( 0.02539999999999999897 ), #300 );
#283 = FACE_OUTER_BOUND ( 'NONE', #307, .T. ) ;
#284 = FILL_AREA_STYLE_COLOUR ( '', #250 ) ;
#285 = CARTESIAN_POINT ( 'NONE',  ( 7.654042494670960626E-18, 0.000000000000000000, 0.06250000000000002776 ) ) ;
#286 = FILL_AREA_STYLE ('',( #218 ) ) ;
#287 = DIRECTION ( 'NONE',  ( 3.061616997868383018E-17, -1.000000000000000000, 0.000000000000000000 ) ) ;
#288 =( GEOMETRIC_REPRESENTATION_CONTEXT ( 3 ) GLOBAL_UNCERTAINTY_ASSIGNED_CONTEXT ( ( #203 ) ) GLOBAL_UNIT_ASSIGNED_CONTEXT ( ( #55, #263, #50 ) ) REPRESENTATION_CONTEXT ( 'NONE', 'WORKASPACE' ) );
#289 = DIRECTION ( 'NONE',  ( 0.000000000000000000, 0.000000000000000000, -1.000000000000000000 ) ) ;
#290 = EDGE_CURVE ( 'NONE', #88, #147, #83, .T. ) ;
#291 =( LENGTH_UNIT ( ) NAMED_UNIT ( * ) SI_UNIT ( $, .METRE. ) );
#292 = MECHANICAL_DESIGN_GEOMETRIC_PRESENTATION_REPRESENTATION (  '', ( #82 ), #105 ) ;
#293 = PRESENTATION_LAYER_ASSIGNMENT (  '', '', ( #192 ) ) ;
#294 = DIMENSIONAL_EXPONENTS ( 1.000000000000000000, 0.000000000000000000, 0.000000000000000000, 0.000000000000000000, 0.000000000000000000, 0.000000000000000000, 0.000000000000000000 ) ;
#295 = ORIENTED_EDGE ( 'NONE', *, *, #37, .T. ) ;
#296 = VERTEX_POINT ( 'NONE', #123 ) ;
#297 = CIRCLE ( 'NONE', #9, 0.06250000000000001388 ) ;
#298 = FILL_AREA_STYLE_COLOUR ( '', #210 ) ;
#299 = ORIENTED_EDGE ( 'NONE', *, *, #197, .T. ) ;
#300 =( LENGTH_UNIT ( ) NAMED_UNIT ( * ) SI_UNIT ( $, .METRE. ) );
#301 = LENGTH_MEASURE_WITH_UNIT ( LENGTH_MEASURE( 0.02539999999999999897 ), #201 );
#302 =( NAMED_UNIT ( * ) SI_UNIT ( $, .STERADIAN. ) SOLID_ANGLE_UNIT ( ) );
#303 = CIRCLE ( 'NONE', #168, 0.06250000000000005551 ) ;
#304 = PRESENTATION_LAYER_ASSIGNMENT (  '', '', ( #205 ) ) ;
#305 =( LENGTH_UNIT ( ) NAMED_UNIT ( * ) SI_UNIT ( $, .METRE. ) );
#306 = SURFACE_STYLE_FILL_AREA ( #286 ) ;
#307 = EDGE_LOOP ( 'NONE', ( #275, #179 ) ) ;
#308 = DIRECTION ( 'NONE',  ( -1.000000000000000000, 0.000000000000000000, 0.000000000000000000 ) ) ;
#309 = FILL_AREA_STYLE_COLOUR ( '', #8 ) ;
ENDSEC;
END-ISO-10303-21;
