ISO-10303-21;
HEADER;
FILE_DESCRIPTION (( 'STEP AP214' ),
    '1' );
FILE_NAME ('Micro_SBM-250-4X.STEP',
    '2021-09-02T17:01:56',
    ( '' ),
    ( '' ),
    'SwSTEP 2.0',
    'SolidWorks 2020',
    '' );
FILE_SCHEMA (( 'AUTOMOTIVE_DESIGN' ));
ENDSEC;

DATA;
#1 = VERTEX_POINT ( 'NONE', #70 ) ;
#2 = AXIS2_PLACEMENT_3D ( 'NONE', #257, #150, #13 ) ;
#3 = VERTEX_POINT ( 'NONE', #309 ) ;
#4 = VERTEX_POINT ( 'NONE', #18 ) ;
#5 = LENGTH_MEASURE_WITH_UNIT ( LENGTH_MEASURE( 0.02539999999999999897 ), #252 );
#6 = ORIENTED_EDGE ( 'NONE', *, *, #34, .T. ) ;
#7 = CIRCLE ( 'NONE', #155, 0.09999999999999997780 ) ;
#8 =( NAMED_UNIT ( * ) SI_UNIT ( $, .STERADIAN. ) SOLID_ANGLE_UNIT ( ) );
#9 = ORIENTED_EDGE ( 'NONE', *, *, #121, .F. ) ;
#10 = ADVANCED_FACE ( 'NONE', ( #126 ), #274, .T. ) ;
#11 = DIRECTION ( 'NONE',  ( -0.0000000000000000000, -0.0000000000000000000, -1.000000000000000000 ) ) ;
#12 = CARTESIAN_POINT ( 'NONE',  ( 0.0000000000000000000, 0.0000000000000000000, 0.0000000000000000000 ) ) ;
#13 = DIRECTION ( 'NONE',  ( -1.000000000000000000, 0.0000000000000000000, 0.0000000000000000000 ) ) ;
#14 = AXIS2_PLACEMENT_3D ( 'NONE', #26, #198, #272 ) ;
#15 = DIRECTION ( 'NONE',  ( 0.0000000000000000000, 0.0000000000000000000, 1.000000000000000000 ) ) ;
#16 = EDGE_CURVE ( 'NONE', #324, #4, #122, .T. ) ;
#17 = CARTESIAN_POINT ( 'NONE',  ( 0.0000000000000000000, 0.0000000000000000000, 3.000000000000000444 ) ) ;
#18 = CARTESIAN_POINT ( 'NONE',  ( 0.1100000000000004446, 1.438959988998142687E-17, 3.000000000000000444 ) ) ;
#19 = DIRECTION ( 'NONE',  ( -1.000000000000000000, 0.0000000000000000000, 0.0000000000000000000 ) ) ;
#20 = PRODUCT_DEFINITION_FORMATION_WITH_SPECIFIED_SOURCE ( 'ANY', '', #125, .NOT_KNOWN. ) ;
#21 = ADVANCED_FACE ( 'NONE', ( #40 ), #230, .T. ) ;
#22 = SURFACE_SIDE_STYLE ('',( #156 ) ) ;
#23 = PLANE ( 'NONE',  #73 ) ;
#24 = CIRCLE ( 'NONE', #209, 0.09999999999999997780 ) ;
#25 = LINE ( 'NONE', #323, #213 ) ;
#26 = CARTESIAN_POINT ( 'NONE',  ( 0.0000000000000000000, 0.0000000000000000000, 0.0000000000000000000 ) ) ;
#27 = EDGE_LOOP ( 'NONE', ( #223, #168 ) ) ;
#28 = AXIS2_PLACEMENT_3D ( 'NONE', #45, #332, #307 ) ;
#29 = CARTESIAN_POINT ( 'NONE',  ( 0.0000000000000000000, 0.0000000000000000000, 3.000000000000000444 ) ) ;
#30 = VERTEX_POINT ( 'NONE', #205 ) ;
#31 = ORIENTED_EDGE ( 'NONE', *, *, #74, .T. ) ;
#32 =( NAMED_UNIT ( * ) PLANE_ANGLE_UNIT ( ) SI_UNIT ( $, .RADIAN. ) );
#33 = ORIENTED_EDGE ( 'NONE', *, *, #161, .F. ) ;
#34 = EDGE_CURVE ( 'NONE', #62, #1, #334, .T. ) ;
#35 = AXIS2_PLACEMENT_3D ( 'NONE', #138, #193, #83 ) ;
#36 =( NAMED_UNIT ( * ) SI_UNIT ( $, .STERADIAN. ) SOLID_ANGLE_UNIT ( ) );
#37 = ORIENTED_EDGE ( 'NONE', *, *, #99, .F. ) ;
#38 = DIRECTION ( 'NONE',  ( -1.000000000000000000, 0.0000000000000000000, 0.0000000000000000000 ) ) ;
#39 = EDGE_CURVE ( 'NONE', #80, #172, #175, .T. ) ;
#40 = FACE_OUTER_BOUND ( 'NONE', #58, .T. ) ;
#41 = LINE ( 'NONE', #151, #68 ) ;
#42 = UNCERTAINTY_MEASURE_WITH_UNIT (LENGTH_MEASURE( 1.000000000000000082E-05 ), #344, 'distance_accuracy_value', 'NONE');
#43 = DIRECTION ( 'NONE',  ( 1.000000000000000000, 0.0000000000000000000, 0.0000000000000000000 ) ) ;
#44 = EDGE_CURVE ( 'NONE', #140, #197, #166, .T. ) ;
#45 = CARTESIAN_POINT ( 'NONE',  ( 0.0000000000000000000, 0.0000000000000000000, 0.1250000000000000000 ) ) ;
#46 = CYLINDRICAL_SURFACE ( 'NONE', #69, 0.1250000000000000000 ) ;
#47 = CIRCLE ( 'NONE', #280, 0.09999999999999996392 ) ;
#48 = DIRECTION ( 'NONE',  ( -0.0000000000000000000, -0.0000000000000000000, -1.000000000000000000 ) ) ;
#49 = FACE_OUTER_BOUND ( 'NONE', #88, .T. ) ;
#50 = CARTESIAN_POINT ( 'NONE',  ( 0.0000000000000000000, 0.0000000000000000000, 1.549999999999994049 ) ) ;
#51 = LINE ( 'NONE', #108, #128 ) ;
#52 = ORIENTED_EDGE ( 'NONE', *, *, #66, .F. ) ;
#53 = EDGE_CURVE ( 'NONE', #324, #140, #234, .T. ) ;
#54 = LINE ( 'NONE', #144, #196 ) ;
#55 = EDGE_LOOP ( 'NONE', ( #52, #113, #329, #278 ) ) ;
#56 =( GEOMETRIC_REPRESENTATION_CONTEXT ( 3 ) GLOBAL_UNCERTAINTY_ASSIGNED_CONTEXT ( ( #42 ) ) GLOBAL_UNIT_ASSIGNED_CONTEXT ( ( #344, #188, #76 ) ) REPRESENTATION_CONTEXT ( 'NONE', 'WORKASPACE' ) );
#57 = SURFACE_SIDE_STYLE ('',( #297 ) ) ;
#58 = EDGE_LOOP ( 'NONE', ( #82, #273, #146, #143 ) ) ;
#59 = DIRECTION ( 'NONE',  ( -0.0000000000000000000, -0.0000000000000000000, -1.000000000000000000 ) ) ;
#60 = ORIENTED_EDGE ( 'NONE', *, *, #44, .T. ) ;
#61 =( NAMED_UNIT ( * ) PLANE_ANGLE_UNIT ( ) SI_UNIT ( $, .RADIAN. ) );
#62 = VERTEX_POINT ( 'NONE', #311 ) ;
#63 = AXIS2_PLACEMENT_3D ( 'NONE', #207, #339, #106 ) ;
#64 = DIRECTION ( 'NONE',  ( -0.7071067811865566766, 0.0000000000000000000, -0.7071067811865382469 ) ) ;
#65 = CARTESIAN_POINT ( 'NONE',  ( 0.0000000000000000000, 0.0000000000000000000, 1.199999999999999956 ) ) ;
#66 = EDGE_CURVE ( 'NONE', #246, #3, #47, .T. ) ;
#67 = DIRECTION ( 'NONE',  ( 0.7071067811865566766, 8.659560562355046257E-17, -0.7071067811865382469 ) ) ;
#68 = VECTOR ( 'NONE', #260, 39.37007874015748143 ) ;
#69 = AXIS2_PLACEMENT_3D ( 'NONE', #187, #317, #268 ) ;
#70 = CARTESIAN_POINT ( 'NONE',  ( 0.0000000000000000000, 7.654042494670956004E-18, 1.707404996040164512E-17 ) ) ;
#71 = LINE ( 'NONE', #286, #127 ) ;
#72 = CARTESIAN_POINT ( 'NONE',  ( 0.0000000000000000000, 0.0000000000000000000, 0.1999999999999999833 ) ) ;
#73 = AXIS2_PLACEMENT_3D ( 'NONE', #291, #191, #312 ) ;
#74 = EDGE_CURVE ( 'NONE', #140, #80, #71, .T. ) ;
#75 = FILL_AREA_STYLE_COLOUR ( '', #269 ) ;
#76 =( NAMED_UNIT ( * ) SI_UNIT ( $, .STERADIAN. ) SOLID_ANGLE_UNIT ( ) );
#77 = FACE_OUTER_BOUND ( 'NONE', #55, .T. ) ;
#78 = AXIS2_PLACEMENT_3D ( 'NONE', #50, #239, #290 ) ;
#79 = LENGTH_MEASURE_WITH_UNIT ( LENGTH_MEASURE( 0.02539999999999999897 ), #319 );
#80 = VERTEX_POINT ( 'NONE', #149 ) ;
#81 = EDGE_CURVE ( 'NONE', #3, #246, #264, .T. ) ;
#82 = ORIENTED_EDGE ( 'NONE', *, *, #114, .T. ) ;
#83 = DIRECTION ( 'NONE',  ( -1.000000000000000000, 0.0000000000000000000, 0.0000000000000000000 ) ) ;
#84 = EDGE_LOOP ( 'NONE', ( #277, #145, #170, #148, #327 ) ) ;
#85 = AXIS2_PLACEMENT_3D ( 'NONE', #17, #211, #310 ) ;
#86 =( GEOMETRIC_REPRESENTATION_CONTEXT ( 3 ) GLOBAL_UNCERTAINTY_ASSIGNED_CONTEXT ( ( #152 ) ) GLOBAL_UNIT_ASSIGNED_CONTEXT ( ( #326, #32, #8 ) ) REPRESENTATION_CONTEXT ( 'NONE', 'WORKASPACE' ) );
#87 = FACE_OUTER_BOUND ( 'NONE', #201, .T. ) ;
#88 = EDGE_LOOP ( 'NONE', ( #37, #228, #111, #281 ) ) ;
#89 = ORIENTED_EDGE ( 'NONE', *, *, #118, .T. ) ;
#90 = DIRECTION ( 'NONE',  ( 1.000000000000000000, 0.0000000000000000000, 0.0000000000000000000 ) ) ;
#91 = CARTESIAN_POINT ( 'NONE',  ( -0.1100000000000004446, 0.0000000000000000000, 3.000000000000000444 ) ) ;
#92 = DIMENSIONAL_EXPONENTS ( 1.000000000000000000, 0.0000000000000000000, 0.0000000000000000000, 0.0000000000000000000, 0.0000000000000000000, 0.0000000000000000000, 0.0000000000000000000 ) ;
#93 = DIRECTION ( 'NONE',  ( -0.0000000000000000000, -0.0000000000000000000, -1.000000000000000000 ) ) ;
#94 = CARTESIAN_POINT ( 'NONE',  ( 0.0000000000000000000, 0.0000000000000000000, 0.1999999999999999833 ) ) ;
#95 = CARTESIAN_POINT ( 'NONE',  ( -0.1374999999999998168, 1.683889348827608472E-17, 1.549999999999994049 ) ) ;
#96 = PRESENTATION_LAYER_ASSIGNMENT (  '', '', ( #253 ) ) ;
#97 = PRODUCT_DEFINITION_CONTEXT ( 'detailed design', #249, 'design' ) ;
#98 = AXIS2_PLACEMENT_3D ( 'NONE', #12, #173, #90 ) ;
#99 = EDGE_CURVE ( 'NONE', #246, #80, #183, .T. ) ;
#100 = CARTESIAN_POINT ( 'NONE',  ( 0.0000000000000000000, 0.0000000000000000000, 3.000000000000000444 ) ) ;
#101 = DIRECTION ( 'NONE',  ( 0.0000000000000000000, 0.0000000000000000000, -1.000000000000000000 ) ) ;
#102 = CARTESIAN_POINT ( 'NONE',  ( 0.0000000000000000000, 0.0000000000000000000, 0.1250000000000000000 ) ) ;
#103 = ADVANCED_FACE ( 'NONE', ( #233 ), #132, .T. ) ;
#104 = CARTESIAN_POINT ( 'NONE',  ( 0.0000000000000000000, 0.0000000000000000000, 2.985000000000001208 ) ) ;
#105 = AXIS2_PLACEMENT_3D ( 'NONE', #102, #266, #315 ) ;
#106 = DIRECTION ( 'NONE',  ( -1.000000000000000000, 0.0000000000000000000, 0.0000000000000000000 ) ) ;
#107 = EDGE_CURVE ( 'NONE', #172, #80, #325, .T. ) ;
#108 = CARTESIAN_POINT ( 'NONE',  ( 0.09999999999999996392, 1.224646799147352807E-17, 0.0000000000000000000 ) ) ;
#109 = EDGE_LOOP ( 'NONE', ( #182, #301, #255, #6 ) ) ;
#110 = CYLINDRICAL_SURFACE ( 'NONE', #314, 0.1250000000000000000 ) ;
#111 = ORIENTED_EDGE ( 'NONE', *, *, #306, .T. ) ;
#112 = SHAPE_DEFINITION_REPRESENTATION ( #262, #267 ) ;
#113 = ORIENTED_EDGE ( 'NONE', *, *, #99, .T. ) ;
#114 = EDGE_CURVE ( 'NONE', #62, #117, #24, .T. ) ;
#115 = FACE_OUTER_BOUND ( 'NONE', #250, .T. ) ;
#116 = EDGE_LOOP ( 'NONE', ( #164, #333, #192, #33 ) ) ;
#117 = VERTEX_POINT ( 'NONE', #178 ) ;
#118 = EDGE_CURVE ( 'NONE', #4, #197, #283, .T. ) ;
#119 = DIRECTION ( 'NONE',  ( -0.03569153051241254898, 4.370951859869611905E-18, 0.9993628543475495674 ) ) ;
#120 = DIRECTION ( 'NONE',  ( -1.000000000000000000, 0.0000000000000000000, 0.0000000000000000000 ) ) ;
#121 = EDGE_CURVE ( 'NONE', #197, #172, #41, .T. ) ;
#122 = CIRCLE ( 'NONE', #85, 0.1100000000000004446 ) ;
#123 = DIRECTION ( 'NONE',  ( 1.000000000000000000, 0.0000000000000000000, 0.0000000000000000000 ) ) ;
#124 = DIRECTION ( 'NONE',  ( -1.000000000000000000, 0.0000000000000000000, 0.0000000000000000000 ) ) ;
#125 = PRODUCT ( 'Micro_SBM-250-4X', 'Micro_SBM-250-4X', '', ( #141 ) ) ;
#126 = FACE_OUTER_BOUND ( 'NONE', #116, .T. ) ;
#127 = VECTOR ( 'NONE', #11, 39.37007874015748143 ) ;
#128 = VECTOR ( 'NONE', #59, 39.37007874015748143 ) ;
#129 = CARTESIAN_POINT ( 'NONE',  ( -0.09999999999999997780, 0.0000000000000000000, 0.1999999999999999833 ) ) ;
#130 = CARTESIAN_POINT ( 'NONE',  ( 0.1250000000000000000, 1.530808498934191201E-17, 2.985000000000001208 ) ) ;
#131 = CARTESIAN_POINT ( 'NONE',  ( -0.1250000000000000000, 0.0000000000000000000, 2.985000000000001208 ) ) ;
#132 = CONICAL_SURFACE ( 'NONE', #340, 0.1100000000000004446, 0.7853981633974613796 ) ;
#133 = DIRECTION ( 'NONE',  ( 0.0000000000000000000, 0.0000000000000000000, 1.000000000000000000 ) ) ;
#134 = MANIFOLD_SOLID_BREP ( 'Cut-Revolve3', #184 ) ;
#135 = APPLICATION_CONTEXT ( 'automotive_design' ) ;
#136 =( LENGTH_UNIT ( ) NAMED_UNIT ( * ) SI_UNIT ( $, .METRE. ) );
#137 = EDGE_CURVE ( 'NONE', #117, #30, #185, .T. ) ;
#138 = CARTESIAN_POINT ( 'NONE',  ( 0.0000000000000000000, 0.0000000000000000000, 0.0000000000000000000 ) ) ;
#139 = CARTESIAN_POINT ( 'NONE',  ( 0.0000000000000000000, 0.0000000000000000000, 0.1999999999999999833 ) ) ;
#140 = VERTEX_POINT ( 'NONE', #131 ) ;
#141 = PRODUCT_CONTEXT ( 'NONE', #135, 'mechanical' ) ;
#142 = DIRECTION ( 'NONE',  ( -0.0000000000000000000, -0.0000000000000000000, -1.000000000000000000 ) ) ;
#143 = ORIENTED_EDGE ( 'NONE', *, *, #34, .F. ) ;
#144 = CARTESIAN_POINT ( 'NONE',  ( 0.1374999999999998168, 0.0000000000000000000, 1.549999999999994049 ) ) ;
#145 = ORIENTED_EDGE ( 'NONE', *, *, #81, .T. ) ;
#146 = ORIENTED_EDGE ( 'NONE', *, *, #165, .T. ) ;
#147 = EDGE_CURVE ( 'NONE', #279, #62, #167, .T. ) ;
#148 = ORIENTED_EDGE ( 'NONE', *, *, #322, .F. ) ;
#149 = CARTESIAN_POINT ( 'NONE',  ( -0.1250000000000000000, 1.530808498934191509E-17, 1.199999999999999956 ) ) ;
#150 = DIRECTION ( 'NONE',  ( -0.0000000000000000000, -0.0000000000000000000, -1.000000000000000000 ) ) ;
#151 = CARTESIAN_POINT ( 'NONE',  ( 0.1250000000000000000, 1.530808498934191201E-17, 3.000000000000000444 ) ) ;
#152 = UNCERTAINTY_MEASURE_WITH_UNIT (LENGTH_MEASURE( 1.000000000000000082E-05 ), #326, 'distance_accuracy_value', 'NONE');
#153 = CARTESIAN_POINT ( 'NONE',  ( 0.0000000000000000000, 0.0000000000000000000, 0.5000000000000000000 ) ) ;
#154 = SPHERICAL_SURFACE ( 'NONE', #210, 0.1249999999999999861 ) ;
#155 = AXIS2_PLACEMENT_3D ( 'NONE', #139, #242, #220 ) ;
#156 = SURFACE_STYLE_FILL_AREA ( #241 ) ;
#157 = FACE_OUTER_BOUND ( 'NONE', #216, .T. ) ;
#158 = CARTESIAN_POINT ( 'NONE',  ( 0.0000000000000000000, 0.0000000000000000000, 3.000000000000000444 ) ) ;
#159 = CARTESIAN_POINT ( 'NONE',  ( 0.0000000000000000000, 0.0000000000000000000, 1.549999999999994049 ) ) ;
#160 = AXIS2_PLACEMENT_3D ( 'NONE', #72, #48, #19 ) ;
#161 = EDGE_CURVE ( 'NONE', #197, #140, #236, .T. ) ;
#162 = SURFACE_STYLE_USAGE ( .BOTH. , #57 ) ;
#163 = DIRECTION ( 'NONE',  ( 0.0000000000000000000, 1.000000000000000000, 0.0000000000000000000 ) ) ;
#164 = ORIENTED_EDGE ( 'NONE', *, *, #118, .F. ) ;
#165 = EDGE_CURVE ( 'NONE', #30, #1, #244, .T. ) ;
#166 = CIRCLE ( 'NONE', #285, 0.1250000000000000000 ) ;
#167 = CIRCLE ( 'NONE', #160, 0.09999999999999997780 ) ;
#168 = ORIENTED_EDGE ( 'NONE', *, *, #179, .T. ) ;
#169 = PRESENTATION_STYLE_ASSIGNMENT (( #162 ) ) ;
#170 = ORIENTED_EDGE ( 'NONE', *, *, #308, .T. ) ;
#171 = CARTESIAN_POINT ( 'NONE',  ( -0.1100000000000004446, 0.0000000000000000000, 3.000000000000000444 ) ) ;
#172 = VERTEX_POINT ( 'NONE', #316 ) ;
#173 = DIRECTION ( 'NONE',  ( 0.0000000000000000000, 0.0000000000000000000, 1.000000000000000000 ) ) ;
#174 = EDGE_LOOP ( 'NONE', ( #302, #89, #299, #248 ) ) ;
#175 = CIRCLE ( 'NONE', #296, 0.1250000000000000000 ) ;
#176 =( GEOMETRIC_REPRESENTATION_CONTEXT ( 3 ) GLOBAL_UNCERTAINTY_ASSIGNED_CONTEXT ( ( #206 ) ) GLOBAL_UNIT_ASSIGNED_CONTEXT ( ( #328, #61, #36 ) ) REPRESENTATION_CONTEXT ( 'NONE', 'WORKASPACE' ) );
#177 = DIRECTION ( 'NONE',  ( 0.0000000000000000000, 0.0000000000000000000, -1.000000000000000000 ) ) ;
#178 = CARTESIAN_POINT ( 'NONE',  ( 0.09999999999999997780, 1.224646799147352961E-17, 0.1999999999999999833 ) ) ;
#179 = EDGE_CURVE ( 'NONE', #4, #324, #226, .T. ) ;
#180 = CARTESIAN_POINT ( 'NONE',  ( 0.0000000000000000000, 0.0000000000000000000, 0.1250000000000000000 ) ) ;
#181 = AXIS2_PLACEMENT_3D ( 'NONE', #65, #330, #123 ) ;
#182 = ORIENTED_EDGE ( 'NONE', *, *, #165, .F. ) ;
#183 = LINE ( 'NONE', #95, #303 ) ;
#184 = CLOSED_SHELL ( 'NONE', ( #103, #189, #343, #204, #21, #259, #232, #294, #289, #215, #10 ) ) ;
#185 = CIRCLE ( 'NONE', #63, 0.09999999999999997780 ) ;
#186 = DIRECTION ( 'NONE',  ( 0.0000000000000000000, 0.0000000000000000000, 1.000000000000000000 ) ) ;
#187 = CARTESIAN_POINT ( 'NONE',  ( 0.0000000000000000000, 0.0000000000000000000, 3.000000000000000444 ) ) ;
#188 =( NAMED_UNIT ( * ) PLANE_ANGLE_UNIT ( ) SI_UNIT ( $, .RADIAN. ) );
#189 = ADVANCED_FACE ( 'NONE', ( #157 ), #46, .T. ) ;
#190 = MECHANICAL_DESIGN_GEOMETRIC_PRESENTATION_REPRESENTATION (  '', ( #253 ), #56 ) ;
#191 = DIRECTION ( 'NONE',  ( 0.0000000000000000000, 0.0000000000000000000, 1.000000000000000000 ) ) ;
#192 = ORIENTED_EDGE ( 'NONE', *, *, #53, .T. ) ;
#193 = DIRECTION ( 'NONE',  ( -0.0000000000000000000, -0.0000000000000000000, -1.000000000000000000 ) ) ;
#194 = ORIENTED_EDGE ( 'NONE', *, *, #298, .T. ) ;
#195 = FILL_AREA_STYLE ('',( #222 ) ) ;
#196 = VECTOR ( 'NONE', #200, 39.37007874015748143 ) ;
#197 = VERTEX_POINT ( 'NONE', #130 ) ;
#198 = DIRECTION ( 'NONE',  ( -0.0000000000000000000, -0.0000000000000000000, -1.000000000000000000 ) ) ;
#199 = ORIENTED_EDGE ( 'NONE', *, *, #66, .T. ) ;
#200 = DIRECTION ( 'NONE',  ( 0.03569153051241254898, 0.0000000000000000000, 0.9993628543475495674 ) ) ;
#201 = EDGE_LOOP ( 'NONE', ( #199, #194, #227, #321, #219 ) ) ;
#202 = CARTESIAN_POINT ( 'NONE',  ( 0.0000000000000000000, 0.0000000000000000000, 2.985000000000001208 ) ) ;
#203 = DIRECTION ( 'NONE',  ( -1.000000000000000000, 0.0000000000000000000, 0.0000000000000000000 ) ) ;
#204 = ADVANCED_FACE ( 'NONE', ( #77 ), #251, .T. ) ;
#205 = CARTESIAN_POINT ( 'NONE',  ( 1.224646799147353115E-17, -0.09999999999999999167, 0.1999999999999999833 ) ) ;
#206 = UNCERTAINTY_MEASURE_WITH_UNIT (LENGTH_MEASURE( 1.000000000000000082E-05 ), #328, 'distance_accuracy_value', 'NONE');
#207 = CARTESIAN_POINT ( 'NONE',  ( 0.0000000000000000000, 0.0000000000000000000, 0.1999999999999999833 ) ) ;
#208 = COLOUR_RGB ( '',0.7921568627450980005, 0.8196078431372548767, 0.9333333333333333481 ) ;
#209 = AXIS2_PLACEMENT_3D ( 'NONE', #94, #93, #203 ) ;
#210 = AXIS2_PLACEMENT_3D ( 'NONE', #263, #237, #163 ) ;
#211 = DIRECTION ( 'NONE',  ( 0.0000000000000000000, 0.0000000000000000000, 1.000000000000000000 ) ) ;
#212 = FACE_OUTER_BOUND ( 'NONE', #109, .T. ) ;
#213 = VECTOR ( 'NONE', #247, 39.37007874015748143 ) ;
#214 = DIRECTION ( 'NONE',  ( 1.000000000000000000, 0.0000000000000000000, 0.0000000000000000000 ) ) ;
#215 = ADVANCED_FACE ( 'NONE', ( #337 ), #23, .T. ) ;
#216 = EDGE_LOOP ( 'NONE', ( #60, #295, #221, #293 ) ) ;
#217 = LENGTH_MEASURE_WITH_UNIT ( LENGTH_MEASURE( 0.02539999999999999897 ), #136 );
#218 = CYLINDRICAL_SURFACE ( 'NONE', #14, 0.09999999999999996392 ) ;
#219 = ORIENTED_EDGE ( 'NONE', *, *, #308, .F. ) ;
#220 = DIRECTION ( 'NONE',  ( -1.000000000000000000, 0.0000000000000000000, 0.0000000000000000000 ) ) ;
#221 = ORIENTED_EDGE ( 'NONE', *, *, #107, .T. ) ;
#222 = FILL_AREA_STYLE_COLOUR ( '', #208 ) ;
#223 = ORIENTED_EDGE ( 'NONE', *, *, #16, .T. ) ;
#224 = APPLICATION_PROTOCOL_DEFINITION ( 'draft international standard', 'automotive_design', 1998, #249 ) ;
#225 = VECTOR ( 'NONE', #67, 39.37007874015748854 ) ;
#226 = CIRCLE ( 'NONE', #265, 0.1100000000000004446 ) ;
#227 = ORIENTED_EDGE ( 'NONE', *, *, #114, .F. ) ;
#228 = ORIENTED_EDGE ( 'NONE', *, *, #81, .F. ) ;
#229 = CARTESIAN_POINT ( 'NONE',  ( 0.0000000000000000000, 0.0000000000000000000, 3.000000000000000444 ) ) ;
#230 = SPHERICAL_SURFACE ( 'NONE', #28, 0.1249999999999999861 ) ;
#231 = AXIS2_PLACEMENT_3D ( 'NONE', #100, #305, #124 ) ;
#232 = ADVANCED_FACE ( 'NONE', ( #49 ), #304, .T. ) ;
#233 = FACE_OUTER_BOUND ( 'NONE', #174, .T. ) ;
#234 = LINE ( 'NONE', #91, #243 ) ;
#235 = ORIENTED_EDGE ( 'NONE', *, *, #161, .T. ) ;
#236 = CIRCLE ( 'NONE', #270, 0.1250000000000000000 ) ;
#237 = DIRECTION ( 'NONE',  ( 1.000000000000000000, 0.0000000000000000000, 0.0000000000000000000 ) ) ;
#238 = DIMENSIONAL_EXPONENTS ( 1.000000000000000000, 0.0000000000000000000, 0.0000000000000000000, 0.0000000000000000000, 0.0000000000000000000, 0.0000000000000000000, 0.0000000000000000000 ) ;
#239 = DIRECTION ( 'NONE',  ( 0.0000000000000000000, 0.0000000000000000000, 1.000000000000000000 ) ) ;
#240 = CARTESIAN_POINT ( 'NONE',  ( -0.09999999999999996392, 1.377727649040772081E-17, 0.5000000000000000000 ) ) ;
#241 = FILL_AREA_STYLE ('',( #75 ) ) ;
#242 = DIRECTION ( 'NONE',  ( -0.0000000000000000000, -0.0000000000000000000, -1.000000000000000000 ) ) ;
#243 = VECTOR ( 'NONE', #64, 39.37007874015748854 ) ;
#244 = CIRCLE ( 'NONE', #105, 0.1249999999999999861 ) ;
#245 = CYLINDRICAL_SURFACE ( 'NONE', #35, 0.09999999999999996392 ) ;
#246 = VERTEX_POINT ( 'NONE', #240 ) ;
#247 = DIRECTION ( 'NONE',  ( -0.0000000000000000000, -0.0000000000000000000, -1.000000000000000000 ) ) ;
#248 = ORIENTED_EDGE ( 'NONE', *, *, #53, .F. ) ;
#249 = APPLICATION_CONTEXT ( 'automotive_design' ) ;
#250 = EDGE_LOOP ( 'NONE', ( #9, #235, #31, #320 ) ) ;
#251 = CONICAL_SURFACE ( 'NONE', #78, 0.1374999999999998168, 0.03569911267932403265 ) ;
#252 =( LENGTH_UNIT ( ) NAMED_UNIT ( * ) SI_UNIT ( $, .METRE. ) );
#253 = STYLED_ITEM ( 'NONE', ( #271 ), #134 ) ;
#254 = MECHANICAL_DESIGN_GEOMETRIC_PRESENTATION_REPRESENTATION (  '', ( #335 ), #176 ) ;
#255 = ORIENTED_EDGE ( 'NONE', *, *, #147, .T. ) ;
#256 = DIRECTION ( 'NONE',  ( 1.000000000000000000, 0.0000000000000000000, 0.0000000000000000000 ) ) ;
#257 = CARTESIAN_POINT ( 'NONE',  ( 0.0000000000000000000, 0.0000000000000000000, 0.5000000000000000000 ) ) ;
#258 = CARTESIAN_POINT ( 'NONE',  ( 0.1100000000000004446, 1.347111479062094019E-17, 3.000000000000000444 ) ) ;
#259 = ADVANCED_FACE ( 'NONE', ( #212 ), #154, .T. ) ;
#260 = DIRECTION ( 'NONE',  ( -0.0000000000000000000, -0.0000000000000000000, -1.000000000000000000 ) ) ;
#261 = CARTESIAN_POINT ( 'NONE',  ( 0.0000000000000000000, 0.0000000000000000000, 1.199999999999999956 ) ) ;
#262 = PRODUCT_DEFINITION_SHAPE ( 'NONE', 'NONE',  #318 ) ;
#263 = CARTESIAN_POINT ( 'NONE',  ( 0.0000000000000000000, 0.0000000000000000000, 0.1250000000000000000 ) ) ;
#264 = CIRCLE ( 'NONE', #2, 0.09999999999999996392 ) ;
#265 = AXIS2_PLACEMENT_3D ( 'NONE', #158, #186, #288 ) ;
#266 = DIRECTION ( 'NONE',  ( 1.000000000000000000, 1.224646799147353207E-16, -0.0000000000000000000 ) ) ;
#267 = ADVANCED_BREP_SHAPE_REPRESENTATION ( 'Micro_SBM-250-4X', ( #134, #98 ), #86 ) ;
#268 = DIRECTION ( 'NONE',  ( -1.000000000000000000, 0.0000000000000000000, 0.0000000000000000000 ) ) ;
#269 = COLOUR_RGB ( '',0.7921568627450980005, 0.8196078431372548767, 0.9333333333333333481 ) ;
#270 = AXIS2_PLACEMENT_3D ( 'NONE', #104, #101, #214 ) ;
#271 = PRESENTATION_STYLE_ASSIGNMENT (( #336 ) ) ;
#272 = DIRECTION ( 'NONE',  ( -1.000000000000000000, 0.0000000000000000000, 0.0000000000000000000 ) ) ;
#273 = ORIENTED_EDGE ( 'NONE', *, *, #137, .T. ) ;
#274 = CONICAL_SURFACE ( 'NONE', #231, 0.1100000000000004446, 0.7853981633974613796 ) ;
#275 = PRESENTATION_LAYER_ASSIGNMENT (  '', '', ( #335 ) ) ;
#276 = APPLICATION_PROTOCOL_DEFINITION ( 'draft international standard', 'automotive_design', 1998, #135 ) ;
#277 = ORIENTED_EDGE ( 'NONE', *, *, #298, .F. ) ;
#278 = ORIENTED_EDGE ( 'NONE', *, *, #306, .F. ) ;
#279 = VERTEX_POINT ( 'NONE', #129 ) ;
#280 = AXIS2_PLACEMENT_3D ( 'NONE', #153, #282, #284 ) ;
#281 = ORIENTED_EDGE ( 'NONE', *, *, #39, .F. ) ;
#282 = DIRECTION ( 'NONE',  ( -0.0000000000000000000, -0.0000000000000000000, -1.000000000000000000 ) ) ;
#283 = LINE ( 'NONE', #258, #225 ) ;
#284 = DIRECTION ( 'NONE',  ( -1.000000000000000000, 0.0000000000000000000, 0.0000000000000000000 ) ) ;
#285 = AXIS2_PLACEMENT_3D ( 'NONE', #202, #177, #43 ) ;
#286 = CARTESIAN_POINT ( 'NONE',  ( -0.1250000000000000000, 0.0000000000000000000, 3.000000000000000444 ) ) ;
#287 = DIRECTION ( 'NONE',  ( 0.0000000000000000000, 0.0000000000000000000, -1.000000000000000000 ) ) ;
#288 = DIRECTION ( 'NONE',  ( 1.000000000000000000, 0.0000000000000000000, 0.0000000000000000000 ) ) ;
#289 = ADVANCED_FACE ( 'NONE', ( #115 ), #110, .T. ) ;
#290 = DIRECTION ( 'NONE',  ( 1.000000000000000000, 0.0000000000000000000, 0.0000000000000000000 ) ) ;
#291 = CARTESIAN_POINT ( 'NONE',  ( 0.0000000000000000000, 0.0000000000000000000, 3.000000000000000444 ) ) ;
#292 = DIRECTION ( 'NONE',  ( 1.000000000000000000, 0.0000000000000000000, 0.0000000000000000000 ) ) ;
#293 = ORIENTED_EDGE ( 'NONE', *, *, #74, .F. ) ;
#294 = ADVANCED_FACE ( 'NONE', ( #300 ), #218, .T. ) ;
#295 = ORIENTED_EDGE ( 'NONE', *, *, #121, .T. ) ;
#296 = AXIS2_PLACEMENT_3D ( 'NONE', #261, #15, #256 ) ;
#297 = SURFACE_STYLE_FILL_AREA ( #195 ) ;
#298 = EDGE_CURVE ( 'NONE', #3, #117, #51, .T. ) ;
#299 = ORIENTED_EDGE ( 'NONE', *, *, #44, .F. ) ;
#300 = FACE_OUTER_BOUND ( 'NONE', #84, .T. ) ;
#301 = ORIENTED_EDGE ( 'NONE', *, *, #322, .T. ) ;
#302 = ORIENTED_EDGE ( 'NONE', *, *, #179, .F. ) ;
#303 = VECTOR ( 'NONE', #119, 39.37007874015748143 ) ;
#304 = CONICAL_SURFACE ( 'NONE', #341, 0.1374999999999998168, 0.03569911267932403265 ) ;
#305 = DIRECTION ( 'NONE',  ( 0.0000000000000000000, 0.0000000000000000000, -1.000000000000000000 ) ) ;
#306 = EDGE_CURVE ( 'NONE', #3, #172, #54, .T. ) ;
#307 = DIRECTION ( 'NONE',  ( 0.0000000000000000000, 1.000000000000000000, 0.0000000000000000000 ) ) ;
#308 = EDGE_CURVE ( 'NONE', #246, #279, #25, .T. ) ;
#309 = CARTESIAN_POINT ( 'NONE',  ( 0.09999999999999996392, 0.0000000000000000000, 0.5000000000000000000 ) ) ;
#310 = DIRECTION ( 'NONE',  ( 1.000000000000000000, 0.0000000000000000000, 0.0000000000000000000 ) ) ;
#311 = CARTESIAN_POINT ( 'NONE',  ( 0.0000000000000000000, 0.09999999999999999167, 0.1999999999999999833 ) ) ;
#312 = DIRECTION ( 'NONE',  ( 1.000000000000000000, 0.0000000000000000000, -0.0000000000000000000 ) ) ;
#313 = AXIS2_PLACEMENT_3D ( 'NONE', #180, #38, #331 ) ;
#314 = AXIS2_PLACEMENT_3D ( 'NONE', #29, #142, #345 ) ;
#315 = DIRECTION ( 'NONE',  ( -1.224646799147353207E-16, 1.000000000000000000, 0.0000000000000000000 ) ) ;
#316 = CARTESIAN_POINT ( 'NONE',  ( 0.1250000000000000000, 0.0000000000000000000, 1.199999999999999956 ) ) ;
#317 = DIRECTION ( 'NONE',  ( -0.0000000000000000000, -0.0000000000000000000, -1.000000000000000000 ) ) ;
#318 = PRODUCT_DEFINITION ( 'UNKNOWN', '', #20, #97 ) ;
#319 =( LENGTH_UNIT ( ) NAMED_UNIT ( * ) SI_UNIT ( $, .METRE. ) );
#320 = ORIENTED_EDGE ( 'NONE', *, *, #39, .T. ) ;
#321 = ORIENTED_EDGE ( 'NONE', *, *, #147, .F. ) ;
#322 = EDGE_CURVE ( 'NONE', #30, #279, #7, .T. ) ;
#323 = CARTESIAN_POINT ( 'NONE',  ( -0.09999999999999996392, 0.0000000000000000000, 0.0000000000000000000 ) ) ;
#324 = VERTEX_POINT ( 'NONE', #171 ) ;
#325 = CIRCLE ( 'NONE', #181, 0.1250000000000000000 ) ;
#326 =( CONVERSION_BASED_UNIT ( 'INCH', #79 ) LENGTH_UNIT ( ) NAMED_UNIT ( #92 ) );
#327 = ORIENTED_EDGE ( 'NONE', *, *, #137, .F. ) ;
#328 =( CONVERSION_BASED_UNIT ( 'INCH', #5 ) LENGTH_UNIT ( ) NAMED_UNIT ( #238 ) );
#329 = ORIENTED_EDGE ( 'NONE', *, *, #107, .F. ) ;
#330 = DIRECTION ( 'NONE',  ( 0.0000000000000000000, 0.0000000000000000000, 1.000000000000000000 ) ) ;
#331 = DIRECTION ( 'NONE',  ( 0.0000000000000000000, 0.0000000000000000000, 1.000000000000000000 ) ) ;
#332 = DIRECTION ( 'NONE',  ( 1.000000000000000000, 0.0000000000000000000, 0.0000000000000000000 ) ) ;
#333 = ORIENTED_EDGE ( 'NONE', *, *, #16, .F. ) ;
#334 = CIRCLE ( 'NONE', #313, 0.1250000000000000000 ) ;
#335 = STYLED_ITEM ( 'NONE', ( #169 ), #267 ) ;
#336 = SURFACE_STYLE_USAGE ( .BOTH. , #22 ) ;
#337 = FACE_OUTER_BOUND ( 'NONE', #27, .T. ) ;
#338 = PRODUCT_RELATED_PRODUCT_CATEGORY ( 'part', '', ( #125 ) ) ;
#339 = DIRECTION ( 'NONE',  ( -0.0000000000000000000, -0.0000000000000000000, -1.000000000000000000 ) ) ;
#340 = AXIS2_PLACEMENT_3D ( 'NONE', #229, #287, #120 ) ;
#341 = AXIS2_PLACEMENT_3D ( 'NONE', #159, #133, #292 ) ;
#342 = DIMENSIONAL_EXPONENTS ( 1.000000000000000000, 0.0000000000000000000, 0.0000000000000000000, 0.0000000000000000000, 0.0000000000000000000, 0.0000000000000000000, 0.0000000000000000000 ) ;
#343 = ADVANCED_FACE ( 'NONE', ( #87 ), #245, .T. ) ;
#344 =( CONVERSION_BASED_UNIT ( 'INCH', #217 ) LENGTH_UNIT ( ) NAMED_UNIT ( #342 ) );
#345 = DIRECTION ( 'NONE',  ( -1.000000000000000000, 0.0000000000000000000, 0.0000000000000000000 ) ) ;
ENDSEC;
END-ISO-10303-21;
