ISO-10303-21;
HEADER;
FILE_DESCRIPTION (( 'STEP AP214' ),
    '1' );
FILE_NAME ('Micro_RSCM-100-1X.STEP',
    '2021-09-03T18:00:29',
    ( '' ),
    ( '' ),
    'SwSTEP 2.0',
    'SolidWorks 2020',
    '' );
FILE_SCHEMA (( 'AUTOMOTIVE_DESIGN' ));
ENDSEC;

DATA;
#1 = PRODUCT_RELATED_PRODUCT_CATEGORY ( 'part', '', ( #100 ) ) ;
#2 = AXIS2_PLACEMENT_3D ( 'NONE', #127, #206, #113 ) ;
#3 = SURFACE_STYLE_FILL_AREA ( #47 ) ;
#4 = DIRECTION ( 'NONE',  ( 1.000000000000000000, 0.0000000000000000000, 0.0000000000000000000 ) ) ;
#5 = DIRECTION ( 'NONE',  ( 1.000000000000000000, 0.0000000000000000000, -0.0000000000000000000 ) ) ;
#6 = AXIS2_PLACEMENT_3D ( 'NONE', #133, #234, #49 ) ;
#7 = CIRCLE ( 'NONE', #171, 0.003936999999999995191 ) ;
#8 = LINE ( 'NONE', #71, #135 ) ;
#9 = APPLICATION_CONTEXT ( 'automotive_design' ) ;
#10 = AXIS2_PLACEMENT_3D ( 'NONE', #14, #239, #222 ) ;
#11 = PLANE ( 'NONE',  #57 ) ;
#12 = ORIENTED_EDGE ( 'NONE', *, *, #16, .T. ) ;
#13 = DIRECTION ( 'NONE',  ( 0.0000000000000000000, 0.0000000000000000000, -1.000000000000000000 ) ) ;
#14 = CARTESIAN_POINT ( 'NONE',  ( 0.0000000000000000000, 0.0000000000000000000, 0.0000000000000000000 ) ) ;
#15 = VERTEX_POINT ( 'NONE', #92 ) ;
#16 = EDGE_CURVE ( 'NONE', #15, #161, #128, .T. ) ;
#17 = EDGE_LOOP ( 'NONE', ( #200, #106 ) ) ;
#18 =( NAMED_UNIT ( * ) SI_UNIT ( $, .STERADIAN. ) SOLID_ANGLE_UNIT ( ) );
#19 = ORIENTED_EDGE ( 'NONE', *, *, #156, .T. ) ;
#20 =( GEOMETRIC_REPRESENTATION_CONTEXT ( 3 ) GLOBAL_UNCERTAINTY_ASSIGNED_CONTEXT ( ( #146 ) ) GLOBAL_UNIT_ASSIGNED_CONTEXT ( ( #93, #45, #18 ) ) REPRESENTATION_CONTEXT ( 'NONE', 'WORKASPACE' ) );
#21 = CARTESIAN_POINT ( 'NONE',  ( 0.1818505000000002481, 2.227026327483460228E-17, 2.834646000000000665 ) ) ;
#22 = CARTESIAN_POINT ( 'NONE',  ( -0.1968504999999999838, 0.0000000000000000000, 2.834646000000000665 ) ) ;
#23 = VECTOR ( 'NONE', #213, 39.37007874015748854 ) ;
#24 = DIRECTION ( 'NONE',  ( -1.000000000000000000, 0.0000000000000000000, 0.0000000000000000000 ) ) ;
#25 = ADVANCED_FACE ( 'NONE', ( #221 ), #148, .T. ) ;
#26 = FACE_OUTER_BOUND ( 'NONE', #237, .T. ) ;
#27 = MANIFOLD_SOLID_BREP ( 'Cut-Revolve1', #174 ) ;
#28 = PRODUCT_DEFINITION_FORMATION_WITH_SPECIFIED_SOURCE ( 'ANY', '', #100, .NOT_KNOWN. ) ;
#29 = CARTESIAN_POINT ( 'NONE',  ( -0.1968504999999999838, 0.0000000000000000000, 2.819646000000000097 ) ) ;
#30 = VECTOR ( 'NONE', #167, 39.37007874015748854 ) ;
#31 = EDGE_CURVE ( 'NONE', #161, #15, #94, .T. ) ;
#32 = DIRECTION ( 'NONE',  ( 0.0000000000000000000, 0.0000000000000000000, -1.000000000000000000 ) ) ;
#33 = VERTEX_POINT ( 'NONE', #180 ) ;
#34 = VERTEX_POINT ( 'NONE', #58 ) ;
#35 = ADVANCED_FACE ( 'NONE', ( #83 ), #107, .T. ) ;
#36 = CONICAL_SURFACE ( 'NONE', #139, 0.003936999999999995191, 0.5235987755983005920 ) ;
#37 = AXIS2_PLACEMENT_3D ( 'NONE', #104, #123, #181 ) ;
#38 = ORIENTED_EDGE ( 'NONE', *, *, #188, .T. ) ;
#39 =( NAMED_UNIT ( * ) SI_UNIT ( $, .STERADIAN. ) SOLID_ANGLE_UNIT ( ) );
#40 = SURFACE_STYLE_USAGE ( .BOTH. , #169 ) ;
#41 =( NAMED_UNIT ( * ) SI_UNIT ( $, .STERADIAN. ) SOLID_ANGLE_UNIT ( ) );
#42 = VECTOR ( 'NONE', #51, 39.37007874015748854 ) ;
#43 = COLOUR_RGB ( '',0.7921568627450980005, 0.8196078431372548767, 0.9333333333333333481 ) ;
#44 = SHAPE_DEFINITION_REPRESENTATION ( #97, #195 ) ;
#45 =( NAMED_UNIT ( * ) PLANE_ANGLE_UNIT ( ) SI_UNIT ( $, .RADIAN. ) );
#46 = CARTESIAN_POINT ( 'NONE',  ( -0.1818505000000002481, 0.0000000000000000000, 2.834646000000000665 ) ) ;
#47 = FILL_AREA_STYLE ('',( #62 ) ) ;
#48 = EDGE_CURVE ( 'NONE', #246, #203, #183, .T. ) ;
#49 = DIRECTION ( 'NONE',  ( -1.000000000000000000, 0.0000000000000000000, 0.0000000000000000000 ) ) ;
#50 = PRESENTATION_LAYER_ASSIGNMENT (  '', '', ( #232 ) ) ;
#51 = DIRECTION ( 'NONE',  ( -0.7071067811865354713, 0.0000000000000000000, -0.7071067811865594521 ) ) ;
#52 = CIRCLE ( 'NONE', #131, 0.1818505000000002481 ) ;
#53 = EDGE_CURVE ( 'NONE', #34, #203, #189, .T. ) ;
#54 = VERTEX_POINT ( 'NONE', #168 ) ;
#55 = ORIENTED_EDGE ( 'NONE', *, *, #156, .F. ) ;
#56 = ORIENTED_EDGE ( 'NONE', *, *, #243, .F. ) ;
#57 = AXIS2_PLACEMENT_3D ( 'NONE', #194, #64, #227 ) ;
#58 = CARTESIAN_POINT ( 'NONE',  ( 0.1968504999999999838, 2.410723347355560646E-17, 0.3341359834659373140 ) ) ;
#59 = ADVANCED_FACE ( 'NONE', ( #248 ), #80, .T. ) ;
#60 = DIMENSIONAL_EXPONENTS ( 1.000000000000000000, 0.0000000000000000000, 0.0000000000000000000, 0.0000000000000000000, 0.0000000000000000000, 0.0000000000000000000, 0.0000000000000000000 ) ;
#61 = LINE ( 'NONE', #46, #42 ) ;
#62 = FILL_AREA_STYLE_COLOUR ( '', #215 ) ;
#63 = ADVANCED_FACE ( 'NONE', ( #101 ), #11, .F. ) ;
#64 = DIRECTION ( 'NONE',  ( 0.0000000000000000000, 0.0000000000000000000, 1.000000000000000000 ) ) ;
#65 = CARTESIAN_POINT ( 'NONE',  ( 0.0000000000000000000, 0.0000000000000000000, 2.834646000000000665 ) ) ;
#66 = STYLED_ITEM ( 'NONE', ( #242 ), #27 ) ;
#67 = CONICAL_SURFACE ( 'NONE', #82, 0.1818505000000002481, 0.7853981633974312926 ) ;
#68 = CARTESIAN_POINT ( 'NONE',  ( 0.0000000000000000000, 0.0000000000000000000, 0.3341359834659373140 ) ) ;
#69 = ORIENTED_EDGE ( 'NONE', *, *, #188, .F. ) ;
#70 = VECTOR ( 'NONE', #81, 39.37007874015748143 ) ;
#71 = CARTESIAN_POINT ( 'NONE',  ( 0.1968504999999999838, 2.410723347355560646E-17, 2.834646000000000665 ) ) ;
#72 = ORIENTED_EDGE ( 'NONE', *, *, #223, .F. ) ;
#73 = ORIENTED_EDGE ( 'NONE', *, *, #243, .T. ) ;
#74 = CARTESIAN_POINT ( 'NONE',  ( 0.0000000000000000000, 0.0000000000000000000, 2.834646000000000665 ) ) ;
#75 = AXIS2_PLACEMENT_3D ( 'NONE', #65, #134, #5 ) ;
#76 = DIRECTION ( 'NONE',  ( 1.000000000000000000, 0.0000000000000000000, 0.0000000000000000000 ) ) ;
#77 = AXIS2_PLACEMENT_3D ( 'NONE', #152, #224, #112 ) ;
#78 = APPLICATION_PROTOCOL_DEFINITION ( 'draft international standard', 'automotive_design', 1998, #173 ) ;
#79 = DIRECTION ( 'NONE',  ( 1.000000000000000000, 0.0000000000000000000, 0.0000000000000000000 ) ) ;
#80 = CYLINDRICAL_SURFACE ( 'NONE', #236, 0.1968504999999999838 ) ;
#81 = DIRECTION ( 'NONE',  ( -0.0000000000000000000, -0.0000000000000000000, -1.000000000000000000 ) ) ;
#82 = AXIS2_PLACEMENT_3D ( 'NONE', #74, #214, #137 ) ;
#83 = FACE_OUTER_BOUND ( 'NONE', #178, .T. ) ;
#84 = ORIENTED_EDGE ( 'NONE', *, *, #31, .F. ) ;
#85 = ADVANCED_FACE ( 'NONE', ( #26 ), #136, .T. ) ;
#86 = MECHANICAL_DESIGN_GEOMETRIC_PRESENTATION_REPRESENTATION (  '', ( #232 ), #20 ) ;
#87 = ORIENTED_EDGE ( 'NONE', *, *, #235, .F. ) ;
#88 = FACE_OUTER_BOUND ( 'NONE', #115, .T. ) ;
#89 = EDGE_LOOP ( 'NONE', ( #87, #184, #38, #55 ) ) ;
#90 = UNCERTAINTY_MEASURE_WITH_UNIT (LENGTH_MEASURE( 1.000000000000000082E-05 ), #130, 'distance_accuracy_value', 'NONE');
#91 = DIRECTION ( 'NONE',  ( 0.0000000000000000000, 0.0000000000000000000, 1.000000000000000000 ) ) ;
#92 = CARTESIAN_POINT ( 'NONE',  ( 0.1968504999999999838, 2.410723347355560646E-17, 2.819646000000000097 ) ) ;
#93 =( CONVERSION_BASED_UNIT ( 'INCH', #109 ) LENGTH_UNIT ( ) NAMED_UNIT ( #196 ) );
#94 = CIRCLE ( 'NONE', #102, 0.1968504999999999838 ) ;
#95 = CARTESIAN_POINT ( 'NONE',  ( 0.0000000000000000000, 0.0000000000000000000, 2.819646000000000097 ) ) ;
#96 = AXIS2_PLACEMENT_3D ( 'NONE', #209, #91, #76 ) ;
#97 = PRODUCT_DEFINITION_SHAPE ( 'NONE', 'NONE',  #175 ) ;
#98 = LINE ( 'NONE', #212, #23 ) ;
#99 = ADVANCED_FACE ( 'NONE', ( #119 ), #36, .T. ) ;
#100 = PRODUCT ( 'Micro_RSCM-100-1X', 'Micro_RSCM-100-1X', '', ( #149 ) ) ;
#101 = FACE_OUTER_BOUND ( 'NONE', #163, .T. ) ;
#102 = AXIS2_PLACEMENT_3D ( 'NONE', #95, #32, #105 ) ;
#103 = ORIENTED_EDGE ( 'NONE', *, *, #53, .F. ) ;
#104 = CARTESIAN_POINT ( 'NONE',  ( 0.0000000000000000000, 0.0000000000000000000, 0.0000000000000000000 ) ) ;
#105 = DIRECTION ( 'NONE',  ( 1.000000000000000000, 0.0000000000000000000, 0.0000000000000000000 ) ) ;
#106 = ORIENTED_EDGE ( 'NONE', *, *, #223, .T. ) ;
#107 = CYLINDRICAL_SURFACE ( 'NONE', #2, 0.1968504999999999838 ) ;
#108 = ORIENTED_EDGE ( 'NONE', *, *, #231, .F. ) ;
#109 = LENGTH_MEASURE_WITH_UNIT ( LENGTH_MEASURE( 0.02539999999999999897 ), #143 );
#110 =( GEOMETRIC_REPRESENTATION_CONTEXT ( 3 ) GLOBAL_UNCERTAINTY_ASSIGNED_CONTEXT ( ( #166 ) ) GLOBAL_UNIT_ASSIGNED_CONTEXT ( ( #144, #125, #39 ) ) REPRESENTATION_CONTEXT ( 'NONE', 'WORKASPACE' ) );
#111 = DIRECTION ( 'NONE',  ( -0.0000000000000000000, -0.0000000000000000000, -1.000000000000000000 ) ) ;
#112 = DIRECTION ( 'NONE',  ( 1.000000000000000000, 0.0000000000000000000, 0.0000000000000000000 ) ) ;
#113 = DIRECTION ( 'NONE',  ( -1.000000000000000000, 0.0000000000000000000, 0.0000000000000000000 ) ) ;
#114 = ORIENTED_EDGE ( 'NONE', *, *, #235, .T. ) ;
#115 = EDGE_LOOP ( 'NONE', ( #162, #108, #124, #145 ) ) ;
#116 = LINE ( 'NONE', #21, #30 ) ;
#117 = MECHANICAL_DESIGN_GEOMETRIC_PRESENTATION_REPRESENTATION (  '', ( #66 ), #110 ) ;
#118 = CIRCLE ( 'NONE', #37, 0.003936999999999995191 ) ;
#119 = FACE_OUTER_BOUND ( 'NONE', #89, .T. ) ;
#120 = AXIS2_PLACEMENT_3D ( 'NONE', #179, #13, #138 ) ;
#121 = EDGE_CURVE ( 'NONE', #54, #161, #61, .T. ) ;
#122 = EDGE_CURVE ( 'NONE', #161, #203, #193, .T. ) ;
#123 = DIRECTION ( 'NONE',  ( -0.0000000000000000000, -0.0000000000000000000, -1.000000000000000000 ) ) ;
#124 = ORIENTED_EDGE ( 'NONE', *, *, #121, .T. ) ;
#125 =( NAMED_UNIT ( * ) PLANE_ANGLE_UNIT ( ) SI_UNIT ( $, .RADIAN. ) );
#126 = ORIENTED_EDGE ( 'NONE', *, *, #48, .F. ) ;
#127 = CARTESIAN_POINT ( 'NONE',  ( 0.0000000000000000000, 0.0000000000000000000, 2.834646000000000665 ) ) ;
#128 = CIRCLE ( 'NONE', #120, 0.1968504999999999838 ) ;
#129 = CARTESIAN_POINT ( 'NONE',  ( 0.1818505000000002481, 2.318874837419510283E-17, 2.834646000000000665 ) ) ;
#130 =( CONVERSION_BASED_UNIT ( 'INCH', #150 ) LENGTH_UNIT ( ) NAMED_UNIT ( #60 ) );
#131 = AXIS2_PLACEMENT_3D ( 'NONE', #154, #226, #79 ) ;
#132 = DIRECTION ( 'NONE',  ( -1.000000000000000000, 0.0000000000000000000, 0.0000000000000000000 ) ) ;
#133 = CARTESIAN_POINT ( 'NONE',  ( 0.0000000000000000000, 0.0000000000000000000, 2.834646000000000665 ) ) ;
#134 = DIRECTION ( 'NONE',  ( 0.0000000000000000000, 0.0000000000000000000, 1.000000000000000000 ) ) ;
#135 = VECTOR ( 'NONE', #111, 39.37007874015748143 ) ;
#136 = CONICAL_SURFACE ( 'NONE', #6, 0.1818505000000002481, 0.7853981633974312926 ) ;
#137 = DIRECTION ( 'NONE',  ( -1.000000000000000000, 0.0000000000000000000, 0.0000000000000000000 ) ) ;
#138 = DIRECTION ( 'NONE',  ( 1.000000000000000000, 0.0000000000000000000, 0.0000000000000000000 ) ) ;
#139 = AXIS2_PLACEMENT_3D ( 'NONE', #172, #155, #4 ) ;
#140 = DIRECTION ( 'NONE',  ( -0.0000000000000000000, -0.0000000000000000000, -1.000000000000000000 ) ) ;
#141 = LENGTH_MEASURE_WITH_UNIT ( LENGTH_MEASURE( 0.02539999999999999897 ), #217 );
#142 = ORIENTED_EDGE ( 'NONE', *, *, #31, .T. ) ;
#143 =( LENGTH_UNIT ( ) NAMED_UNIT ( * ) SI_UNIT ( $, .METRE. ) );
#144 =( CONVERSION_BASED_UNIT ( 'INCH', #141 ) LENGTH_UNIT ( ) NAMED_UNIT ( #170 ) );
#145 = ORIENTED_EDGE ( 'NONE', *, *, #16, .F. ) ;
#146 = UNCERTAINTY_MEASURE_WITH_UNIT (LENGTH_MEASURE( 1.000000000000000082E-05 ), #93, 'distance_accuracy_value', 'NONE');
#147 = FILL_AREA_STYLE ('',( #185 ) ) ;
#148 = CONICAL_SURFACE ( 'NONE', #10, 0.003936999999999995191, 0.5235987755983005920 ) ;
#149 = PRODUCT_CONTEXT ( 'NONE', #9, 'mechanical' ) ;
#150 = LENGTH_MEASURE_WITH_UNIT ( LENGTH_MEASURE( 0.02539999999999999897 ), #240 );
#151 = CARTESIAN_POINT ( 'NONE',  ( -0.1968504999999999838, 0.0000000000000000000, 0.3341359834659373140 ) ) ;
#152 = CARTESIAN_POINT ( 'NONE',  ( 0.0000000000000000000, 0.0000000000000000000, 2.834646000000000665 ) ) ;
#153 = CARTESIAN_POINT ( 'NONE',  ( 0.0000000000000000000, 0.0000000000000000000, 2.834646000000000665 ) ) ;
#154 = CARTESIAN_POINT ( 'NONE',  ( 0.0000000000000000000, 0.0000000000000000000, 2.834646000000000665 ) ) ;
#155 = DIRECTION ( 'NONE',  ( 0.0000000000000000000, 0.0000000000000000000, 1.000000000000000000 ) ) ;
#156 = EDGE_CURVE ( 'NONE', #33, #34, #98, .T. ) ;
#157 = FACE_OUTER_BOUND ( 'NONE', #17, .T. ) ;
#158 = VECTOR ( 'NONE', #186, 39.37007874015748854 ) ;
#159 = ORIENTED_EDGE ( 'NONE', *, *, #192, .F. ) ;
#160 = ADVANCED_FACE ( 'NONE', ( #157 ), #230, .T. ) ;
#161 = VERTEX_POINT ( 'NONE', #29 ) ;
#162 = ORIENTED_EDGE ( 'NONE', *, *, #208, .F. ) ;
#163 = EDGE_LOOP ( 'NONE', ( #73, #114 ) ) ;
#164 = ORIENTED_EDGE ( 'NONE', *, *, #122, .T. ) ;
#165 = ORIENTED_EDGE ( 'NONE', *, *, #122, .F. ) ;
#166 = UNCERTAINTY_MEASURE_WITH_UNIT (LENGTH_MEASURE( 1.000000000000000082E-05 ), #144, 'distance_accuracy_value', 'NONE');
#167 = DIRECTION ( 'NONE',  ( 0.7071067811865354713, 8.659560562354783714E-17, -0.7071067811865594521 ) ) ;
#168 = CARTESIAN_POINT ( 'NONE',  ( -0.1818505000000002481, 0.0000000000000000000, 2.834646000000000665 ) ) ;
#169 = SURFACE_SIDE_STYLE ('',( #207 ) ) ;
#170 = DIMENSIONAL_EXPONENTS ( 1.000000000000000000, 0.0000000000000000000, 0.0000000000000000000, 0.0000000000000000000, 0.0000000000000000000, 0.0000000000000000000, 0.0000000000000000000 ) ;
#171 = AXIS2_PLACEMENT_3D ( 'NONE', #216, #140, #219 ) ;
#172 = CARTESIAN_POINT ( 'NONE',  ( 0.0000000000000000000, 0.0000000000000000000, 0.0000000000000000000 ) ) ;
#173 = APPLICATION_CONTEXT ( 'automotive_design' ) ;
#174 = CLOSED_SHELL ( 'NONE', ( #99, #85, #35, #59, #160, #233, #25, #63 ) ) ;
#175 = PRODUCT_DEFINITION ( 'UNKNOWN', '', #28, #229 ) ;
#176 = CARTESIAN_POINT ( 'NONE',  ( 0.0000000000000000000, 0.0000000000000000000, 0.3341359834659373140 ) ) ;
#177 = CARTESIAN_POINT ( 'NONE',  ( -0.003936999999999995191, 4.821434448243123477E-19, 0.0000000000000000000 ) ) ;
#178 = EDGE_LOOP ( 'NONE', ( #142, #244, #69, #165 ) ) ;
#179 = CARTESIAN_POINT ( 'NONE',  ( 0.0000000000000000000, 0.0000000000000000000, 2.819646000000000097 ) ) ;
#180 = CARTESIAN_POINT ( 'NONE',  ( 0.003936999999999995191, 0.0000000000000000000, 0.0000000000000000000 ) ) ;
#181 = DIRECTION ( 'NONE',  ( -1.000000000000000000, 0.0000000000000000000, 0.0000000000000000000 ) ) ;
#182 = ORIENTED_EDGE ( 'NONE', *, *, #121, .F. ) ;
#183 = LINE ( 'NONE', #177, #158 ) ;
#184 = ORIENTED_EDGE ( 'NONE', *, *, #48, .T. ) ;
#185 = FILL_AREA_STYLE_COLOUR ( '', #43 ) ;
#186 = DIRECTION ( 'NONE',  ( -0.5000000000000013323, 6.123233995736782060E-17, 0.8660254037844377084 ) ) ;
#187 = ORIENTED_EDGE ( 'NONE', *, *, #208, .T. ) ;
#188 = EDGE_CURVE ( 'NONE', #203, #34, #211, .T. ) ;
#189 = CIRCLE ( 'NONE', #245, 0.1968504999999999838 ) ;
#190 = CIRCLE ( 'NONE', #77, 0.1818505000000002481 ) ;
#191 = DIRECTION ( 'NONE',  ( -1.000000000000000000, 0.0000000000000000000, 0.0000000000000000000 ) ) ;
#192 = EDGE_CURVE ( 'NONE', #15, #34, #8, .T. ) ;
#193 = LINE ( 'NONE', #22, #70 ) ;
#194 = CARTESIAN_POINT ( 'NONE',  ( 0.0000000000000000000, 0.0000000000000000000, 0.0000000000000000000 ) ) ;
#195 = ADVANCED_BREP_SHAPE_REPRESENTATION ( 'Micro_RSCM-100-1X', ( #27, #96 ), #197 ) ;
#196 = DIMENSIONAL_EXPONENTS ( 1.000000000000000000, 0.0000000000000000000, 0.0000000000000000000, 0.0000000000000000000, 0.0000000000000000000, 0.0000000000000000000, 0.0000000000000000000 ) ;
#197 =( GEOMETRIC_REPRESENTATION_CONTEXT ( 3 ) GLOBAL_UNCERTAINTY_ASSIGNED_CONTEXT ( ( #90 ) ) GLOBAL_UNIT_ASSIGNED_CONTEXT ( ( #130, #210, #41 ) ) REPRESENTATION_CONTEXT ( 'NONE', 'WORKASPACE' ) );
#198 = SURFACE_STYLE_USAGE ( .BOTH. , #228 ) ;
#199 = ORIENTED_EDGE ( 'NONE', *, *, #53, .T. ) ;
#200 = ORIENTED_EDGE ( 'NONE', *, *, #231, .T. ) ;
#201 = CARTESIAN_POINT ( 'NONE',  ( -0.003936999999999995191, 1.229468845918995738E-17, 0.0000000000000000000 ) ) ;
#202 = VERTEX_POINT ( 'NONE', #129 ) ;
#203 = VERTEX_POINT ( 'NONE', #151 ) ;
#204 = APPLICATION_PROTOCOL_DEFINITION ( 'draft international standard', 'automotive_design', 1998, #9 ) ;
#205 = DIRECTION ( 'NONE',  ( -0.0000000000000000000, -0.0000000000000000000, -1.000000000000000000 ) ) ;
#206 = DIRECTION ( 'NONE',  ( -0.0000000000000000000, -0.0000000000000000000, -1.000000000000000000 ) ) ;
#207 = SURFACE_STYLE_FILL_AREA ( #147 ) ;
#208 = EDGE_CURVE ( 'NONE', #202, #15, #116, .T. ) ;
#209 = CARTESIAN_POINT ( 'NONE',  ( 0.0000000000000000000, 0.0000000000000000000, 0.0000000000000000000 ) ) ;
#210 =( NAMED_UNIT ( * ) PLANE_ANGLE_UNIT ( ) SI_UNIT ( $, .RADIAN. ) );
#211 = CIRCLE ( 'NONE', #238, 0.1968504999999999838 ) ;
#212 = CARTESIAN_POINT ( 'NONE',  ( 0.003936999999999995191, 0.0000000000000000000, 0.0000000000000000000 ) ) ;
#213 = DIRECTION ( 'NONE',  ( 0.5000000000000013323, 0.0000000000000000000, 0.8660254037844377084 ) ) ;
#214 = DIRECTION ( 'NONE',  ( 0.0000000000000000000, 0.0000000000000000000, -1.000000000000000000 ) ) ;
#215 = COLOUR_RGB ( '',0.7921568627450980005, 0.8196078431372548767, 0.9333333333333333481 ) ;
#216 = CARTESIAN_POINT ( 'NONE',  ( 0.0000000000000000000, 0.0000000000000000000, 0.0000000000000000000 ) ) ;
#217 =( LENGTH_UNIT ( ) NAMED_UNIT ( * ) SI_UNIT ( $, .METRE. ) );
#218 = EDGE_LOOP ( 'NONE', ( #126, #56, #19, #199 ) ) ;
#219 = DIRECTION ( 'NONE',  ( -1.000000000000000000, 0.0000000000000000000, 0.0000000000000000000 ) ) ;
#220 = PRESENTATION_LAYER_ASSIGNMENT (  '', '', ( #66 ) ) ;
#221 = FACE_OUTER_BOUND ( 'NONE', #218, .T. ) ;
#222 = DIRECTION ( 'NONE',  ( 1.000000000000000000, 0.0000000000000000000, 0.0000000000000000000 ) ) ;
#223 = EDGE_CURVE ( 'NONE', #202, #54, #52, .T. ) ;
#224 = DIRECTION ( 'NONE',  ( 0.0000000000000000000, 0.0000000000000000000, 1.000000000000000000 ) ) ;
#225 = DIRECTION ( 'NONE',  ( -0.0000000000000000000, -0.0000000000000000000, -1.000000000000000000 ) ) ;
#226 = DIRECTION ( 'NONE',  ( 0.0000000000000000000, 0.0000000000000000000, 1.000000000000000000 ) ) ;
#227 = DIRECTION ( 'NONE',  ( 1.000000000000000000, 0.0000000000000000000, -0.0000000000000000000 ) ) ;
#228 = SURFACE_SIDE_STYLE ('',( #3 ) ) ;
#229 = PRODUCT_DEFINITION_CONTEXT ( 'detailed design', #173, 'design' ) ;
#230 = PLANE ( 'NONE',  #75 ) ;
#231 = EDGE_CURVE ( 'NONE', #54, #202, #190, .T. ) ;
#232 = STYLED_ITEM ( 'NONE', ( #249 ), #195 ) ;
#233 = ADVANCED_FACE ( 'NONE', ( #88 ), #67, .T. ) ;
#234 = DIRECTION ( 'NONE',  ( 0.0000000000000000000, 0.0000000000000000000, -1.000000000000000000 ) ) ;
#235 = EDGE_CURVE ( 'NONE', #246, #33, #118, .T. ) ;
#236 = AXIS2_PLACEMENT_3D ( 'NONE', #153, #225, #132 ) ;
#237 = EDGE_LOOP ( 'NONE', ( #72, #187, #84, #182 ) ) ;
#238 = AXIS2_PLACEMENT_3D ( 'NONE', #176, #205, #24 ) ;
#239 = DIRECTION ( 'NONE',  ( 0.0000000000000000000, 0.0000000000000000000, 1.000000000000000000 ) ) ;
#240 =( LENGTH_UNIT ( ) NAMED_UNIT ( * ) SI_UNIT ( $, .METRE. ) );
#241 = EDGE_LOOP ( 'NONE', ( #159, #12, #164, #103 ) ) ;
#242 = PRESENTATION_STYLE_ASSIGNMENT (( #198 ) ) ;
#243 = EDGE_CURVE ( 'NONE', #33, #246, #7, .T. ) ;
#244 = ORIENTED_EDGE ( 'NONE', *, *, #192, .T. ) ;
#245 = AXIS2_PLACEMENT_3D ( 'NONE', #68, #247, #191 ) ;
#246 = VERTEX_POINT ( 'NONE', #201 ) ;
#247 = DIRECTION ( 'NONE',  ( -0.0000000000000000000, -0.0000000000000000000, -1.000000000000000000 ) ) ;
#248 = FACE_OUTER_BOUND ( 'NONE', #241, .T. ) ;
#249 = PRESENTATION_STYLE_ASSIGNMENT (( #40 ) ) ;
ENDSEC;
END-ISO-10303-21;
