ISO-10303-21;
HEADER;
FILE_DESCRIPTION (( 'STEP AP214' ),
    '1' );
FILE_NAME ('59481.STEP',
    '2023-07-24T15:07:24',
    ( '' ),
    ( '' ),
    'SwSTEP 2.0',
    'SolidWorks 2023',
    '' );
FILE_SCHEMA (( 'AUTOMOTIVE_DESIGN' ));
ENDSEC;

DATA;
#1 = ADVANCED_FACE ( 'NONE', ( #2 ), #155, .T. ) ;
#2 = FACE_OUTER_BOUND ( 'NONE', #119, .T. ) ;
#3 = EDGE_LOOP ( 'NONE', ( #225, #226 ) ) ;
#4 = COLOUR_RGB ( '',0.7921568627450980005, 0.8196078431372548767, 0.9333333333333333481 ) ;
#5 = ADVANCED_FACE ( 'NONE', ( #166 ), #285, .T. ) ;
#6 = CARTESIAN_POINT ( 'NONE',  ( 0.000000000000000000, 0.000000000000000000, 0.000000000000000000 ) ) ;
#7 = DIRECTION ( 'NONE',  ( -0.000000000000000000, -1.000000000000000000, -0.000000000000000000 ) ) ;
#8 = COLOUR_RGB ( '',1.000000000000000000, 0.000000000000000000, 0.000000000000000000 ) ;
#9 = DIRECTION ( 'NONE',  ( -5.682149050294907483E-17, 1.000000000000000000, -0.000000000000000000 ) ) ;
#10 = DIRECTION ( 'NONE',  ( 1.000000000000000000, 0.000000000000000000, -1.224646799147353207E-16 ) ) ;
#11 = VECTOR ( 'NONE', #288, 1000.000000000000000 ) ;
#12 = DIRECTION ( 'NONE',  ( -0.000000000000000000, -1.000000000000000000, -0.000000000000000000 ) ) ;
#13 =( NAMED_UNIT ( * ) SI_UNIT ( $, .STERADIAN. ) SOLID_ANGLE_UNIT ( ) );
#14 = ORIENTED_EDGE ( 'NONE', *, *, #236, .F. ) ;
#15 = CARTESIAN_POINT ( 'NONE',  ( 0.000000000000000000, 1.000000000000000000, -3.000000000000000000 ) ) ;
#16 =( NAMED_UNIT ( * ) SI_UNIT ( $, .STERADIAN. ) SOLID_ANGLE_UNIT ( ) );
#17 = PLANE ( 'NONE',  #321 ) ;
#18 = AXIS2_PLACEMENT_3D ( 'NONE', #240, #185, #319 ) ;
#19 =( GEOMETRIC_REPRESENTATION_CONTEXT ( 3 ) GLOBAL_UNCERTAINTY_ASSIGNED_CONTEXT ( ( #144 ) ) GLOBAL_UNIT_ASSIGNED_CONTEXT ( ( #143, #170, #214 ) ) REPRESENTATION_CONTEXT ( 'NONE', 'WORKASPACE' ) );
#20 = FACE_OUTER_BOUND ( 'NONE', #197, .T. ) ;
#21 = LINE ( 'NONE', #359, #29 ) ;
#22 = CLOSED_SHELL ( 'NONE', ( #365, #145, #101, #289 ) ) ;
#23 = SURFACE_SIDE_STYLE ('',( #335 ) ) ;
#24 = CIRCLE ( 'NONE', #364, 3.999999999999994227 ) ;
#25 = ORIENTED_EDGE ( 'NONE', *, *, #282, .T. ) ;
#26 = VERTEX_POINT ( 'NONE', #203 ) ;
#27 = PRESENTATION_STYLE_ASSIGNMENT (( #90 ) ) ;
#28 = FILL_AREA_STYLE_COLOUR ( '', #8 ) ;
#29 = VECTOR ( 'NONE', #116, 1000.000000000000000 ) ;
#30 = ORIENTED_EDGE ( 'NONE', *, *, #236, .T. ) ;
#31 = EDGE_LOOP ( 'NONE', ( #257, #178 ) ) ;
#32 = AXIS2_PLACEMENT_3D ( 'NONE', #130, #293, #262 ) ;
#33 = DIRECTION ( 'NONE',  ( -1.224646799147352961E-16, 0.000000000000000000, -1.000000000000000000 ) ) ;
#34 = PRESENTATION_LAYER_ASSIGNMENT (  '', '', ( #81 ) ) ;
#35 = DIRECTION ( 'NONE',  ( 0.000000000000000000, -1.000000000000000000, -0.000000000000000000 ) ) ;
#36 =( NAMED_UNIT ( * ) PLANE_ANGLE_UNIT ( ) SI_UNIT ( $, .RADIAN. ) );
#37 = CYLINDRICAL_SURFACE ( 'NONE', #237, 3.999999999999994671 ) ;
#38 = UNCERTAINTY_MEASURE_WITH_UNIT (LENGTH_MEASURE( 1.000000000000000082E-05 ), #193, 'distance_accuracy_value', 'NONE');
#39 = SURFACE_STYLE_FILL_AREA ( #346 ) ;
#40 = EDGE_CURVE ( 'NONE', #370, #26, #255, .T. ) ;
#41 = ORIENTED_EDGE ( 'NONE', *, *, #250, .F. ) ;
#42 = CARTESIAN_POINT ( 'NONE',  ( 0.000000000000000000, 0.000000000000000000, 0.000000000000000000 ) ) ;
#43 = SURFACE_STYLE_FILL_AREA ( #315 ) ;
#44 = STYLED_ITEM ( 'NONE', ( #139 ), #160 ) ;
#45 = CARTESIAN_POINT ( 'NONE',  ( 4.898587196589412829E-16, 0.000000000000000000, 4.000000000000000000 ) ) ;
#46 = DIRECTION ( 'NONE',  ( -1.000000000000000000, 0.000000000000000000, 0.000000000000000000 ) ) ;
#47 = EDGE_CURVE ( 'NONE', #280, #341, #156, .T. ) ;
#48 =( GEOMETRIC_REPRESENTATION_CONTEXT ( 3 ) GLOBAL_UNCERTAINTY_ASSIGNED_CONTEXT ( ( #133 ) ) GLOBAL_UNIT_ASSIGNED_CONTEXT ( ( #94, #269, #65 ) ) REPRESENTATION_CONTEXT ( 'NONE', 'WORKASPACE' ) );
#49 = DIRECTION ( 'NONE',  ( -1.000000000000000000, 0.000000000000000000, 0.000000000000000000 ) ) ;
#50 = DIRECTION ( 'NONE',  ( -1.000000000000000000, 0.000000000000000000, 0.000000000000000000 ) ) ;
#51 = AXIS2_PLACEMENT_3D ( 'NONE', #76, #296, #173 ) ;
#52 = FACE_OUTER_BOUND ( 'NONE', #92, .T. ) ;
#53 = ADVANCED_FACE ( 'NONE', ( #235 ), #210, .T. ) ;
#54 = SURFACE_STYLE_FILL_AREA ( #191 ) ;
#55 = MECHANICAL_DESIGN_GEOMETRIC_PRESENTATION_REPRESENTATION (  '', ( #219 ), #367 ) ;
#56 = PRESENTATION_STYLE_ASSIGNMENT (( #84 ) ) ;
#57 = ORIENTED_EDGE ( 'NONE', *, *, #231, .T. ) ;
#58 = AXIS2_PLACEMENT_3D ( 'NONE', #131, #10, #33 ) ;
#59 = DIRECTION ( 'NONE',  ( -0.000000000000000000, -1.000000000000000000, -0.000000000000000000 ) ) ;
#60 = PRODUCT ( '59481', '59481', '', ( #247 ) ) ;
#61 = EDGE_LOOP ( 'NONE', ( #41, #57, #91, #304 ) ) ;
#62 = STYLED_ITEM ( 'NONE', ( #326 ), #53 ) ;
#63 = ORIENTED_EDGE ( 'NONE', *, *, #349, .F. ) ;
#64 = CARTESIAN_POINT ( 'NONE',  ( 0.000000000000000000, 0.000000000000000000, 0.000000000000000000 ) ) ;
#65 =( NAMED_UNIT ( * ) SI_UNIT ( $, .STERADIAN. ) SOLID_ANGLE_UNIT ( ) );
#66 = CARTESIAN_POINT ( 'NONE',  ( 4.286263797015736595E-16, 0.000000000000000000, 3.000000000000000000 ) ) ;
#67 = CIRCLE ( 'NONE', #117, 3.999999999999994227 ) ;
#68 = LINE ( 'NONE', #182, #11 ) ;
#69 = LINE ( 'NONE', #45, #135 ) ;
#70 = SURFACE_STYLE_USAGE ( .BOTH. , #102 ) ;
#71 = EDGE_CURVE ( 'NONE', #370, #357, #68, .T. ) ;
#72 = ORIENTED_EDGE ( 'NONE', *, *, #353, .F. ) ;
#73 = DIRECTION ( 'NONE',  ( 0.000000000000000000, 0.000000000000000000, -1.000000000000000000 ) ) ;
#74 = CARTESIAN_POINT ( 'NONE',  ( 0.000000000000000000, 16.00000000000000000, 0.000000000000000000 ) ) ;
#75 = FACE_OUTER_BOUND ( 'NONE', #360, .T. ) ;
#76 = CARTESIAN_POINT ( 'NONE',  ( 0.000000000000000000, 1.000000000000000000, 0.000000000000000000 ) ) ;
#77 = PRESENTATION_LAYER_ASSIGNMENT (  '', '', ( #62 ) ) ;
#78 = CARTESIAN_POINT ( 'NONE',  ( 5.854691731421723944E-15, 16.00000000000000000, 0.000000000000000000 ) ) ;
#79 = CARTESIAN_POINT ( 'NONE',  ( 4.000000000000000000, 63.00000000000000000, 4.898587196589407898E-16 ) ) ;
#80 = FILL_AREA_STYLE_COLOUR ( '', #4 ) ;
#81 = STYLED_ITEM ( 'NONE', ( #137 ), #256 ) ;
#82 = DIRECTION ( 'NONE',  ( -5.682149050294907483E-17, 1.000000000000000000, -0.000000000000000000 ) ) ;
#83 = DIRECTION ( 'NONE',  ( 5.682149050294907483E-17, -1.000000000000000000, 0.000000000000000000 ) ) ;
#84 = SURFACE_STYLE_USAGE ( .BOTH. , #23 ) ;
#85 = PRESENTATION_LAYER_ASSIGNMENT (  '', '', ( #219 ) ) ;
#86 = AXIS2_PLACEMENT_3D ( 'NONE', #42, #169, #292 ) ;
#87 = PRESENTATION_LAYER_ASSIGNMENT (  '', '', ( #238 ) ) ;
#88 = MECHANICAL_DESIGN_GEOMETRIC_PRESENTATION_REPRESENTATION (  '', ( #62 ), #202 ) ;
#89 = ORIENTED_EDGE ( 'NONE', *, *, #125, .F. ) ;
#90 = SURFACE_STYLE_USAGE ( .BOTH. , #342 ) ;
#91 = ORIENTED_EDGE ( 'NONE', *, *, #187, .T. ) ;
#92 = EDGE_LOOP ( 'NONE', ( #89, #179 ) ) ;
#93 = PRESENTATION_LAYER_ASSIGNMENT (  '', '', ( #215 ) ) ;
#94 =( LENGTH_UNIT ( ) NAMED_UNIT ( * ) SI_UNIT ( .MILLI., .METRE. ) );
#95 = DIRECTION ( 'NONE',  ( -0.000000000000000000, -1.000000000000000000, -0.000000000000000000 ) ) ;
#96 =( LENGTH_UNIT ( ) NAMED_UNIT ( * ) SI_UNIT ( .MILLI., .METRE. ) );
#97 = CARTESIAN_POINT ( 'NONE',  ( -3.999999999999993339, 63.00000000000000000, 0.000000000000000000 ) ) ;
#98 = ADVANCED_BREP_SHAPE_REPRESENTATION ( '59481', ( #205, #330, #86 ), #19 ) ;
#99 = FILL_AREA_STYLE_COLOUR ( '', #261 ) ;
#100 = UNCERTAINTY_MEASURE_WITH_UNIT (LENGTH_MEASURE( 1.000000000000000082E-05 ), #278, 'distance_accuracy_value', 'NONE');
#101 = ADVANCED_FACE ( 'NONE', ( #323 ), #37, .T. ) ;
#102 = SURFACE_SIDE_STYLE ('',( #39 ) ) ;
#103 = DIRECTION ( 'NONE',  ( 0.000000000000000000, 0.000000000000000000, -1.000000000000000000 ) ) ;
#104 = ORIENTED_EDGE ( 'NONE', *, *, #71, .F. ) ;
#105 = APPLICATION_PROTOCOL_DEFINITION ( 'draft international standard', 'automotive_design', 1998, #190 ) ;
#106 = DIRECTION ( 'NONE',  ( 0.000000000000000000, 0.000000000000000000, -1.000000000000000000 ) ) ;
#107 = DIRECTION ( 'NONE',  ( -5.682149050294907483E-17, 1.000000000000000000, 0.000000000000000000 ) ) ;
#108 = STYLED_ITEM ( 'NONE', ( #132 ), #5 ) ;
#109 = EDGE_CURVE ( 'NONE', #26, #370, #333, .T. ) ;
#110 = DIRECTION ( 'NONE',  ( -0.000000000000000000, -1.000000000000000000, -0.000000000000000000 ) ) ;
#111 = VECTOR ( 'NONE', #241, 1000.000000000000000 ) ;
#112 = UNCERTAINTY_MEASURE_WITH_UNIT (LENGTH_MEASURE( 1.000000000000000082E-05 ), #309, 'distance_accuracy_value', 'NONE');
#113 = SURFACE_SIDE_STYLE ('',( #140 ) ) ;
#114 = AXIS2_PLACEMENT_3D ( 'NONE', #306, #59, #279 ) ;
#115 = EDGE_CURVE ( 'NONE', #259, #124, #295, .T. ) ;
#116 = DIRECTION ( 'NONE',  ( -5.682149050294907483E-17, 1.000000000000000000, -0.000000000000000000 ) ) ;
#117 = AXIS2_PLACEMENT_3D ( 'NONE', #195, #82, #46 ) ;
#118 =( LENGTH_UNIT ( ) NAMED_UNIT ( * ) SI_UNIT ( .MILLI., .METRE. ) );
#119 = EDGE_LOOP ( 'NONE', ( #260, #336, #212, #232 ) ) ;
#120 = EDGE_CURVE ( 'NONE', #343, #124, #21, .T. ) ;
#121 = SURFACE_STYLE_USAGE ( .BOTH. , #254 ) ;
#122 = COLOUR_RGB ( '',0.7921568627450980005, 0.8196078431372548767, 0.9333333333333333481 ) ;
#123 = COLOUR_RGB ( '',1.000000000000000000, 0.000000000000000000, 0.000000000000000000 ) ;
#124 = VERTEX_POINT ( 'NONE', #79 ) ;
#125 = EDGE_CURVE ( 'NONE', #151, #343, #24, .T. ) ;
#126 = SURFACE_STYLE_FILL_AREA ( #229 ) ;
#127 = ORIENTED_EDGE ( 'NONE', *, *, #174, .T. ) ;
#128 = FILL_AREA_STYLE ('',( #350 ) ) ;
#129 = CIRCLE ( 'NONE', #314, 3.000000000000000000 ) ;
#130 = CARTESIAN_POINT ( 'NONE',  ( 0.000000000000000000, 0.000000000000000000, 0.000000000000000000 ) ) ;
#131 = CARTESIAN_POINT ( 'NONE',  ( 3.673940397442059868E-16, 1.000000000000000000, 3.000000000000000000 ) ) ;
#132 = PRESENTATION_STYLE_ASSIGNMENT (( #70 ) ) ;
#133 = UNCERTAINTY_MEASURE_WITH_UNIT (LENGTH_MEASURE( 1.000000000000000082E-05 ), #94, 'distance_accuracy_value', 'NONE');
#134 = CARTESIAN_POINT ( 'NONE',  ( 0.000000000000000000, 1.000000000000000000, -4.000000000000000000 ) ) ;
#135 = VECTOR ( 'NONE', #95, 1000.000000000000000 ) ;
#136 = CARTESIAN_POINT ( 'NONE',  ( 0.000000000000000000, 16.00000000000000000, 0.000000000000000000 ) ) ;
#137 = PRESENTATION_STYLE_ASSIGNMENT (( #324 ) ) ;
#138 = DIRECTION ( 'NONE',  ( 0.000000000000000000, 0.000000000000000000, -1.000000000000000000 ) ) ;
#139 = PRESENTATION_STYLE_ASSIGNMENT (( #213 ) ) ;
#140 = SURFACE_STYLE_FILL_AREA ( #273 ) ;
#141 = DIRECTION ( 'NONE',  ( -5.682149050294907483E-17, 1.000000000000000000, -0.000000000000000000 ) ) ;
#142 = AXIS2_PLACEMENT_3D ( 'NONE', #6, #320, #294 ) ;
#143 =( LENGTH_UNIT ( ) NAMED_UNIT ( * ) SI_UNIT ( .MILLI., .METRE. ) );
#144 = UNCERTAINTY_MEASURE_WITH_UNIT (LENGTH_MEASURE( 1.000000000000000082E-05 ), #143, 'distance_accuracy_value', 'NONE');
#145 = ADVANCED_FACE ( 'NONE', ( #52 ), #17, .F. ) ;
#146 = CARTESIAN_POINT ( 'NONE',  ( 0.000000000000000000, 1.000000000000000000, 0.000000000000000000 ) ) ;
#147 = AXIS2_PLACEMENT_3D ( 'NONE', #275, #328, #355 ) ;
#148 = PRODUCT_RELATED_PRODUCT_CATEGORY ( 'part', '', ( #60 ) ) ;
#149 = ORIENTED_EDGE ( 'NONE', *, *, #120, .T. ) ;
#150 = EDGE_LOOP ( 'NONE', ( #154, #127, #30, #72 ) ) ;
#151 = VERTEX_POINT ( 'NONE', #217 ) ;
#152 =( GEOMETRIC_REPRESENTATION_CONTEXT ( 3 ) GLOBAL_UNCERTAINTY_ASSIGNED_CONTEXT ( ( #264 ) ) GLOBAL_UNIT_ASSIGNED_CONTEXT ( ( #118, #36, #290 ) ) REPRESENTATION_CONTEXT ( 'NONE', 'WORKASPACE' ) );
#153 = FILL_AREA_STYLE ('',( #340 ) ) ;
#154 = ORIENTED_EDGE ( 'NONE', *, *, #120, .F. ) ;
#155 = CYLINDRICAL_SURFACE ( 'NONE', #114, 4.000000000000000000 ) ;
#156 = CIRCLE ( 'NONE', #32, 3.000000000000000000 ) ;
#157 = AXIS2_PLACEMENT_3D ( 'NONE', #243, #194, #49 ) ;
#158 = COLOUR_RGB ( '',1.000000000000000000, 0.000000000000000000, 0.000000000000000000 ) ;
#159 = DIRECTION ( 'NONE',  ( -0.000000000000000000, -1.000000000000000000, -0.000000000000000000 ) ) ;
#160 = ADVANCED_FACE ( 'NONE', ( #20 ), #251, .T. ) ;
#161 = SURFACE_STYLE_USAGE ( .BOTH. , #348 ) ;
#162 = SURFACE_SIDE_STYLE ('',( #211 ) ) ;
#163 = DIRECTION ( 'NONE',  ( -1.000000000000000000, 0.000000000000000000, 0.000000000000000000 ) ) ;
#164 = MECHANICAL_DESIGN_GEOMETRIC_PRESENTATION_REPRESENTATION (  '', ( #171 ), #339 ) ;
#165 = AXIS2_PLACEMENT_3D ( 'NONE', #307, #12, #73 ) ;
#166 = FACE_OUTER_BOUND ( 'NONE', #3, .T. ) ;
#167 = ORIENTED_EDGE ( 'NONE', *, *, #353, .T. ) ;
#168 = DIRECTION ( 'NONE',  ( 0.000000000000000000, 0.000000000000000000, 1.000000000000000000 ) ) ;
#169 = DIRECTION ( 'NONE',  ( 0.000000000000000000, 0.000000000000000000, 1.000000000000000000 ) ) ;
#170 =( NAMED_UNIT ( * ) PLANE_ANGLE_UNIT ( ) SI_UNIT ( $, .RADIAN. ) );
#171 = STYLED_ITEM ( 'NONE', ( #356 ), #205 ) ;
#172 = FACE_OUTER_BOUND ( 'NONE', #310, .T. ) ;
#173 = DIRECTION ( 'NONE',  ( 0.000000000000000000, 0.000000000000000000, -1.000000000000000000 ) ) ;
#174 = EDGE_CURVE ( 'NONE', #343, #151, #67, .T. ) ;
#175 = FACE_OUTER_BOUND ( 'NONE', #61, .T. ) ;
#176 = ORIENTED_EDGE ( 'NONE', *, *, #40, .T. ) ;
#177 = PRESENTATION_LAYER_ASSIGNMENT (  '', '', ( #44 ) ) ;
#178 = ORIENTED_EDGE ( 'NONE', *, *, #109, .F. ) ;
#179 = ORIENTED_EDGE ( 'NONE', *, *, #174, .F. ) ;
#180 = ORIENTED_EDGE ( 'NONE', *, *, #337, .F. ) ;
#181 = CIRCLE ( 'NONE', #58, 1.000000000000000000 ) ;
#182 = CARTESIAN_POINT ( 'NONE',  ( 0.000000000000000000, 0.000000000000000000, -4.000000000000000000 ) ) ;
#183 = CARTESIAN_POINT ( 'NONE',  ( 0.000000000000000000, 1.000000000000000000, 0.000000000000000000 ) ) ;
#184 = UNCERTAINTY_MEASURE_WITH_UNIT (LENGTH_MEASURE( 1.000000000000000082E-05 ), #196, 'distance_accuracy_value', 'NONE');
#185 = DIRECTION ( 'NONE',  ( 0.000000000000000000, 1.000000000000000000, 0.000000000000000000 ) ) ;
#186 = LINE ( 'NONE', #284, #111 ) ;
#187 = EDGE_CURVE ( 'NONE', #357, #341, #267, .T. ) ;
#188 = DIRECTION ( 'NONE',  ( -0.000000000000000000, -1.000000000000000000, -0.000000000000000000 ) ) ;
#189 = CARTESIAN_POINT ( 'NONE',  ( 0.000000000000000000, 0.000000000000000000, -3.000000000000000000 ) ) ;
#190 = APPLICATION_CONTEXT ( 'automotive_design' ) ;
#191 = FILL_AREA_STYLE ('',( #221 ) ) ;
#192 = CARTESIAN_POINT ( 'NONE',  ( 3.184081677783117402E-15, 63.00000000000000000, 0.000000000000000000 ) ) ;
#193 =( LENGTH_UNIT ( ) NAMED_UNIT ( * ) SI_UNIT ( .MILLI., .METRE. ) );
#194 = DIRECTION ( 'NONE',  ( -5.682149050294907483E-17, 1.000000000000000000, -0.000000000000000000 ) ) ;
#195 = CARTESIAN_POINT ( 'NONE',  ( 5.854691731421723944E-15, 16.00000000000000000, 0.000000000000000000 ) ) ;
#196 =( LENGTH_UNIT ( ) NAMED_UNIT ( * ) SI_UNIT ( .MILLI., .METRE. ) );
#197 = EDGE_LOOP ( 'NONE', ( #368, #271, #63, #199 ) ) ;
#198 = TOROIDAL_SURFACE ( 'NONE', #305, 3.000000000000000000, 1.000000000000000000 ) ;
#199 = ORIENTED_EDGE ( 'NONE', *, *, #187, .F. ) ;
#200 = PRODUCT_DEFINITION_SHAPE ( 'NONE', 'NONE',  #204 ) ;
#201 = ORIENTED_EDGE ( 'NONE', *, *, #125, .T. ) ;
#202 =( GEOMETRIC_REPRESENTATION_CONTEXT ( 3 ) GLOBAL_UNCERTAINTY_ASSIGNED_CONTEXT ( ( #322 ) ) GLOBAL_UNIT_ASSIGNED_CONTEXT ( ( #96, #316, #13 ) ) REPRESENTATION_CONTEXT ( 'NONE', 'WORKASPACE' ) );
#203 = CARTESIAN_POINT ( 'NONE',  ( 4.898587196589412829E-16, 16.00000000000000000, 4.000000000000000000 ) ) ;
#204 = PRODUCT_DEFINITION ( 'UNKNOWN', '', #327, #362 ) ;
#205 = MANIFOLD_SOLID_BREP ( 'Revolve - Cutting Edge', #207 ) ;
#206 = APPLICATION_CONTEXT ( 'automotive_design' ) ;
#207 = CLOSED_SHELL ( 'NONE', ( #256, #160, #5, #223, #1, #53 ) ) ;
#208 = CYLINDRICAL_SURFACE ( 'NONE', #142, 4.000000000000000000 ) ;
#209 = PRESENTATION_LAYER_ASSIGNMENT (  '', '', ( #171 ) ) ;
#210 = PLANE ( 'NONE',  #18 ) ;
#211 = SURFACE_STYLE_FILL_AREA ( #128 ) ;
#212 = ORIENTED_EDGE ( 'NONE', *, *, #71, .T. ) ;
#213 = SURFACE_STYLE_USAGE ( .BOTH. , #363 ) ;
#214 =( NAMED_UNIT ( * ) SI_UNIT ( $, .STERADIAN. ) SOLID_ANGLE_UNIT ( ) );
#215 = STYLED_ITEM ( 'NONE', ( #56 ), #223 ) ;
#216 = VERTEX_POINT ( 'NONE', #252 ) ;
#217 = CARTESIAN_POINT ( 'NONE',  ( -3.999999999999988010, 16.00000000000000000, 0.000000000000000000 ) ) ;
#218 =( NAMED_UNIT ( * ) SI_UNIT ( $, .STERADIAN. ) SOLID_ANGLE_UNIT ( ) );
#219 = STYLED_ITEM ( 'NONE', ( #344 ), #1 ) ;
#220 = PLANE ( 'NONE',  #286 ) ;
#221 = FILL_AREA_STYLE_COLOUR ( '', #123 ) ;
#222 =( GEOMETRIC_REPRESENTATION_CONTEXT ( 3 ) GLOBAL_UNCERTAINTY_ASSIGNED_CONTEXT ( ( #352 ) ) GLOBAL_UNIT_ASSIGNED_CONTEXT ( ( #291, #317, #347 ) ) REPRESENTATION_CONTEXT ( 'NONE', 'WORKASPACE' ) );
#223 = ADVANCED_FACE ( 'NONE', ( #175 ), #198, .T. ) ;
#224 = FILL_AREA_STYLE ('',( #303 ) ) ;
#225 = ORIENTED_EDGE ( 'NONE', *, *, #349, .T. ) ;
#226 = ORIENTED_EDGE ( 'NONE', *, *, #47, .T. ) ;
#227 =( GEOMETRIC_REPRESENTATION_CONTEXT ( 3 ) GLOBAL_UNCERTAINTY_ASSIGNED_CONTEXT ( ( #112 ) ) GLOBAL_UNIT_ASSIGNED_CONTEXT ( ( #309, #311, #16 ) ) REPRESENTATION_CONTEXT ( 'NONE', 'WORKASPACE' ) );
#228 = SURFACE_STYLE_FILL_AREA ( #153 ) ;
#229 = FILL_AREA_STYLE ('',( #28 ) ) ;
#230 = MECHANICAL_DESIGN_GEOMETRIC_PRESENTATION_REPRESENTATION (  '', ( #215 ), #152 ) ;
#231 = EDGE_CURVE ( 'NONE', #216, #357, #242, .T. ) ;
#232 = ORIENTED_EDGE ( 'NONE', *, *, #231, .F. ) ;
#233 = ORIENTED_EDGE ( 'NONE', *, *, #115, .F. ) ;
#234 = PRESENTATION_LAYER_ASSIGNMENT (  '', '', ( #108 ) ) ;
#235 = FACE_OUTER_BOUND ( 'NONE', #31, .T. ) ;
#236 = EDGE_CURVE ( 'NONE', #151, #259, #186, .T. ) ;
#237 = AXIS2_PLACEMENT_3D ( 'NONE', #265, #9, #354 ) ;
#238 = STYLED_ITEM ( 'NONE', ( #27 ), #330 ) ;
#239 = FILL_AREA_STYLE_COLOUR ( '', #300 ) ;
#240 = CARTESIAN_POINT ( 'NONE',  ( 0.000000000000000000, 16.00000000000000000, 0.000000000000000000 ) ) ;
#241 = DIRECTION ( 'NONE',  ( -5.682149050294907483E-17, 1.000000000000000000, -0.000000000000000000 ) ) ;
#242 = CIRCLE ( 'NONE', #345, 4.000000000000000000 ) ;
#243 = CARTESIAN_POINT ( 'NONE',  ( 3.184081677783117402E-15, 63.00000000000000000, 0.000000000000000000 ) ) ;
#244 = DIRECTION ( 'NONE',  ( -1.000000000000000000, 0.000000000000000000, 0.000000000000000000 ) ) ;
#245 = SURFACE_STYLE_USAGE ( .BOTH. , #113 ) ;
#246 = MECHANICAL_DESIGN_GEOMETRIC_PRESENTATION_REPRESENTATION (  '', ( #238 ), #227 ) ;
#247 = PRODUCT_CONTEXT ( 'NONE', #190, 'mechanical' ) ;
#248 = CARTESIAN_POINT ( 'NONE',  ( 5.854691731421723944E-15, 16.00000000000000000, 0.000000000000000000 ) ) ;
#249 = DIRECTION ( 'NONE',  ( -5.682149050294907483E-17, 1.000000000000000000, -0.000000000000000000 ) ) ;
#250 = EDGE_CURVE ( 'NONE', #216, #280, #181, .T. ) ;
#251 = TOROIDAL_SURFACE ( 'NONE', #51, 3.000000000000000000, 1.000000000000000000 ) ;
#252 = CARTESIAN_POINT ( 'NONE',  ( 4.898587196589412829E-16, 1.000000000000000000, 4.000000000000000000 ) ) ;
#253 = EDGE_LOOP ( 'NONE', ( #176, #25, #180, #104 ) ) ;
#254 = SURFACE_SIDE_STYLE ('',( #126 ) ) ;
#255 = CIRCLE ( 'NONE', #302, 4.000000000000000000 ) ;
#256 = ADVANCED_FACE ( 'NONE', ( #351 ), #208, .T. ) ;
#257 = ORIENTED_EDGE ( 'NONE', *, *, #40, .F. ) ;
#258 = AXIS2_PLACEMENT_3D ( 'NONE', #15, #244, #168 ) ;
#259 = VERTEX_POINT ( 'NONE', #97 ) ;
#260 = ORIENTED_EDGE ( 'NONE', *, *, #282, .F. ) ;
#261 = COLOUR_RGB ( '',1.000000000000000000, 0.000000000000000000, 0.000000000000000000 ) ;
#262 = DIRECTION ( 'NONE',  ( 0.000000000000000000, 0.000000000000000000, -1.000000000000000000 ) ) ;
#263 = DIRECTION ( 'NONE',  ( -0.000000000000000000, -1.000000000000000000, -0.000000000000000000 ) ) ;
#264 = UNCERTAINTY_MEASURE_WITH_UNIT (LENGTH_MEASURE( 1.000000000000000082E-05 ), #118, 'distance_accuracy_value', 'NONE');
#265 = CARTESIAN_POINT ( 'NONE',  ( 3.184081677783117402E-15, 63.00000000000000000, 0.000000000000000000 ) ) ;
#266 = DIRECTION ( 'NONE',  ( 0.000000000000000000, 0.000000000000000000, -1.000000000000000000 ) ) ;
#267 = CIRCLE ( 'NONE', #258, 1.000000000000000000 ) ;
#268 = MECHANICAL_DESIGN_GEOMETRIC_PRESENTATION_REPRESENTATION (  '', ( #44 ), #312 ) ;
#269 =( NAMED_UNIT ( * ) PLANE_ANGLE_UNIT ( ) SI_UNIT ( $, .RADIAN. ) );
#270 = DIRECTION ( 'NONE',  ( 1.000000000000000000, 5.682149050294907483E-17, 0.000000000000000000 ) ) ;
#271 = ORIENTED_EDGE ( 'NONE', *, *, #250, .T. ) ;
#272 = APPLICATION_PROTOCOL_DEFINITION ( 'draft international standard', 'automotive_design', 1998, #206 ) ;
#273 = FILL_AREA_STYLE ('',( #80 ) ) ;
#274 = MECHANICAL_DESIGN_GEOMETRIC_PRESENTATION_REPRESENTATION (  '', ( #108 ), #48 ) ;
#275 = CARTESIAN_POINT ( 'NONE',  ( 3.184081677783117402E-15, 63.00000000000000000, 0.000000000000000000 ) ) ;
#276 = DIRECTION ( 'NONE',  ( -1.000000000000000000, -5.682149050294907483E-17, 0.000000000000000000 ) ) ;
#277 = COLOUR_RGB ( '',1.000000000000000000, 0.000000000000000000, 0.000000000000000000 ) ;
#278 =( LENGTH_UNIT ( ) NAMED_UNIT ( * ) SI_UNIT ( .MILLI., .METRE. ) );
#279 = DIRECTION ( 'NONE',  ( 0.000000000000000000, 0.000000000000000000, -1.000000000000000000 ) ) ;
#280 = VERTEX_POINT ( 'NONE', #66 ) ;
#281 = MECHANICAL_DESIGN_GEOMETRIC_PRESENTATION_REPRESENTATION (  '', ( #81 ), #222 ) ;
#282 = EDGE_CURVE ( 'NONE', #26, #216, #69, .T. ) ;
#283 = DIRECTION ( 'NONE',  ( 0.000000000000000000, 0.000000000000000000, -1.000000000000000000 ) ) ;
#284 = CARTESIAN_POINT ( 'NONE',  ( -3.999999999999991562, 63.00000000000000000, 0.000000000000000000 ) ) ;
#285 = PLANE ( 'NONE',  #318 ) ;
#286 = AXIS2_PLACEMENT_3D ( 'NONE', #334, #83, #270 ) ;
#287 = AXIS2_PLACEMENT_3D ( 'NONE', #192, #141, #163 ) ;
#288 = DIRECTION ( 'NONE',  ( -0.000000000000000000, -1.000000000000000000, -0.000000000000000000 ) ) ;
#289 = ADVANCED_FACE ( 'NONE', ( #172 ), #220, .F. ) ;
#290 =( NAMED_UNIT ( * ) SI_UNIT ( $, .STERADIAN. ) SOLID_ANGLE_UNIT ( ) );
#291 =( LENGTH_UNIT ( ) NAMED_UNIT ( * ) SI_UNIT ( .MILLI., .METRE. ) );
#292 = DIRECTION ( 'NONE',  ( 1.000000000000000000, 0.000000000000000000, 0.000000000000000000 ) ) ;
#293 = DIRECTION ( 'NONE',  ( -0.000000000000000000, -1.000000000000000000, -0.000000000000000000 ) ) ;
#294 = DIRECTION ( 'NONE',  ( 0.000000000000000000, 0.000000000000000000, -1.000000000000000000 ) ) ;
#295 = CIRCLE ( 'NONE', #147, 3.999999999999996447 ) ;
#296 = DIRECTION ( 'NONE',  ( -0.000000000000000000, -1.000000000000000000, -0.000000000000000000 ) ) ;
#297 = CARTESIAN_POINT ( 'NONE',  ( 4.000000000000000000, 16.00000000000000000, 4.898587196589407898E-16 ) ) ;
#298 =( NAMED_UNIT ( * ) SI_UNIT ( $, .STERADIAN. ) SOLID_ANGLE_UNIT ( ) );
#299 = CYLINDRICAL_SURFACE ( 'NONE', #157, 3.999999999999994671 ) ;
#300 = COLOUR_RGB ( '',1.000000000000000000, 0.000000000000000000, 0.000000000000000000 ) ;
#301 = DIRECTION ( 'NONE',  ( 0.000000000000000000, 0.000000000000000000, -1.000000000000000000 ) ) ;
#302 = AXIS2_PLACEMENT_3D ( 'NONE', #136, #159, #106 ) ;
#303 = FILL_AREA_STYLE_COLOUR ( '', #277 ) ;
#304 = ORIENTED_EDGE ( 'NONE', *, *, #47, .F. ) ;
#305 = AXIS2_PLACEMENT_3D ( 'NONE', #183, #263, #266 ) ;
#306 = CARTESIAN_POINT ( 'NONE',  ( 0.000000000000000000, 0.000000000000000000, 0.000000000000000000 ) ) ;
#307 = CARTESIAN_POINT ( 'NONE',  ( 0.000000000000000000, 1.000000000000000000, 0.000000000000000000 ) ) ;
#308 = ORIENTED_EDGE ( 'NONE', *, *, #115, .T. ) ;
#309 =( LENGTH_UNIT ( ) NAMED_UNIT ( * ) SI_UNIT ( .MILLI., .METRE. ) );
#310 = EDGE_LOOP ( 'NONE', ( #308, #167 ) ) ;
#311 =( NAMED_UNIT ( * ) PLANE_ANGLE_UNIT ( ) SI_UNIT ( $, .RADIAN. ) );
#312 =( GEOMETRIC_REPRESENTATION_CONTEXT ( 3 ) GLOBAL_UNCERTAINTY_ASSIGNED_CONTEXT ( ( #184 ) ) GLOBAL_UNIT_ASSIGNED_CONTEXT ( ( #196, #331, #298 ) ) REPRESENTATION_CONTEXT ( 'NONE', 'WORKASPACE' ) );
#313 =( NAMED_UNIT ( * ) SI_UNIT ( $, .STERADIAN. ) SOLID_ANGLE_UNIT ( ) );
#314 = AXIS2_PLACEMENT_3D ( 'NONE', #329, #110, #138 ) ;
#315 = FILL_AREA_STYLE ('',( #239 ) ) ;
#316 =( NAMED_UNIT ( * ) PLANE_ANGLE_UNIT ( ) SI_UNIT ( $, .RADIAN. ) );
#317 =( NAMED_UNIT ( * ) PLANE_ANGLE_UNIT ( ) SI_UNIT ( $, .RADIAN. ) );
#318 = AXIS2_PLACEMENT_3D ( 'NONE', #64, #35, #283 ) ;
#319 = DIRECTION ( 'NONE',  ( 0.000000000000000000, -0.000000000000000000, 1.000000000000000000 ) ) ;
#320 = DIRECTION ( 'NONE',  ( -0.000000000000000000, -1.000000000000000000, -0.000000000000000000 ) ) ;
#321 = AXIS2_PLACEMENT_3D ( 'NONE', #78, #107, #276 ) ;
#322 = UNCERTAINTY_MEASURE_WITH_UNIT (LENGTH_MEASURE( 1.000000000000000082E-05 ), #96, 'distance_accuracy_value', 'NONE');
#323 = FACE_OUTER_BOUND ( 'NONE', #150, .T. ) ;
#324 = SURFACE_STYLE_USAGE ( .BOTH. , #162 ) ;
#325 = CARTESIAN_POINT ( 'NONE',  ( 0.000000000000000000, 16.00000000000000000, -4.000000000000000000 ) ) ;
#326 = PRESENTATION_STYLE_ASSIGNMENT (( #161 ) ) ;
#327 = PRODUCT_DEFINITION_FORMATION_WITH_SPECIFIED_SOURCE ( 'ANY', '', #60, .NOT_KNOWN. ) ;
#328 = DIRECTION ( 'NONE',  ( -5.682149050294907483E-17, 1.000000000000000000, -0.000000000000000000 ) ) ;
#329 = CARTESIAN_POINT ( 'NONE',  ( 0.000000000000000000, 0.000000000000000000, 0.000000000000000000 ) ) ;
#330 = MANIFOLD_SOLID_BREP ( 'Revolve - Tool Body (Straight Shanked)', #22 ) ;
#331 =( NAMED_UNIT ( * ) PLANE_ANGLE_UNIT ( ) SI_UNIT ( $, .RADIAN. ) );
#332 =( NAMED_UNIT ( * ) PLANE_ANGLE_UNIT ( ) SI_UNIT ( $, .RADIAN. ) );
#333 = CIRCLE ( 'NONE', #369, 4.000000000000000000 ) ;
#334 = CARTESIAN_POINT ( 'NONE',  ( 4.000000000000000000, 63.00000000000000000, 0.000000000000000000 ) ) ;
#335 = SURFACE_STYLE_FILL_AREA ( #224 ) ;
#336 = ORIENTED_EDGE ( 'NONE', *, *, #109, .T. ) ;
#337 = EDGE_CURVE ( 'NONE', #357, #216, #338, .T. ) ;
#338 = CIRCLE ( 'NONE', #165, 4.000000000000000000 ) ;
#339 =( GEOMETRIC_REPRESENTATION_CONTEXT ( 3 ) GLOBAL_UNCERTAINTY_ASSIGNED_CONTEXT ( ( #38 ) ) GLOBAL_UNIT_ASSIGNED_CONTEXT ( ( #193, #332, #218 ) ) REPRESENTATION_CONTEXT ( 'NONE', 'WORKASPACE' ) );
#340 = FILL_AREA_STYLE_COLOUR ( '', #122 ) ;
#341 = VERTEX_POINT ( 'NONE', #189 ) ;
#342 = SURFACE_SIDE_STYLE ('',( #228 ) ) ;
#343 = VERTEX_POINT ( 'NONE', #297 ) ;
#344 = PRESENTATION_STYLE_ASSIGNMENT (( #121 ) ) ;
#345 = AXIS2_PLACEMENT_3D ( 'NONE', #146, #7, #103 ) ;
#346 = FILL_AREA_STYLE ('',( #99 ) ) ;
#347 =( NAMED_UNIT ( * ) SI_UNIT ( $, .STERADIAN. ) SOLID_ANGLE_UNIT ( ) );
#348 = SURFACE_SIDE_STYLE ('',( #43 ) ) ;
#349 = EDGE_CURVE ( 'NONE', #341, #280, #129, .T. ) ;
#350 = FILL_AREA_STYLE_COLOUR ( '', #158 ) ;
#351 = FACE_OUTER_BOUND ( 'NONE', #253, .T. ) ;
#352 = UNCERTAINTY_MEASURE_WITH_UNIT (LENGTH_MEASURE( 1.000000000000000082E-05 ), #291, 'distance_accuracy_value', 'NONE');
#353 = EDGE_CURVE ( 'NONE', #124, #259, #358, .T. ) ;
#354 = DIRECTION ( 'NONE',  ( -1.000000000000000000, 0.000000000000000000, 0.000000000000000000 ) ) ;
#355 = DIRECTION ( 'NONE',  ( -1.000000000000000000, 0.000000000000000000, 0.000000000000000000 ) ) ;
#356 = PRESENTATION_STYLE_ASSIGNMENT (( #245 ) ) ;
#357 = VERTEX_POINT ( 'NONE', #134 ) ;
#358 = CIRCLE ( 'NONE', #287, 3.999999999999996447 ) ;
#359 = CARTESIAN_POINT ( 'NONE',  ( 3.999999999999998224, 63.00000000000000000, 4.898587196589406912E-16 ) ) ;
#360 = EDGE_LOOP ( 'NONE', ( #201, #149, #233, #14 ) ) ;
#361 = SHAPE_DEFINITION_REPRESENTATION ( #200, #98 ) ;
#362 = PRODUCT_DEFINITION_CONTEXT ( 'detailed design', #206, 'design' ) ;
#363 = SURFACE_SIDE_STYLE ('',( #54 ) ) ;
#364 = AXIS2_PLACEMENT_3D ( 'NONE', #248, #249, #50 ) ;
#365 = ADVANCED_FACE ( 'NONE', ( #75 ), #299, .T. ) ;
#366 =( NAMED_UNIT ( * ) PLANE_ANGLE_UNIT ( ) SI_UNIT ( $, .RADIAN. ) );
#367 =( GEOMETRIC_REPRESENTATION_CONTEXT ( 3 ) GLOBAL_UNCERTAINTY_ASSIGNED_CONTEXT ( ( #100 ) ) GLOBAL_UNIT_ASSIGNED_CONTEXT ( ( #278, #366, #313 ) ) REPRESENTATION_CONTEXT ( 'NONE', 'WORKASPACE' ) );
#368 = ORIENTED_EDGE ( 'NONE', *, *, #337, .T. ) ;
#369 = AXIS2_PLACEMENT_3D ( 'NONE', #74, #188, #301 ) ;
#370 = VERTEX_POINT ( 'NONE', #325 ) ;
ENDSEC;
END-ISO-10303-21;
