ISO-10303-21;
HEADER;
FILE_DESCRIPTION (( 'STEP AP214' ),
    '1' );
FILE_NAME ('81561.STEP',
    '2023-06-23T01:58:44',
    ( '' ),
    ( '' ),
    'SwSTEP 2.0',
    'SolidWorks 2023',
    '' );
FILE_SCHEMA (( 'AUTOMOTIVE_DESIGN' ));
ENDSEC;

DATA;
#1 = ADVANCED_FACE ( 'NONE', ( #185 ), #281, .T. ) ;
#2 = AXIS2_PLACEMENT_3D ( 'NONE', #33, #196, #295 ) ;
#3 = CIRCLE ( 'NONE', #91, 0.3750000000000000555 ) ;
#4 = UNCERTAINTY_MEASURE_WITH_UNIT (LENGTH_MEASURE( 1.000000000000000082E-05 ), #292, 'distance_accuracy_value', 'NONE');
#5 = ORIENTED_EDGE ( 'NONE', *, *, #273, .T. ) ;
#6 = EDGE_CURVE ( 'NONE', #233, #20, #259, .T. ) ;
#7 = PRESENTATION_STYLE_ASSIGNMENT (( #62 ) ) ;
#8 = PRESENTATION_LAYER_ASSIGNMENT (  '', '', ( #286 ) ) ;
#9 = CARTESIAN_POINT ( 'NONE',  ( 4.592425496802575451E-17, 0.000000000000000000, 0.3750000000000000555 ) ) ;
#10 = CARTESIAN_POINT ( 'NONE',  ( 0.000000000000000000, 2.000000000000000000, 0.000000000000000000 ) ) ;
#11 =( NAMED_UNIT ( * ) PLANE_ANGLE_UNIT ( ) SI_UNIT ( $, .RADIAN. ) );
#12 = FILL_AREA_STYLE_COLOUR ( '', #206 ) ;
#13 = SURFACE_SIDE_STYLE ('',( #177 ) ) ;
#14 = DIMENSIONAL_EXPONENTS ( 1.000000000000000000, 0.000000000000000000, 0.000000000000000000, 0.000000000000000000, 0.000000000000000000, 0.000000000000000000, 0.000000000000000000 ) ;
#15 = DIRECTION ( 'NONE',  ( 0.000000000000000000, 0.000000000000000000, -1.000000000000000000 ) ) ;
#16 = APPLICATION_CONTEXT ( 'automotive_design' ) ;
#17 = CARTESIAN_POINT ( 'NONE',  ( -0.3750000000000004441, 4.000000000000000000, 0.000000000000000000 ) ) ;
#18 =( NAMED_UNIT ( * ) PLANE_ANGLE_UNIT ( ) SI_UNIT ( $, .RADIAN. ) );
#19 = MECHANICAL_DESIGN_GEOMETRIC_PRESENTATION_REPRESENTATION (  '', ( #145 ), #190 ) ;
#20 = VERTEX_POINT ( 'NONE', #155 ) ;
#21 =( LENGTH_UNIT ( ) NAMED_UNIT ( * ) SI_UNIT ( $, .METRE. ) );
#22 = ORIENTED_EDGE ( 'NONE', *, *, #273, .F. ) ;
#23 = ADVANCED_BREP_SHAPE_REPRESENTATION ( '81561', ( #307, #201, #260 ), #29 ) ;
#24 = VECTOR ( 'NONE', #86, 39.37007874015748143 ) ;
#25 = ORIENTED_EDGE ( 'NONE', *, *, #170, .T. ) ;
#26 = MECHANICAL_DESIGN_GEOMETRIC_PRESENTATION_REPRESENTATION (  '', ( #77 ), #306 ) ;
#27 = EDGE_CURVE ( 'NONE', #207, #233, #219, .T. ) ;
#28 = CLOSED_SHELL ( 'NONE', ( #30, #212, #65, #239 ) ) ;
#29 =( GEOMETRIC_REPRESENTATION_CONTEXT ( 3 ) GLOBAL_UNCERTAINTY_ASSIGNED_CONTEXT ( ( #274 ) ) GLOBAL_UNIT_ASSIGNED_CONTEXT ( ( #116, #78, #47 ) ) REPRESENTATION_CONTEXT ( 'NONE', 'WORKASPACE' ) );
#30 = ADVANCED_FACE ( 'NONE', ( #107 ), #57, .T. ) ;
#31 = CARTESIAN_POINT ( 'NONE',  ( 0.000000000000000000, 2.000000000000000000, 0.000000000000000000 ) ) ;
#32 = VERTEX_POINT ( 'NONE', #203 ) ;
#33 = CARTESIAN_POINT ( 'NONE',  ( 0.000000000000000000, 0.000000000000000000, 0.000000000000000000 ) ) ;
#34 = UNCERTAINTY_MEASURE_WITH_UNIT (LENGTH_MEASURE( 1.000000000000000082E-05 ), #289, 'distance_accuracy_value', 'NONE');
#35 = COLOUR_RGB ( '',0.7921568627450980005, 0.8196078431372548767, 0.9333333333333333481 ) ;
#36 = LINE ( 'NONE', #129, #297 ) ;
#37 = MECHANICAL_DESIGN_GEOMETRIC_PRESENTATION_REPRESENTATION (  '', ( #119 ), #136 ) ;
#38 =( LENGTH_UNIT ( ) NAMED_UNIT ( * ) SI_UNIT ( $, .METRE. ) );
#39 =( NAMED_UNIT ( * ) SI_UNIT ( $, .STERADIAN. ) SOLID_ANGLE_UNIT ( ) );
#40 = SURFACE_STYLE_USAGE ( .BOTH. , #13 ) ;
#41 = PRESENTATION_LAYER_ASSIGNMENT (  '', '', ( #77 ) ) ;
#42 = SURFACE_STYLE_FILL_AREA ( #69 ) ;
#43 = CARTESIAN_POINT ( 'NONE',  ( 0.000000000000000000, 2.000000000000000000, 0.000000000000000000 ) ) ;
#44 = CIRCLE ( 'NONE', #53, 0.3750000000000000555 ) ;
#45 = PRODUCT ( '81561', '81561', '', ( #215 ) ) ;
#46 = ORIENTED_EDGE ( 'NONE', *, *, #87, .F. ) ;
#47 =( NAMED_UNIT ( * ) SI_UNIT ( $, .STERADIAN. ) SOLID_ANGLE_UNIT ( ) );
#48 = AXIS2_PLACEMENT_3D ( 'NONE', #43, #157, #256 ) ;
#49 = FACE_OUTER_BOUND ( 'NONE', #192, .T. ) ;
#50 = UNCERTAINTY_MEASURE_WITH_UNIT (LENGTH_MEASURE( 1.000000000000000082E-05 ), #70, 'distance_accuracy_value', 'NONE');
#51 = DIRECTION ( 'NONE',  ( 0.000000000000000000, -0.000000000000000000, 1.000000000000000000 ) ) ;
#52 = PRESENTATION_LAYER_ASSIGNMENT (  '', '', ( #105 ) ) ;
#53 = AXIS2_PLACEMENT_3D ( 'NONE', #262, #294, #243 ) ;
#54 = VERTEX_POINT ( 'NONE', #103 ) ;
#55 = DIMENSIONAL_EXPONENTS ( 1.000000000000000000, 0.000000000000000000, 0.000000000000000000, 0.000000000000000000, 0.000000000000000000, 0.000000000000000000, 0.000000000000000000 ) ;
#56 = PRODUCT_DEFINITION_CONTEXT ( 'detailed design', #16, 'design' ) ;
#57 = CYLINDRICAL_SURFACE ( 'NONE', #61, 0.3750000000000001110 ) ;
#58 = DIMENSIONAL_EXPONENTS ( 1.000000000000000000, 0.000000000000000000, 0.000000000000000000, 0.000000000000000000, 0.000000000000000000, 0.000000000000000000, 0.000000000000000000 ) ;
#59 = CARTESIAN_POINT ( 'NONE',  ( 0.3750000000000000555, 4.000000000000000000, 0.000000000000000000 ) ) ;
#60 =( LENGTH_UNIT ( ) NAMED_UNIT ( * ) SI_UNIT ( $, .METRE. ) );
#61 = AXIS2_PLACEMENT_3D ( 'NONE', #102, #272, #174 ) ;
#62 = SURFACE_STYLE_USAGE ( .BOTH. , #148 ) ;
#63 = AXIS2_PLACEMENT_3D ( 'NONE', #82, #175, #240 ) ;
#64 = CYLINDRICAL_SURFACE ( 'NONE', #199, 0.3750000000000001110 ) ;
#65 = ADVANCED_FACE ( 'NONE', ( #248 ), #64, .T. ) ;
#66 = SURFACE_SIDE_STYLE ('',( #154 ) ) ;
#67 = DIRECTION ( 'NONE',  ( -9.184850993605148438E-17, 1.000000000000000000, -0.000000000000000000 ) ) ;
#68 = CIRCLE ( 'NONE', #214, 0.3750000000000000555 ) ;
#69 = FILL_AREA_STYLE ('',( #182 ) ) ;
#70 =( CONVERSION_BASED_UNIT ( 'INCH', #227 ) LENGTH_UNIT ( ) NAMED_UNIT ( #14 ) );
#71 = EDGE_LOOP ( 'NONE', ( #209, #159 ) ) ;
#72 = LENGTH_MEASURE_WITH_UNIT ( LENGTH_MEASURE( 0.02539999999999999897 ), #90 );
#73 = FILL_AREA_STYLE_COLOUR ( '', #270 ) ;
#74 = CARTESIAN_POINT ( 'NONE',  ( 0.3750000000000000555, 4.000000000000000000, 4.592425496802576684E-17 ) ) ;
#75 = ORIENTED_EDGE ( 'NONE', *, *, #191, .T. ) ;
#76 = CARTESIAN_POINT ( 'NONE',  ( 1.581777895776178031E-33, 2.000000000000000000, 0.000000000000000000 ) ) ;
#77 = STYLED_ITEM ( 'NONE', ( #152 ), #307 ) ;
#78 =( NAMED_UNIT ( * ) PLANE_ANGLE_UNIT ( ) SI_UNIT ( $, .RADIAN. ) );
#79 = DIRECTION ( 'NONE',  ( 0.000000000000000000, 1.000000000000000000, 0.000000000000000000 ) ) ;
#80 = VERTEX_POINT ( 'NONE', #218 ) ;
#81 = SURFACE_STYLE_FILL_AREA ( #246 ) ;
#82 = CARTESIAN_POINT ( 'NONE',  ( -1.836970198721029688E-16, 4.000000000000000000, 0.000000000000000000 ) ) ;
#83 = ADVANCED_FACE ( 'NONE', ( #194 ), #241, .T. ) ;
#84 = LENGTH_MEASURE_WITH_UNIT ( LENGTH_MEASURE( 0.02539999999999999897 ), #125 );
#85 = SURFACE_STYLE_USAGE ( .BOTH. , #217 ) ;
#86 = DIRECTION ( 'NONE',  ( -0.000000000000000000, -1.000000000000000000, -0.000000000000000000 ) ) ;
#87 = EDGE_CURVE ( 'NONE', #123, #121, #179, .T. ) ;
#88 = CARTESIAN_POINT ( 'NONE',  ( 4.592425496802575451E-17, 0.000000000000000000, 0.3750000000000000555 ) ) ;
#89 =( CONVERSION_BASED_UNIT ( 'INCH', #298 ) LENGTH_UNIT ( ) NAMED_UNIT ( #58 ) );
#90 =( LENGTH_UNIT ( ) NAMED_UNIT ( * ) SI_UNIT ( $, .METRE. ) );
#91 = AXIS2_PLACEMENT_3D ( 'NONE', #10, #122, #265 ) ;
#92 = UNCERTAINTY_MEASURE_WITH_UNIT (LENGTH_MEASURE( 1.000000000000000082E-05 ), #275, 'distance_accuracy_value', 'NONE');
#93 = CARTESIAN_POINT ( 'NONE',  ( -1.836970198721029688E-16, 4.000000000000000000, 0.000000000000000000 ) ) ;
#94 = ORIENTED_EDGE ( 'NONE', *, *, #101, .F. ) ;
#95 = FILL_AREA_STYLE ('',( #141 ) ) ;
#96 = ORIENTED_EDGE ( 'NONE', *, *, #115, .T. ) ;
#97 = CARTESIAN_POINT ( 'NONE',  ( 0.000000000000000000, 2.000000000000000000, 0.000000000000000000 ) ) ;
#98 = ORIENTED_EDGE ( 'NONE', *, *, #302, .F. ) ;
#99 = COLOUR_RGB ( '',1.000000000000000000, 0.000000000000000000, 0.000000000000000000 ) ;
#100 = PLANE ( 'NONE',  #263 ) ;
#101 = EDGE_CURVE ( 'NONE', #32, #123, #208, .T. ) ;
#102 = CARTESIAN_POINT ( 'NONE',  ( -1.836970198721029688E-16, 4.000000000000000000, 0.000000000000000000 ) ) ;
#103 = CARTESIAN_POINT ( 'NONE',  ( -0.3750000000000000555, 2.000000000000000000, 0.000000000000000000 ) ) ;
#104 = DIRECTION ( 'NONE',  ( 1.000000000000000000, 9.184850993605148438E-17, 0.000000000000000000 ) ) ;
#105 = STYLED_ITEM ( 'NONE', ( #266 ), #83 ) ;
#106 = DIRECTION ( 'NONE',  ( -0.000000000000000000, -1.000000000000000000, -0.000000000000000000 ) ) ;
#107 = FACE_OUTER_BOUND ( 'NONE', #171, .T. ) ;
#108 = CARTESIAN_POINT ( 'NONE',  ( 0.000000000000000000, 2.000000000000000000, 0.000000000000000000 ) ) ;
#109 = DIRECTION ( 'NONE',  ( -9.184850993605148438E-17, 1.000000000000000000, -0.000000000000000000 ) ) ;
#110 =( GEOMETRIC_REPRESENTATION_CONTEXT ( 3 ) GLOBAL_UNCERTAINTY_ASSIGNED_CONTEXT ( ( #288 ) ) GLOBAL_UNIT_ASSIGNED_CONTEXT ( ( #89, #126, #39 ) ) REPRESENTATION_CONTEXT ( 'NONE', 'WORKASPACE' ) );
#111 = SURFACE_SIDE_STYLE ('',( #42 ) ) ;
#112 = FACE_OUTER_BOUND ( 'NONE', #285, .T. ) ;
#113 = ORIENTED_EDGE ( 'NONE', *, *, #302, .T. ) ;
#114 = DIRECTION ( 'NONE',  ( -1.000000000000000000, 0.000000000000000000, 0.000000000000000000 ) ) ;
#115 = EDGE_CURVE ( 'NONE', #32, #54, #127, .T. ) ;
#116 =( CONVERSION_BASED_UNIT ( 'INCH', #165 ) LENGTH_UNIT ( ) NAMED_UNIT ( #146 ) );
#117 =( LENGTH_UNIT ( ) NAMED_UNIT ( * ) SI_UNIT ( $, .METRE. ) );
#118 = AXIS2_PLACEMENT_3D ( 'NONE', #93, #231, #164 ) ;
#119 = STYLED_ITEM ( 'NONE', ( #7 ), #216 ) ;
#120 = DIRECTION ( 'NONE',  ( 1.000000000000000000, 0.000000000000000000, 0.000000000000000000 ) ) ;
#121 = VERTEX_POINT ( 'NONE', #17 ) ;
#122 = DIRECTION ( 'NONE',  ( -0.000000000000000000, -1.000000000000000000, -0.000000000000000000 ) ) ;
#123 = VERTEX_POINT ( 'NONE', #74 ) ;
#124 = PRODUCT_RELATED_PRODUCT_CATEGORY ( 'part', '', ( #45 ) ) ;
#125 =( LENGTH_UNIT ( ) NAMED_UNIT ( * ) SI_UNIT ( $, .METRE. ) );
#126 =( NAMED_UNIT ( * ) PLANE_ANGLE_UNIT ( ) SI_UNIT ( $, .RADIAN. ) );
#127 = CIRCLE ( 'NONE', #210, 0.3750000000000000555 ) ;
#128 = COLOUR_RGB ( '',1.000000000000000000, 0.000000000000000000, 0.000000000000000000 ) ;
#129 = CARTESIAN_POINT ( 'NONE',  ( 0.000000000000000000, 0.000000000000000000, -0.3750000000000000555 ) ) ;
#130 = LENGTH_MEASURE_WITH_UNIT ( LENGTH_MEASURE( 0.02539999999999999897 ), #60 );
#131 = CARTESIAN_POINT ( 'NONE',  ( 0.000000000000000000, 0.000000000000000000, 0.000000000000000000 ) ) ;
#132 = PRESENTATION_STYLE_ASSIGNMENT (( #198 ) ) ;
#133 = DIRECTION ( 'NONE',  ( -0.000000000000000000, -1.000000000000000000, -0.000000000000000000 ) ) ;
#134 = FILL_AREA_STYLE_COLOUR ( '', #99 ) ;
#135 = VECTOR ( 'NONE', #67, 39.37007874015748143 ) ;
#136 =( GEOMETRIC_REPRESENTATION_CONTEXT ( 3 ) GLOBAL_UNCERTAINTY_ASSIGNED_CONTEXT ( ( #4 ) ) GLOBAL_UNIT_ASSIGNED_CONTEXT ( ( #292, #271, #150 ) ) REPRESENTATION_CONTEXT ( 'NONE', 'WORKASPACE' ) );
#137 = PRESENTATION_STYLE_ASSIGNMENT (( #139 ) ) ;
#138 = SURFACE_STYLE_USAGE ( .BOTH. , #276 ) ;
#139 = SURFACE_STYLE_USAGE ( .BOTH. , #111 ) ;
#140 =( NAMED_UNIT ( * ) PLANE_ANGLE_UNIT ( ) SI_UNIT ( $, .RADIAN. ) );
#141 = FILL_AREA_STYLE_COLOUR ( '', #254 ) ;
#142 = ORIENTED_EDGE ( 'NONE', *, *, #282, .T. ) ;
#143 = APPLICATION_PROTOCOL_DEFINITION ( 'draft international standard', 'automotive_design', 1998, #279 ) ;
#144 = CIRCLE ( 'NONE', #48, 0.3750000000000000555 ) ;
#145 = STYLED_ITEM ( 'NONE', ( #137 ), #201 ) ;
#146 = DIMENSIONAL_EXPONENTS ( 1.000000000000000000, 0.000000000000000000, 0.000000000000000000, 0.000000000000000000, 0.000000000000000000, 0.000000000000000000, 0.000000000000000000 ) ;
#147 = AXIS2_PLACEMENT_3D ( 'NONE', #131, #133, #291 ) ;
#148 = SURFACE_SIDE_STYLE ('',( #81 ) ) ;
#149 = ORIENTED_EDGE ( 'NONE', *, *, #232, .F. ) ;
#150 =( NAMED_UNIT ( * ) SI_UNIT ( $, .STERADIAN. ) SOLID_ANGLE_UNIT ( ) );
#151 = DIRECTION ( 'NONE',  ( 9.184850993605148438E-17, -1.000000000000000000, 0.000000000000000000 ) ) ;
#152 = PRESENTATION_STYLE_ASSIGNMENT (( #85 ) ) ;
#153 = DIRECTION ( 'NONE',  ( -9.184850993605148438E-17, 1.000000000000000000, -0.000000000000000000 ) ) ;
#154 = SURFACE_STYLE_FILL_AREA ( #238 ) ;
#155 = CARTESIAN_POINT ( 'NONE',  ( 0.000000000000000000, 0.000000000000000000, -0.3750000000000000555 ) ) ;
#156 = AXIS2_PLACEMENT_3D ( 'NONE', #97, #79, #51 ) ;
#157 = DIRECTION ( 'NONE',  ( -9.184850993605148438E-17, 1.000000000000000000, -0.000000000000000000 ) ) ;
#158 = DIRECTION ( 'NONE',  ( 0.000000000000000000, 0.000000000000000000, -1.000000000000000000 ) ) ;
#159 = ORIENTED_EDGE ( 'NONE', *, *, #115, .F. ) ;
#160 =( NAMED_UNIT ( * ) SI_UNIT ( $, .STERADIAN. ) SOLID_ANGLE_UNIT ( ) );
#161 = CARTESIAN_POINT ( 'NONE',  ( -0.3750000000000002776, 4.000000000000000000, 0.000000000000000000 ) ) ;
#162 = ORIENTED_EDGE ( 'NONE', *, *, #191, .F. ) ;
#163 = APPLICATION_PROTOCOL_DEFINITION ( 'draft international standard', 'automotive_design', 1998, #16 ) ;
#164 = DIRECTION ( 'NONE',  ( -1.000000000000000000, 0.000000000000000000, 0.000000000000000000 ) ) ;
#165 = LENGTH_MEASURE_WITH_UNIT ( LENGTH_MEASURE( 0.02539999999999999897 ), #117 );
#166 =( NAMED_UNIT ( * ) SI_UNIT ( $, .STERADIAN. ) SOLID_ANGLE_UNIT ( ) );
#167 = VECTOR ( 'NONE', #109, 39.37007874015748143 ) ;
#168 = UNCERTAINTY_MEASURE_WITH_UNIT (LENGTH_MEASURE( 1.000000000000000082E-05 ), #290, 'distance_accuracy_value', 'NONE');
#169 = ORIENTED_EDGE ( 'NONE', *, *, #282, .F. ) ;
#170 = EDGE_CURVE ( 'NONE', #54, #32, #144, .T. ) ;
#171 = EDGE_LOOP ( 'NONE', ( #25, #305, #149, #162 ) ) ;
#172 = CIRCLE ( 'NONE', #63, 0.3750000000000002220 ) ;
#173 = PLANE ( 'NONE',  #221 ) ;
#174 = DIRECTION ( 'NONE',  ( -1.000000000000000000, 0.000000000000000000, 0.000000000000000000 ) ) ;
#175 = DIRECTION ( 'NONE',  ( -9.184850993605148438E-17, 1.000000000000000000, -0.000000000000000000 ) ) ;
#176 = CARTESIAN_POINT ( 'NONE',  ( -1.836970198721029688E-16, 4.000000000000000000, 0.000000000000000000 ) ) ;
#177 = SURFACE_STYLE_FILL_AREA ( #244 ) ;
#178 =( NAMED_UNIT ( * ) SI_UNIT ( $, .STERADIAN. ) SOLID_ANGLE_UNIT ( ) );
#179 = CIRCLE ( 'NONE', #118, 0.3750000000000002220 ) ;
#180 = PLANE ( 'NONE',  #156 ) ;
#181 = PRODUCT_DEFINITION_SHAPE ( 'NONE', 'NONE',  #255 ) ;
#182 = FILL_AREA_STYLE_COLOUR ( '', #35 ) ;
#183 = ORIENTED_EDGE ( 'NONE', *, *, #277, .T. ) ;
#184 = PRESENTATION_STYLE_ASSIGNMENT (( #138 ) ) ;
#185 = FACE_OUTER_BOUND ( 'NONE', #230, .T. ) ;
#186 = CARTESIAN_POINT ( 'NONE',  ( 4.592425496802575451E-17, 2.000000000000000000, 0.3750000000000000555 ) ) ;
#187 = ORIENTED_EDGE ( 'NONE', *, *, #277, .F. ) ;
#188 = DIRECTION ( 'NONE',  ( -1.000000000000000000, -9.184850993605148438E-17, 0.000000000000000000 ) ) ;
#189 = AXIS2_PLACEMENT_3D ( 'NONE', #225, #269, #223 ) ;
#190 =( GEOMETRIC_REPRESENTATION_CONTEXT ( 3 ) GLOBAL_UNCERTAINTY_ASSIGNED_CONTEXT ( ( #50 ) ) GLOBAL_UNIT_ASSIGNED_CONTEXT ( ( #70, #140, #178 ) ) REPRESENTATION_CONTEXT ( 'NONE', 'WORKASPACE' ) );
#191 = EDGE_CURVE ( 'NONE', #54, #121, #251, .T. ) ;
#192 = EDGE_LOOP ( 'NONE', ( #301, #142, #5, #252 ) ) ;
#193 = FILL_AREA_STYLE_COLOUR ( '', #128 ) ;
#194 = FACE_OUTER_BOUND ( 'NONE', #309, .T. ) ;
#195 = SURFACE_STYLE_FILL_AREA ( #268 ) ;
#196 = DIRECTION ( 'NONE',  ( -0.000000000000000000, -1.000000000000000000, -0.000000000000000000 ) ) ;
#197 = FACE_OUTER_BOUND ( 'NONE', #237, .T. ) ;
#198 = SURFACE_STYLE_USAGE ( .BOTH. , #66 ) ;
#199 = AXIS2_PLACEMENT_3D ( 'NONE', #176, #153, #293 ) ;
#200 = CLOSED_SHELL ( 'NONE', ( #1, #204, #216, #83 ) ) ;
#201 = MANIFOLD_SOLID_BREP ( 'Revolve - Tool Body (Straight Shanked)', #28 ) ;
#202 = CYLINDRICAL_SURFACE ( 'NONE', #147, 0.3750000000000000555 ) ;
#203 = CARTESIAN_POINT ( 'NONE',  ( 0.3750000000000000555, 2.000000000000000000, 4.592425496802576684E-17 ) ) ;
#204 = ADVANCED_FACE ( 'NONE', ( #112 ), #180, .T. ) ;
#205 = SURFACE_STYLE_FILL_AREA ( #95 ) ;
#206 = COLOUR_RGB ( '',0.7921568627450980005, 0.8196078431372548767, 0.9333333333333333481 ) ;
#207 = VERTEX_POINT ( 'NONE', #186 ) ;
#208 = LINE ( 'NONE', #229, #135 ) ;
#209 = ORIENTED_EDGE ( 'NONE', *, *, #170, .F. ) ;
#210 = AXIS2_PLACEMENT_3D ( 'NONE', #108, #250, #114 ) ;
#211 = EDGE_LOOP ( 'NONE', ( #94, #96, #75, #46 ) ) ;
#212 = ADVANCED_FACE ( 'NONE', ( #284 ), #100, .F. ) ;
#213 = DIRECTION ( 'NONE',  ( 0.000000000000000000, 0.000000000000000000, 1.000000000000000000 ) ) ;
#214 = AXIS2_PLACEMENT_3D ( 'NONE', #31, #222, #15 ) ;
#215 = PRODUCT_CONTEXT ( 'NONE', #279, 'mechanical' ) ;
#216 = ADVANCED_FACE ( 'NONE', ( #49 ), #202, .T. ) ;
#217 = SURFACE_SIDE_STYLE ('',( #195 ) ) ;
#218 = CARTESIAN_POINT ( 'NONE',  ( 0.000000000000000000, 2.000000000000000000, -0.3750000000000000555 ) ) ;
#219 = LINE ( 'NONE', #9, #24 ) ;
#220 = PRESENTATION_LAYER_ASSIGNMENT (  '', '', ( #249 ) ) ;
#221 = AXIS2_PLACEMENT_3D ( 'NONE', #59, #151, #104 ) ;
#222 = DIRECTION ( 'NONE',  ( -0.000000000000000000, -1.000000000000000000, -0.000000000000000000 ) ) ;
#223 = DIRECTION ( 'NONE',  ( 0.000000000000000000, 0.000000000000000000, -1.000000000000000000 ) ) ;
#224 = LENGTH_MEASURE_WITH_UNIT ( LENGTH_MEASURE( 0.02539999999999999897 ), #38 );
#225 = CARTESIAN_POINT ( 'NONE',  ( 0.000000000000000000, 0.000000000000000000, 0.000000000000000000 ) ) ;
#226 = PRESENTATION_LAYER_ASSIGNMENT (  '', '', ( #145 ) ) ;
#227 = LENGTH_MEASURE_WITH_UNIT ( LENGTH_MEASURE( 0.02539999999999999897 ), #21 );
#228 =( NAMED_UNIT ( * ) SI_UNIT ( $, .STERADIAN. ) SOLID_ANGLE_UNIT ( ) );
#229 = CARTESIAN_POINT ( 'NONE',  ( 0.3749999999999998890, 4.000000000000000000, 4.592425496802576068E-17 ) ) ;
#230 = EDGE_LOOP ( 'NONE', ( #113, #261, #187, #22 ) ) ;
#231 = DIRECTION ( 'NONE',  ( -9.184850993605148438E-17, 1.000000000000000000, -0.000000000000000000 ) ) ;
#232 = EDGE_CURVE ( 'NONE', #121, #123, #172, .T. ) ;
#233 = VERTEX_POINT ( 'NONE', #88 ) ;
#234 = MECHANICAL_DESIGN_GEOMETRIC_PRESENTATION_REPRESENTATION (  '', ( #286 ), #236 ) ;
#235 = CARTESIAN_POINT ( 'NONE',  ( 0.000000000000000000, 0.000000000000000000, 0.000000000000000000 ) ) ;
#236 =( GEOMETRIC_REPRESENTATION_CONTEXT ( 3 ) GLOBAL_UNCERTAINTY_ASSIGNED_CONTEXT ( ( #92 ) ) GLOBAL_UNIT_ASSIGNED_CONTEXT ( ( #275, #308, #166 ) ) REPRESENTATION_CONTEXT ( 'NONE', 'WORKASPACE' ) );
#237 = EDGE_LOOP ( 'NONE', ( #264, #278 ) ) ;
#238 = FILL_AREA_STYLE ('',( #73 ) ) ;
#239 = ADVANCED_FACE ( 'NONE', ( #197 ), #173, .F. ) ;
#240 = DIRECTION ( 'NONE',  ( -1.000000000000000000, 0.000000000000000000, 0.000000000000000000 ) ) ;
#241 = PLANE ( 'NONE',  #299 ) ;
#242 = PRODUCT_DEFINITION_FORMATION_WITH_SPECIFIED_SOURCE ( 'ANY', '', #45, .NOT_KNOWN. ) ;
#243 = DIRECTION ( 'NONE',  ( 0.000000000000000000, 0.000000000000000000, -1.000000000000000000 ) ) ;
#244 = FILL_AREA_STYLE ('',( #134 ) ) ;
#245 = DIMENSIONAL_EXPONENTS ( 1.000000000000000000, 0.000000000000000000, 0.000000000000000000, 0.000000000000000000, 0.000000000000000000, 0.000000000000000000, 0.000000000000000000 ) ;
#246 = FILL_AREA_STYLE ('',( #193 ) ) ;
#247 =( LENGTH_UNIT ( ) NAMED_UNIT ( * ) SI_UNIT ( $, .METRE. ) );
#248 = FACE_OUTER_BOUND ( 'NONE', #211, .T. ) ;
#249 = STYLED_ITEM ( 'NONE', ( #132 ), #1 ) ;
#250 = DIRECTION ( 'NONE',  ( -9.184850993605148438E-17, 1.000000000000000000, -0.000000000000000000 ) ) ;
#251 = LINE ( 'NONE', #161, #167 ) ;
#252 = ORIENTED_EDGE ( 'NONE', *, *, #6, .F. ) ;
#253 = MECHANICAL_DESIGN_GEOMETRIC_PRESENTATION_REPRESENTATION (  '', ( #249 ), #110 ) ;
#254 = COLOUR_RGB ( '',1.000000000000000000, 0.000000000000000000, 0.000000000000000000 ) ;
#255 = PRODUCT_DEFINITION ( 'UNKNOWN', '', #242, #56 ) ;
#256 = DIRECTION ( 'NONE',  ( -1.000000000000000000, 0.000000000000000000, 0.000000000000000000 ) ) ;
#257 = SHAPE_DEFINITION_REPRESENTATION ( #181, #23 ) ;
#258 = DIRECTION ( 'NONE',  ( -9.184850993605148438E-17, 1.000000000000000000, 0.000000000000000000 ) ) ;
#259 = CIRCLE ( 'NONE', #2, 0.3750000000000000555 ) ;
#260 = AXIS2_PLACEMENT_3D ( 'NONE', #235, #213, #120 ) ;
#261 = ORIENTED_EDGE ( 'NONE', *, *, #27, .T. ) ;
#262 = CARTESIAN_POINT ( 'NONE',  ( 0.000000000000000000, 0.000000000000000000, 0.000000000000000000 ) ) ;
#263 = AXIS2_PLACEMENT_3D ( 'NONE', #76, #258, #188 ) ;
#264 = ORIENTED_EDGE ( 'NONE', *, *, #232, .T. ) ;
#265 = DIRECTION ( 'NONE',  ( 0.000000000000000000, 0.000000000000000000, -1.000000000000000000 ) ) ;
#266 = PRESENTATION_STYLE_ASSIGNMENT (( #40 ) ) ;
#267 = DIMENSIONAL_EXPONENTS ( 1.000000000000000000, 0.000000000000000000, 0.000000000000000000, 0.000000000000000000, 0.000000000000000000, 0.000000000000000000, 0.000000000000000000 ) ;
#268 = FILL_AREA_STYLE ('',( #12 ) ) ;
#269 = DIRECTION ( 'NONE',  ( -0.000000000000000000, -1.000000000000000000, -0.000000000000000000 ) ) ;
#270 = COLOUR_RGB ( '',1.000000000000000000, 0.000000000000000000, 0.000000000000000000 ) ;
#271 =( NAMED_UNIT ( * ) PLANE_ANGLE_UNIT ( ) SI_UNIT ( $, .RADIAN. ) );
#272 = DIRECTION ( 'NONE',  ( -9.184850993605148438E-17, 1.000000000000000000, -0.000000000000000000 ) ) ;
#273 = EDGE_CURVE ( 'NONE', #80, #20, #36, .T. ) ;
#274 = UNCERTAINTY_MEASURE_WITH_UNIT (LENGTH_MEASURE( 1.000000000000000082E-05 ), #116, 'distance_accuracy_value', 'NONE');
#275 =( CONVERSION_BASED_UNIT ( 'INCH', #72 ) LENGTH_UNIT ( ) NAMED_UNIT ( #267 ) );
#276 = SURFACE_SIDE_STYLE ('',( #205 ) ) ;
#277 = EDGE_CURVE ( 'NONE', #20, #233, #44, .T. ) ;
#278 = ORIENTED_EDGE ( 'NONE', *, *, #87, .T. ) ;
#279 = APPLICATION_CONTEXT ( 'automotive_design' ) ;
#280 = MECHANICAL_DESIGN_GEOMETRIC_PRESENTATION_REPRESENTATION (  '', ( #105 ), #304 ) ;
#281 = CYLINDRICAL_SURFACE ( 'NONE', #189, 0.3750000000000000555 ) ;
#282 = EDGE_CURVE ( 'NONE', #207, #80, #68, .T. ) ;
#283 = CARTESIAN_POINT ( 'NONE',  ( 0.000000000000000000, 0.000000000000000000, 0.000000000000000000 ) ) ;
#284 = FACE_OUTER_BOUND ( 'NONE', #71, .T. ) ;
#285 = EDGE_LOOP ( 'NONE', ( #98, #169 ) ) ;
#286 = STYLED_ITEM ( 'NONE', ( #184 ), #204 ) ;
#287 = ORIENTED_EDGE ( 'NONE', *, *, #6, .T. ) ;
#288 = UNCERTAINTY_MEASURE_WITH_UNIT (LENGTH_MEASURE( 1.000000000000000082E-05 ), #89, 'distance_accuracy_value', 'NONE');
#289 =( CONVERSION_BASED_UNIT ( 'INCH', #224 ) LENGTH_UNIT ( ) NAMED_UNIT ( #55 ) );
#290 =( CONVERSION_BASED_UNIT ( 'INCH', #130 ) LENGTH_UNIT ( ) NAMED_UNIT ( #245 ) );
#291 = DIRECTION ( 'NONE',  ( 0.000000000000000000, 0.000000000000000000, -1.000000000000000000 ) ) ;
#292 =( CONVERSION_BASED_UNIT ( 'INCH', #84 ) LENGTH_UNIT ( ) NAMED_UNIT ( #296 ) );
#293 = DIRECTION ( 'NONE',  ( -1.000000000000000000, 0.000000000000000000, 0.000000000000000000 ) ) ;
#294 = DIRECTION ( 'NONE',  ( -0.000000000000000000, -1.000000000000000000, -0.000000000000000000 ) ) ;
#295 = DIRECTION ( 'NONE',  ( 0.000000000000000000, 0.000000000000000000, -1.000000000000000000 ) ) ;
#296 = DIMENSIONAL_EXPONENTS ( 1.000000000000000000, 0.000000000000000000, 0.000000000000000000, 0.000000000000000000, 0.000000000000000000, 0.000000000000000000, 0.000000000000000000 ) ;
#297 = VECTOR ( 'NONE', #106, 39.37007874015748143 ) ;
#298 = LENGTH_MEASURE_WITH_UNIT ( LENGTH_MEASURE( 0.02539999999999999897 ), #247 );
#299 = AXIS2_PLACEMENT_3D ( 'NONE', #283, #303, #158 ) ;
#300 = PRESENTATION_LAYER_ASSIGNMENT (  '', '', ( #119 ) ) ;
#301 = ORIENTED_EDGE ( 'NONE', *, *, #27, .F. ) ;
#302 = EDGE_CURVE ( 'NONE', #80, #207, #3, .T. ) ;
#303 = DIRECTION ( 'NONE',  ( 0.000000000000000000, -1.000000000000000000, -0.000000000000000000 ) ) ;
#304 =( GEOMETRIC_REPRESENTATION_CONTEXT ( 3 ) GLOBAL_UNCERTAINTY_ASSIGNED_CONTEXT ( ( #168 ) ) GLOBAL_UNIT_ASSIGNED_CONTEXT ( ( #290, #11, #228 ) ) REPRESENTATION_CONTEXT ( 'NONE', 'WORKASPACE' ) );
#305 = ORIENTED_EDGE ( 'NONE', *, *, #101, .T. ) ;
#306 =( GEOMETRIC_REPRESENTATION_CONTEXT ( 3 ) GLOBAL_UNCERTAINTY_ASSIGNED_CONTEXT ( ( #34 ) ) GLOBAL_UNIT_ASSIGNED_CONTEXT ( ( #289, #18, #160 ) ) REPRESENTATION_CONTEXT ( 'NONE', 'WORKASPACE' ) );
#307 = MANIFOLD_SOLID_BREP ( 'Revolve - Cutting Edge', #200 ) ;
#308 =( NAMED_UNIT ( * ) PLANE_ANGLE_UNIT ( ) SI_UNIT ( $, .RADIAN. ) );
#309 = EDGE_LOOP ( 'NONE', ( #183, #287 ) ) ;
ENDSEC;
END-ISO-10303-21;
