ISO-10303-21;
HEADER;
FILE_DESCRIPTION (( 'STEP AP214' ),
    '1' );
FILE_NAME ('Micro_RNC-125-2X.STEP',
    '2021-09-03T17:33:48',
    ( '' ),
    ( '' ),
    'SwSTEP 2.0',
    'SolidWorks 2020',
    '' );
FILE_SCHEMA (( 'AUTOMOTIVE_DESIGN' ));
ENDSEC;

DATA;
#1 = CARTESIAN_POINT ( 'NONE',  ( 0.004000000000000000083, 0.0000000000000000000, 2.000000000000000000 ) ) ;
#2 = CARTESIAN_POINT ( 'NONE',  ( 0.0000000000000000000, 0.0000000000000000000, 0.0000000000000000000 ) ) ;
#3 = SURFACE_STYLE_USAGE ( .BOTH. , #245 ) ;
#4 = DIRECTION ( 'NONE',  ( 1.000000000000000000, 0.0000000000000000000, -0.0000000000000000000 ) ) ;
#5 = PRODUCT_DEFINITION_FORMATION_WITH_SPECIFIED_SOURCE ( 'ANY', '', #226, .NOT_KNOWN. ) ;
#6 = CARTESIAN_POINT ( 'NONE',  ( -0.06250000000000000000, 0.0000000000000000000, 2.000000000000000000 ) ) ;
#7 = UNCERTAINTY_MEASURE_WITH_UNIT (LENGTH_MEASURE( 1.000000000000000082E-05 ), #126, 'distance_accuracy_value', 'NONE');
#8 = ORIENTED_EDGE ( 'NONE', *, *, #54, .T. ) ;
#9 = CARTESIAN_POINT ( 'NONE',  ( 0.0000000000000000000, 0.0000000000000000000, 0.0000000000000000000 ) ) ;
#10 = CARTESIAN_POINT ( 'NONE',  ( 0.06250000000000000000, 7.654042494670957545E-18, 1.941500000000000226 ) ) ;
#11 =( GEOMETRIC_REPRESENTATION_CONTEXT ( 3 ) GLOBAL_UNCERTAINTY_ASSIGNED_CONTEXT ( ( #196 ) ) GLOBAL_UNIT_ASSIGNED_CONTEXT ( ( #32, #70, #102 ) ) REPRESENTATION_CONTEXT ( 'NONE', 'WORKASPACE' ) );
#12 = CARTESIAN_POINT ( 'NONE',  ( 0.0000000000000000000, 0.0000000000000000000, 2.000000000000000000 ) ) ;
#13 = PRESENTATION_STYLE_ASSIGNMENT (( #179 ) ) ;
#14 = DIRECTION ( 'NONE',  ( -0.0000000000000000000, -0.0000000000000000000, -1.000000000000000000 ) ) ;
#15 = AXIS2_PLACEMENT_3D ( 'NONE', #19, #58, #224 ) ;
#16 = VERTEX_POINT ( 'NONE', #25 ) ;
#17 = ADVANCED_FACE ( 'NONE', ( #79 ), #210, .T. ) ;
#18 = CIRCLE ( 'NONE', #161, 0.06250000000000000000 ) ;
#19 = CARTESIAN_POINT ( 'NONE',  ( 0.0000000000000000000, 0.0000000000000000000, 0.0000000000000000000 ) ) ;
#20 = DIRECTION ( 'NONE',  ( -1.000000000000000000, 0.0000000000000000000, 0.0000000000000000000 ) ) ;
#21 = ORIENTED_EDGE ( 'NONE', *, *, #113, .T. ) ;
#22 = AXIS2_PLACEMENT_3D ( 'NONE', #125, #49, #69 ) ;
#23 = LINE ( 'NONE', #73, #216 ) ;
#24 = PRESENTATION_LAYER_ASSIGNMENT (  '', '', ( #221 ) ) ;
#25 = CARTESIAN_POINT ( 'NONE',  ( 0.06250000000000000000, 7.654042494670957545E-18, 0.05849999999999978134 ) ) ;
#26 = EDGE_CURVE ( 'NONE', #139, #91, #168, .T. ) ;
#27 = LINE ( 'NONE', #62, #199 ) ;
#28 = ORIENTED_EDGE ( 'NONE', *, *, #61, .F. ) ;
#29 = CONICAL_SURFACE ( 'NONE', #15, 0.004000000000000000083, 0.7853981633974501664 ) ;
#30 = ORIENTED_EDGE ( 'NONE', *, *, #204, .F. ) ;
#31 = EDGE_CURVE ( 'NONE', #65, #16, #27, .T. ) ;
#32 =( CONVERSION_BASED_UNIT ( 'INCH', #193 ) LENGTH_UNIT ( ) NAMED_UNIT ( #206 ) );
#33 = CARTESIAN_POINT ( 'NONE',  ( 0.0000000000000000000, 0.0000000000000000000, 1.941500000000000226 ) ) ;
#34 = DIRECTION ( 'NONE',  ( -1.000000000000000000, 0.0000000000000000000, 0.0000000000000000000 ) ) ;
#35 = AXIS2_PLACEMENT_3D ( 'NONE', #47, #228, #4 ) ;
#36 = ORIENTED_EDGE ( 'NONE', *, *, #31, .F. ) ;
#37 = EDGE_CURVE ( 'NONE', #65, #42, #185, .T. ) ;
#38 =( NAMED_UNIT ( * ) SI_UNIT ( $, .STERADIAN. ) SOLID_ANGLE_UNIT ( ) );
#39 = ORIENTED_EDGE ( 'NONE', *, *, #37, .F. ) ;
#40 = CARTESIAN_POINT ( 'NONE',  ( 0.0000000000000000000, 0.0000000000000000000, 0.05849999999999978134 ) ) ;
#41 = MECHANICAL_DESIGN_GEOMETRIC_PRESENTATION_REPRESENTATION (  '', ( #221 ), #11 ) ;
#42 = VERTEX_POINT ( 'NONE', #171 ) ;
#43 = DIRECTION ( 'NONE',  ( -0.0000000000000000000, -0.0000000000000000000, -1.000000000000000000 ) ) ;
#44 = EDGE_LOOP ( 'NONE', ( #8, #205, #39, #138 ) ) ;
#45 = EDGE_CURVE ( 'NONE', #91, #139, #74, .T. ) ;
#46 = CIRCLE ( 'NONE', #181, 0.004000000000000000083 ) ;
#47 = CARTESIAN_POINT ( 'NONE',  ( 0.0000000000000000000, 0.0000000000000000000, 2.000000000000000000 ) ) ;
#48 = DIRECTION ( 'NONE',  ( -0.0000000000000000000, -0.0000000000000000000, -1.000000000000000000 ) ) ;
#49 = DIRECTION ( 'NONE',  ( 0.0000000000000000000, 0.0000000000000000000, -1.000000000000000000 ) ) ;
#50 =( GEOMETRIC_REPRESENTATION_CONTEXT ( 3 ) GLOBAL_UNCERTAINTY_ASSIGNED_CONTEXT ( ( #7 ) ) GLOBAL_UNIT_ASSIGNED_CONTEXT ( ( #126, #202, #182 ) ) REPRESENTATION_CONTEXT ( 'NONE', 'WORKASPACE' ) );
#51 = STYLED_ITEM ( 'NONE', ( #112 ), #103 ) ;
#52 = CARTESIAN_POINT ( 'NONE',  ( 0.004000000000000000083, 0.0000000000000000000, 2.000000000000000000 ) ) ;
#53 = DIRECTION ( 'NONE',  ( 0.0000000000000000000, 0.0000000000000000000, -1.000000000000000000 ) ) ;
#54 = EDGE_CURVE ( 'NONE', #212, #192, #46, .T. ) ;
#55 = FACE_OUTER_BOUND ( 'NONE', #150, .T. ) ;
#56 = PRODUCT_CONTEXT ( 'NONE', #203, 'mechanical' ) ;
#57 = CARTESIAN_POINT ( 'NONE',  ( 0.0000000000000000000, 0.0000000000000000000, 2.000000000000000000 ) ) ;
#58 = DIRECTION ( 'NONE',  ( 0.0000000000000000000, 0.0000000000000000000, 1.000000000000000000 ) ) ;
#59 = DIRECTION ( 'NONE',  ( 0.0000000000000000000, 0.0000000000000000000, -1.000000000000000000 ) ) ;
#60 = DIRECTION ( 'NONE',  ( -0.7071067811865487940, 8.659560562354948882E-17, 0.7071067811865462405 ) ) ;
#61 = EDGE_CURVE ( 'NONE', #42, #133, #174, .T. ) ;
#62 = CARTESIAN_POINT ( 'NONE',  ( 0.06250000000000000000, 7.654042494670957545E-18, 2.000000000000000000 ) ) ;
#63 = EDGE_LOOP ( 'NONE', ( #30, #249, #21, #80 ) ) ;
#64 = ORIENTED_EDGE ( 'NONE', *, *, #45, .T. ) ;
#65 = VERTEX_POINT ( 'NONE', #10 ) ;
#66 = VECTOR ( 'NONE', #215, 39.37007874015748143 ) ;
#67 = FILL_AREA_STYLE_COLOUR ( '', #127 ) ;
#68 = UNCERTAINTY_MEASURE_WITH_UNIT (LENGTH_MEASURE( 1.000000000000000082E-05 ), #93, 'distance_accuracy_value', 'NONE');
#69 = DIRECTION ( 'NONE',  ( 1.000000000000000000, 0.0000000000000000000, 0.0000000000000000000 ) ) ;
#70 =( NAMED_UNIT ( * ) PLANE_ANGLE_UNIT ( ) SI_UNIT ( $, .RADIAN. ) );
#71 = FILL_AREA_STYLE ('',( #67 ) ) ;
#72 = CYLINDRICAL_SURFACE ( 'NONE', #186, 0.06250000000000000000 ) ;
#73 = CARTESIAN_POINT ( 'NONE',  ( -0.004000000000000000083, 4.898587196589413537E-19, 0.0000000000000000000 ) ) ;
#74 = CIRCLE ( 'NONE', #225, 0.004000000000000000083 ) ;
#75 = CARTESIAN_POINT ( 'NONE',  ( 0.0000000000000000000, 0.0000000000000000000, 1.941500000000000226 ) ) ;
#76 = EDGE_CURVE ( 'NONE', #192, #212, #108, .T. ) ;
#77 =( LENGTH_UNIT ( ) NAMED_UNIT ( * ) SI_UNIT ( $, .METRE. ) );
#78 = ORIENTED_EDGE ( 'NONE', *, *, #204, .T. ) ;
#79 = FACE_OUTER_BOUND ( 'NONE', #236, .T. ) ;
#80 = ORIENTED_EDGE ( 'NONE', *, *, #227, .T. ) ;
#81 = CONICAL_SURFACE ( 'NONE', #22, 0.004000000000000000083, 0.7853981633974501664 ) ;
#82 = AXIS2_PLACEMENT_3D ( 'NONE', #33, #53, #217 ) ;
#83 = CARTESIAN_POINT ( 'NONE',  ( 0.004000000000000000083, 0.0000000000000000000, 0.0000000000000000000 ) ) ;
#84 = CARTESIAN_POINT ( 'NONE',  ( 0.0000000000000000000, 0.0000000000000000000, 2.000000000000000000 ) ) ;
#85 = DIRECTION ( 'NONE',  ( 1.000000000000000000, 0.0000000000000000000, 0.0000000000000000000 ) ) ;
#86 = LINE ( 'NONE', #237, #66 ) ;
#87 = ADVANCED_FACE ( 'NONE', ( #177 ), #81, .T. ) ;
#88 = DIMENSIONAL_EXPONENTS ( 1.000000000000000000, 0.0000000000000000000, 0.0000000000000000000, 0.0000000000000000000, 0.0000000000000000000, 0.0000000000000000000, 0.0000000000000000000 ) ;
#89 = ORIENTED_EDGE ( 'NONE', *, *, #146, .T. ) ;
#90 = AXIS2_PLACEMENT_3D ( 'NONE', #214, #243, #197 ) ;
#91 = VERTEX_POINT ( 'NONE', #83 ) ;
#92 = CARTESIAN_POINT ( 'NONE',  ( 0.0000000000000000000, 0.0000000000000000000, 0.0000000000000000000 ) ) ;
#93 =( CONVERSION_BASED_UNIT ( 'INCH', #94 ) LENGTH_UNIT ( ) NAMED_UNIT ( #229 ) );
#94 = LENGTH_MEASURE_WITH_UNIT ( LENGTH_MEASURE( 0.02539999999999999897 ), #148 );
#95 = ADVANCED_FACE ( 'NONE', ( #124 ), #145, .T. ) ;
#96 = DIRECTION ( 'NONE',  ( -0.0000000000000000000, -0.0000000000000000000, -1.000000000000000000 ) ) ;
#97 = SURFACE_STYLE_FILL_AREA ( #132 ) ;
#98 = ORIENTED_EDGE ( 'NONE', *, *, #61, .T. ) ;
#99 = DIRECTION ( 'NONE',  ( -1.000000000000000000, 0.0000000000000000000, 0.0000000000000000000 ) ) ;
#100 = CLOSED_SHELL ( 'NONE', ( #129, #222, #140, #247, #95, #188, #87, #17 ) ) ;
#101 = EDGE_LOOP ( 'NONE', ( #89, #151, #211, #28 ) ) ;
#102 =( NAMED_UNIT ( * ) SI_UNIT ( $, .STERADIAN. ) SOLID_ANGLE_UNIT ( ) );
#103 = ADVANCED_BREP_SHAPE_REPRESENTATION ( 'Micro_RNC-125-2X', ( #176, #183 ), #233 ) ;
#104 = PRODUCT_RELATED_PRODUCT_CATEGORY ( 'part', '', ( #226 ) ) ;
#105 =( LENGTH_UNIT ( ) NAMED_UNIT ( * ) SI_UNIT ( $, .METRE. ) );
#106 = CARTESIAN_POINT ( 'NONE',  ( 0.004000000000000000083, 0.0000000000000000000, 0.0000000000000000000 ) ) ;
#107 = SURFACE_STYLE_FILL_AREA ( #71 ) ;
#108 = CIRCLE ( 'NONE', #248, 0.004000000000000000083 ) ;
#109 = EDGE_CURVE ( 'NONE', #192, #42, #86, .T. ) ;
#110 = DIRECTION ( 'NONE',  ( 1.000000000000000000, 0.0000000000000000000, 0.0000000000000000000 ) ) ;
#111 = MECHANICAL_DESIGN_GEOMETRIC_PRESENTATION_REPRESENTATION (  '', ( #51 ), #50 ) ;
#112 = PRESENTATION_STYLE_ASSIGNMENT (( #3 ) ) ;
#113 = EDGE_CURVE ( 'NONE', #91, #16, #157, .T. ) ;
#114 = ORIENTED_EDGE ( 'NONE', *, *, #113, .F. ) ;
#115 = DIRECTION ( 'NONE',  ( -1.000000000000000000, 0.0000000000000000000, 0.0000000000000000000 ) ) ;
#116 = DIRECTION ( 'NONE',  ( -0.0000000000000000000, -0.0000000000000000000, -1.000000000000000000 ) ) ;
#117 = DIRECTION ( 'NONE',  ( -1.000000000000000000, 0.0000000000000000000, 0.0000000000000000000 ) ) ;
#118 = ORIENTED_EDGE ( 'NONE', *, *, #37, .T. ) ;
#119 = PRODUCT_DEFINITION_SHAPE ( 'NONE', 'NONE',  #239 ) ;
#120 = EDGE_LOOP ( 'NONE', ( #190, #78, #154, #114 ) ) ;
#121 = EDGE_CURVE ( 'NONE', #133, #16, #244, .T. ) ;
#122 = CARTESIAN_POINT ( 'NONE',  ( -0.06250000000000000000, 0.0000000000000000000, 0.05849999999999978134 ) ) ;
#123 = CARTESIAN_POINT ( 'NONE',  ( -0.004000000000000000083, 4.071950607164948872E-18, 0.0000000000000000000 ) ) ;
#124 = FACE_OUTER_BOUND ( 'NONE', #63, .T. ) ;
#125 = CARTESIAN_POINT ( 'NONE',  ( 0.0000000000000000000, 0.0000000000000000000, 2.000000000000000000 ) ) ;
#126 =( CONVERSION_BASED_UNIT ( 'INCH', #167 ) LENGTH_UNIT ( ) NAMED_UNIT ( #88 ) );
#127 = COLOUR_RGB ( '',0.7921568627450980005, 0.8196078431372548767, 0.9333333333333333481 ) ;
#128 = SHAPE_DEFINITION_REPRESENTATION ( #119, #103 ) ;
#129 = ADVANCED_FACE ( 'NONE', ( #219 ), #195, .T. ) ;
#130 = FACE_OUTER_BOUND ( 'NONE', #175, .T. ) ;
#131 = CARTESIAN_POINT ( 'NONE',  ( 0.0000000000000000000, 0.0000000000000000000, 0.0000000000000000000 ) ) ;
#132 = FILL_AREA_STYLE ('',( #189 ) ) ;
#133 = VERTEX_POINT ( 'NONE', #122 ) ;
#134 = FACE_OUTER_BOUND ( 'NONE', #120, .T. ) ;
#135 = DIRECTION ( 'NONE',  ( -1.000000000000000000, 0.0000000000000000000, 0.0000000000000000000 ) ) ;
#136 = AXIS2_PLACEMENT_3D ( 'NONE', #159, #48, #34 ) ;
#137 = DIRECTION ( 'NONE',  ( 0.0000000000000000000, 0.0000000000000000000, -1.000000000000000000 ) ) ;
#138 = ORIENTED_EDGE ( 'NONE', *, *, #164, .F. ) ;
#139 = VERTEX_POINT ( 'NONE', #123 ) ;
#140 = ADVANCED_FACE ( 'NONE', ( #194 ), #72, .T. ) ;
#141 = LINE ( 'NONE', #52, #147 ) ;
#142 = APPLICATION_CONTEXT ( 'automotive_design' ) ;
#143 = DIRECTION ( 'NONE',  ( -1.000000000000000000, 0.0000000000000000000, 0.0000000000000000000 ) ) ;
#144 = DIRECTION ( 'NONE',  ( 0.7071067811865487940, 0.0000000000000000000, -0.7071067811865462405 ) ) ;
#145 = CONICAL_SURFACE ( 'NONE', #238, 0.004000000000000000083, 0.7853981633974501664 ) ;
#146 = EDGE_CURVE ( 'NONE', #42, #65, #232, .T. ) ;
#147 = VECTOR ( 'NONE', #144, 39.37007874015748143 ) ;
#148 =( LENGTH_UNIT ( ) NAMED_UNIT ( * ) SI_UNIT ( $, .METRE. ) );
#149 = DIRECTION ( 'NONE',  ( 0.0000000000000000000, 0.0000000000000000000, 1.000000000000000000 ) ) ;
#150 = EDGE_LOOP ( 'NONE', ( #36, #118, #98, #200 ) ) ;
#151 = ORIENTED_EDGE ( 'NONE', *, *, #31, .T. ) ;
#152 = DIRECTION ( 'NONE',  ( -1.000000000000000000, 0.0000000000000000000, 0.0000000000000000000 ) ) ;
#153 = AXIS2_PLACEMENT_3D ( 'NONE', #57, #246, #115 ) ;
#154 = ORIENTED_EDGE ( 'NONE', *, *, #121, .T. ) ;
#155 = ORIENTED_EDGE ( 'NONE', *, *, #54, .F. ) ;
#156 = DIRECTION ( 'NONE',  ( 0.0000000000000000000, 0.0000000000000000000, -1.000000000000000000 ) ) ;
#157 = LINE ( 'NONE', #106, #208 ) ;
#158 = DIRECTION ( 'NONE',  ( -0.0000000000000000000, -0.0000000000000000000, -1.000000000000000000 ) ) ;
#159 = CARTESIAN_POINT ( 'NONE',  ( 0.0000000000000000000, 0.0000000000000000000, 0.05849999999999978134 ) ) ;
#160 = AXIS2_PLACEMENT_3D ( 'NONE', #169, #96, #99 ) ;
#161 = AXIS2_PLACEMENT_3D ( 'NONE', #40, #170, #20 ) ;
#162 = DIRECTION ( 'NONE',  ( 0.7071067811865487940, 0.0000000000000000000, 0.7071067811865462405 ) ) ;
#163 = PRODUCT_DEFINITION_CONTEXT ( 'detailed design', #142, 'design' ) ;
#164 = EDGE_CURVE ( 'NONE', #212, #65, #141, .T. ) ;
#165 = ORIENTED_EDGE ( 'NONE', *, *, #26, .T. ) ;
#166 = APPLICATION_PROTOCOL_DEFINITION ( 'draft international standard', 'automotive_design', 1998, #203 ) ;
#167 = LENGTH_MEASURE_WITH_UNIT ( LENGTH_MEASURE( 0.02539999999999999897 ), #77 );
#168 = CIRCLE ( 'NONE', #160, 0.004000000000000000083 ) ;
#169 = CARTESIAN_POINT ( 'NONE',  ( 0.0000000000000000000, 0.0000000000000000000, 0.0000000000000000000 ) ) ;
#170 = DIRECTION ( 'NONE',  ( -0.0000000000000000000, -0.0000000000000000000, -1.000000000000000000 ) ) ;
#171 = CARTESIAN_POINT ( 'NONE',  ( -0.06250000000000000000, 0.0000000000000000000, 1.941500000000000226 ) ) ;
#172 = CARTESIAN_POINT ( 'NONE',  ( -0.004000000000000000083, -4.071950607164948872E-18, 2.000000000000000000 ) ) ;
#173 = ORIENTED_EDGE ( 'NONE', *, *, #76, .T. ) ;
#174 = LINE ( 'NONE', #6, #213 ) ;
#175 = EDGE_LOOP ( 'NONE', ( #64, #165 ) ) ;
#176 = MANIFOLD_SOLID_BREP ( 'Mirror1', #100 ) ;
#177 = FACE_OUTER_BOUND ( 'NONE', #209, .T. ) ;
#178 = AXIS2_PLACEMENT_3D ( 'NONE', #92, #149, #230 ) ;
#179 = SURFACE_STYLE_USAGE ( .BOTH. , #180 ) ;
#180 = SURFACE_SIDE_STYLE ('',( #107 ) ) ;
#181 = AXIS2_PLACEMENT_3D ( 'NONE', #234, #137, #117 ) ;
#182 =( NAMED_UNIT ( * ) SI_UNIT ( $, .STERADIAN. ) SOLID_ANGLE_UNIT ( ) );
#183 = AXIS2_PLACEMENT_3D ( 'NONE', #131, #220, #110 ) ;
#184 =( NAMED_UNIT ( * ) PLANE_ANGLE_UNIT ( ) SI_UNIT ( $, .RADIAN. ) );
#185 = CIRCLE ( 'NONE', #242, 0.06250000000000000000 ) ;
#186 = AXIS2_PLACEMENT_3D ( 'NONE', #84, #158, #143 ) ;
#187 = ORIENTED_EDGE ( 'NONE', *, *, #109, .F. ) ;
#188 = ADVANCED_FACE ( 'NONE', ( #130 ), #240, .F. ) ;
#189 = FILL_AREA_STYLE_COLOUR ( '', #201 ) ;
#190 = ORIENTED_EDGE ( 'NONE', *, *, #26, .F. ) ;
#191 = ORIENTED_EDGE ( 'NONE', *, *, #76, .F. ) ;
#192 = VERTEX_POINT ( 'NONE', #172 ) ;
#193 = LENGTH_MEASURE_WITH_UNIT ( LENGTH_MEASURE( 0.02539999999999999897 ), #105 );
#194 = FACE_OUTER_BOUND ( 'NONE', #101, .T. ) ;
#195 = CONICAL_SURFACE ( 'NONE', #90, 0.004000000000000000083, 0.7853981633974501664 ) ;
#196 = UNCERTAINTY_MEASURE_WITH_UNIT (LENGTH_MEASURE( 1.000000000000000082E-05 ), #32, 'distance_accuracy_value', 'NONE');
#197 = DIRECTION ( 'NONE',  ( 1.000000000000000000, 0.0000000000000000000, 0.0000000000000000000 ) ) ;
#198 = DIRECTION ( 'NONE',  ( -1.000000000000000000, 0.0000000000000000000, 0.0000000000000000000 ) ) ;
#199 = VECTOR ( 'NONE', #43, 39.37007874015748143 ) ;
#200 = ORIENTED_EDGE ( 'NONE', *, *, #227, .F. ) ;
#201 = COLOUR_RGB ( '',0.7921568627450980005, 0.8196078431372548767, 0.9333333333333333481 ) ;
#202 =( NAMED_UNIT ( * ) PLANE_ANGLE_UNIT ( ) SI_UNIT ( $, .RADIAN. ) );
#203 = APPLICATION_CONTEXT ( 'automotive_design' ) ;
#204 = EDGE_CURVE ( 'NONE', #139, #133, #23, .T. ) ;
#205 = ORIENTED_EDGE ( 'NONE', *, *, #109, .T. ) ;
#206 = DIMENSIONAL_EXPONENTS ( 1.000000000000000000, 0.0000000000000000000, 0.0000000000000000000, 0.0000000000000000000, 0.0000000000000000000, 0.0000000000000000000, 0.0000000000000000000 ) ;
#207 = CYLINDRICAL_SURFACE ( 'NONE', #153, 0.06250000000000000000 ) ;
#208 = VECTOR ( 'NONE', #162, 39.37007874015748143 ) ;
#209 = EDGE_LOOP ( 'NONE', ( #187, #173, #231, #235 ) ) ;
#210 = PLANE ( 'NONE',  #35 ) ;
#211 = ORIENTED_EDGE ( 'NONE', *, *, #121, .F. ) ;
#212 = VERTEX_POINT ( 'NONE', #1 ) ;
#213 = VECTOR ( 'NONE', #14, 39.37007874015748143 ) ;
#214 = CARTESIAN_POINT ( 'NONE',  ( 0.0000000000000000000, 0.0000000000000000000, 2.000000000000000000 ) ) ;
#215 = DIRECTION ( 'NONE',  ( -0.7071067811865487940, -8.659560562354948882E-17, -0.7071067811865462405 ) ) ;
#216 = VECTOR ( 'NONE', #60, 39.37007874015748143 ) ;
#217 = DIRECTION ( 'NONE',  ( -1.000000000000000000, 0.0000000000000000000, 0.0000000000000000000 ) ) ;
#218 = PRESENTATION_LAYER_ASSIGNMENT (  '', '', ( #51 ) ) ;
#219 = FACE_OUTER_BOUND ( 'NONE', #44, .T. ) ;
#220 = DIRECTION ( 'NONE',  ( 0.0000000000000000000, 0.0000000000000000000, 1.000000000000000000 ) ) ;
#221 = STYLED_ITEM ( 'NONE', ( #13 ), #176 ) ;
#222 = ADVANCED_FACE ( 'NONE', ( #134 ), #29, .T. ) ;
#223 = APPLICATION_PROTOCOL_DEFINITION ( 'draft international standard', 'automotive_design', 1998, #142 ) ;
#224 = DIRECTION ( 'NONE',  ( 1.000000000000000000, 0.0000000000000000000, 0.0000000000000000000 ) ) ;
#225 = AXIS2_PLACEMENT_3D ( 'NONE', #2, #116, #135 ) ;
#226 = PRODUCT ( 'Micro_RNC-125-2X', 'Micro_RNC-125-2X', '', ( #56 ) ) ;
#227 = EDGE_CURVE ( 'NONE', #16, #133, #18, .T. ) ;
#228 = DIRECTION ( 'NONE',  ( 0.0000000000000000000, 0.0000000000000000000, 1.000000000000000000 ) ) ;
#229 = DIMENSIONAL_EXPONENTS ( 1.000000000000000000, 0.0000000000000000000, 0.0000000000000000000, 0.0000000000000000000, 0.0000000000000000000, 0.0000000000000000000, 0.0000000000000000000 ) ;
#230 = DIRECTION ( 'NONE',  ( 1.000000000000000000, 0.0000000000000000000, -0.0000000000000000000 ) ) ;
#231 = ORIENTED_EDGE ( 'NONE', *, *, #164, .T. ) ;
#232 = CIRCLE ( 'NONE', #82, 0.06250000000000000000 ) ;
#233 =( GEOMETRIC_REPRESENTATION_CONTEXT ( 3 ) GLOBAL_UNCERTAINTY_ASSIGNED_CONTEXT ( ( #68 ) ) GLOBAL_UNIT_ASSIGNED_CONTEXT ( ( #93, #184, #38 ) ) REPRESENTATION_CONTEXT ( 'NONE', 'WORKASPACE' ) );
#234 = CARTESIAN_POINT ( 'NONE',  ( 0.0000000000000000000, 0.0000000000000000000, 2.000000000000000000 ) ) ;
#235 = ORIENTED_EDGE ( 'NONE', *, *, #146, .F. ) ;
#236 = EDGE_LOOP ( 'NONE', ( #155, #191 ) ) ;
#237 = CARTESIAN_POINT ( 'NONE',  ( -0.004000000000000000083, -4.898587196589413537E-19, 2.000000000000000000 ) ) ;
#238 = AXIS2_PLACEMENT_3D ( 'NONE', #9, #241, #85 ) ;
#239 = PRODUCT_DEFINITION ( 'UNKNOWN', '', #5, #163 ) ;
#240 = PLANE ( 'NONE',  #178 ) ;
#241 = DIRECTION ( 'NONE',  ( 0.0000000000000000000, 0.0000000000000000000, 1.000000000000000000 ) ) ;
#242 = AXIS2_PLACEMENT_3D ( 'NONE', #75, #59, #152 ) ;
#243 = DIRECTION ( 'NONE',  ( 0.0000000000000000000, 0.0000000000000000000, -1.000000000000000000 ) ) ;
#244 = CIRCLE ( 'NONE', #136, 0.06250000000000000000 ) ;
#245 = SURFACE_SIDE_STYLE ('',( #97 ) ) ;
#246 = DIRECTION ( 'NONE',  ( -0.0000000000000000000, -0.0000000000000000000, -1.000000000000000000 ) ) ;
#247 = ADVANCED_FACE ( 'NONE', ( #55 ), #207, .T. ) ;
#248 = AXIS2_PLACEMENT_3D ( 'NONE', #12, #156, #198 ) ;
#249 = ORIENTED_EDGE ( 'NONE', *, *, #45, .F. ) ;
ENDSEC;
END-ISO-10303-21;
