ISO-10303-21;
HEADER;
FILE_DESCRIPTION (( 'STEP AP214' ),
    '1' );
FILE_NAME ('59795.STEP',
    '2023-07-24T15:58:29',
    ( '' ),
    ( '' ),
    'SwSTEP 2.0',
    'SolidWorks 2023',
    '' );
FILE_SCHEMA (( 'AUTOMOTIVE_DESIGN' ));
ENDSEC;

DATA;
#1 = DIRECTION ( 'NONE',  ( -1.000000000000000000, 0.000000000000000000, 0.000000000000000000 ) ) ;
#2 = PRESENTATION_LAYER_ASSIGNMENT (  '', '', ( #97 ) ) ;
#3 = SURFACE_STYLE_FILL_AREA ( #266 ) ;
#4 = ORIENTED_EDGE ( 'NONE', *, *, #257, .T. ) ;
#5 = MANIFOLD_SOLID_BREP ( 'Revolve - Tool Body (Straight Shanked)', #239 ) ;
#6 = SURFACE_STYLE_FILL_AREA ( #184 ) ;
#7 = CYLINDRICAL_SURFACE ( 'NONE', #189, 2.999999999999995115 ) ;
#8 = FILL_AREA_STYLE_COLOUR ( '', #49 ) ;
#9 = VERTEX_POINT ( 'NONE', #264 ) ;
#10 = APPLICATION_PROTOCOL_DEFINITION ( 'draft international standard', 'automotive_design', 1998, #122 ) ;
#11 = AXIS2_PLACEMENT_3D ( 'NONE', #119, #181, #201 ) ;
#12 = AXIS2_PLACEMENT_3D ( 'NONE', #117, #68, #93 ) ;
#13 = EDGE_LOOP ( 'NONE', ( #137, #173 ) ) ;
#14 = DIRECTION ( 'NONE',  ( 0.000000000000000000, 1.000000000000000000, 0.000000000000000000 ) ) ;
#15 = CARTESIAN_POINT ( 'NONE',  ( 7.592810154713587074E-15, 63.00000000000000000, 0.000000000000000000 ) ) ;
#16 = FACE_OUTER_BOUND ( 'NONE', #253, .T. ) ;
#17 = FILL_AREA_STYLE_COLOUR ( '', #209 ) ;
#18 = ADVANCED_FACE ( 'NONE', ( #191 ), #39, .T. ) ;
#19 = AXIS2_PLACEMENT_3D ( 'NONE', #55, #182, #237 ) ;
#20 = ADVANCED_FACE ( 'NONE', ( #262 ), #245, .T. ) ;
#21 = STYLED_ITEM ( 'NONE', ( #255 ), #5 ) ;
#22 = AXIS2_PLACEMENT_3D ( 'NONE', #141, #95, #202 ) ;
#23 = SURFACE_STYLE_USAGE ( .BOTH. , #86 ) ;
#24 = CARTESIAN_POINT ( 'NONE',  ( 0.000000000000000000, 0.000000000000000000, -2.999999999999999112 ) ) ;
#25 = VERTEX_POINT ( 'NONE', #199 ) ;
#26 = EDGE_CURVE ( 'NONE', #25, #53, #90, .T. ) ;
#27 = DIRECTION ( 'NONE',  ( 1.687291145491908606E-16, 1.000000000000000000, -0.000000000000000000 ) ) ;
#28 = APPLICATION_PROTOCOL_DEFINITION ( 'draft international standard', 'automotive_design', 1998, #260 ) ;
#29 = DIRECTION ( 'NONE',  ( 1.687291145491908606E-16, 1.000000000000000000, -0.000000000000000000 ) ) ;
#30 = CARTESIAN_POINT ( 'NONE',  ( -1.540743955509788682E-30, 18.00000000000000355, 0.000000000000000000 ) ) ;
#31 = LINE ( 'NONE', #54, #166 ) ;
#32 = SURFACE_STYLE_USAGE ( .BOTH. , #96 ) ;
#33 = DIRECTION ( 'NONE',  ( 1.687291145491908606E-16, 1.000000000000000000, -0.000000000000000000 ) ) ;
#34 = VECTOR ( 'NONE', #73, 1000.000000000000000 ) ;
#35 = CARTESIAN_POINT ( 'NONE',  ( -1.540743955509788682E-30, 18.00000000000000355, 0.000000000000000000 ) ) ;
#36 = FILL_AREA_STYLE ('',( #17 ) ) ;
#37 = AXIS2_PLACEMENT_3D ( 'NONE', #276, #14, #230 ) ;
#38 = PRESENTATION_STYLE_ASSIGNMENT (( #215 ) ) ;
#39 = PLANE ( 'NONE',  #125 ) ;
#40 = PRESENTATION_LAYER_ASSIGNMENT (  '', '', ( #101 ) ) ;
#41 = ADVANCED_FACE ( 'NONE', ( #94 ), #7, .T. ) ;
#42 = CARTESIAN_POINT ( 'NONE',  ( 0.000000000000000000, 0.000000000000000000, 0.000000000000000000 ) ) ;
#43 = FILL_AREA_STYLE_COLOUR ( '', #161 ) ;
#44 = SURFACE_STYLE_USAGE ( .BOTH. , #265 ) ;
#45 = VERTEX_POINT ( 'NONE', #48 ) ;
#46 = DIRECTION ( 'NONE',  ( -0.000000000000000000, -1.000000000000000000, -0.000000000000000000 ) ) ;
#47 = ORIENTED_EDGE ( 'NONE', *, *, #26, .T. ) ;
#48 = CARTESIAN_POINT ( 'NONE',  ( -2.999999999999999112, 18.00000000000000355, 0.000000000000000000 ) ) ;
#49 = COLOUR_RGB ( '',0.7921568627450980005, 0.8196078431372548767, 0.9333333333333333481 ) ;
#50 = VERTEX_POINT ( 'NONE', #135 ) ;
#51 = DIRECTION ( 'NONE',  ( -1.000000000000000000, 0.000000000000000000, 0.000000000000000000 ) ) ;
#52 = DIRECTION ( 'NONE',  ( -1.687291145491908606E-16, -1.000000000000000000, 0.000000000000000000 ) ) ;
#53 = VERTEX_POINT ( 'NONE', #174 ) ;
#54 = CARTESIAN_POINT ( 'NONE',  ( -2.999999999999987566, 63.00000000000000000, 0.000000000000000000 ) ) ;
#55 = CARTESIAN_POINT ( 'NONE',  ( 0.000000000000000000, 0.000000000000000000, 0.000000000000000000 ) ) ;
#56 = PRODUCT_RELATED_PRODUCT_CATEGORY ( 'part', '', ( #177 ) ) ;
#57 = UNCERTAINTY_MEASURE_WITH_UNIT (LENGTH_MEASURE( 1.000000000000000082E-05 ), #252, 'distance_accuracy_value', 'NONE');
#58 = AXIS2_PLACEMENT_3D ( 'NONE', #42, #46, #153 ) ;
#59 =( GEOMETRIC_REPRESENTATION_CONTEXT ( 3 ) GLOBAL_UNCERTAINTY_ASSIGNED_CONTEXT ( ( #115 ) ) GLOBAL_UNIT_ASSIGNED_CONTEXT ( ( #190, #283, #284 ) ) REPRESENTATION_CONTEXT ( 'NONE', 'WORKASPACE' ) );
#60 = MECHANICAL_DESIGN_GEOMETRIC_PRESENTATION_REPRESENTATION (  '', ( #258 ), #128 ) ;
#61 = DIRECTION ( 'NONE',  ( 0.000000000000000000, 0.000000000000000000, -1.000000000000000000 ) ) ;
#62 = SURFACE_STYLE_FILL_AREA ( #286 ) ;
#63 = ADVANCED_FACE ( 'NONE', ( #139 ), #70, .T. ) ;
#64 = DIRECTION ( 'NONE',  ( 1.687291145491908606E-16, 1.000000000000000000, -0.000000000000000000 ) ) ;
#65 =( LENGTH_UNIT ( ) NAMED_UNIT ( * ) SI_UNIT ( .MILLI., .METRE. ) );
#66 = DIRECTION ( 'NONE',  ( -0.000000000000000000, -1.000000000000000000, -0.000000000000000000 ) ) ;
#67 = ORIENTED_EDGE ( 'NONE', *, *, #168, .T. ) ;
#68 = DIRECTION ( 'NONE',  ( 0.000000000000000000, 0.000000000000000000, 1.000000000000000000 ) ) ;
#69 = PRESENTATION_STYLE_ASSIGNMENT (( #32 ) ) ;
#70 = CYLINDRICAL_SURFACE ( 'NONE', #106, 2.999999999999995115 ) ;
#71 = ORIENTED_EDGE ( 'NONE', *, *, #168, .F. ) ;
#72 = UNCERTAINTY_MEASURE_WITH_UNIT (LENGTH_MEASURE( 1.000000000000000082E-05 ), #110, 'distance_accuracy_value', 'NONE');
#73 = DIRECTION ( 'NONE',  ( 1.687291145491908606E-16, 1.000000000000000000, -0.000000000000000000 ) ) ;
#74 = CARTESIAN_POINT ( 'NONE',  ( 0.000000000000000000, 18.00000000000000355, 0.000000000000000000 ) ) ;
#75 = CARTESIAN_POINT ( 'NONE',  ( 4.270427114483094353E-32, 18.00000000000000355, 0.000000000000000000 ) ) ;
#76 = FILL_AREA_STYLE_COLOUR ( '', #162 ) ;
#77 = EDGE_CURVE ( 'NONE', #146, #45, #102, .T. ) ;
#78 = CIRCLE ( 'NONE', #22, 2.999999999999991562 ) ;
#79 = ORIENTED_EDGE ( 'NONE', *, *, #77, .F. ) ;
#80 = SURFACE_STYLE_USAGE ( .BOTH. , #183 ) ;
#81 = MECHANICAL_DESIGN_GEOMETRIC_PRESENTATION_REPRESENTATION (  '', ( #250 ), #59 ) ;
#82 = VECTOR ( 'NONE', #111, 1000.000000000000000 ) ;
#83 =( GEOMETRIC_REPRESENTATION_CONTEXT ( 3 ) GLOBAL_UNCERTAINTY_ASSIGNED_CONTEXT ( ( #214 ) ) GLOBAL_UNIT_ASSIGNED_CONTEXT ( ( #134, #236, #138 ) ) REPRESENTATION_CONTEXT ( 'NONE', 'WORKASPACE' ) );
#84 = MECHANICAL_DESIGN_GEOMETRIC_PRESENTATION_REPRESENTATION (  '', ( #21 ), #279 ) ;
#85 = AXIS2_PLACEMENT_3D ( 'NONE', #121, #256, #227 ) ;
#86 = SURFACE_SIDE_STYLE ('',( #127 ) ) ;
#87 = FACE_OUTER_BOUND ( 'NONE', #13, .T. ) ;
#88 = DIRECTION ( 'NONE',  ( 0.000000000000000000, 0.000000000000000000, -1.000000000000000000 ) ) ;
#89 = PRESENTATION_LAYER_ASSIGNMENT (  '', '', ( #250 ) ) ;
#90 = LINE ( 'NONE', #204, #210 ) ;
#91 = DIRECTION ( 'NONE',  ( 0.000000000000000000, 0.000000000000000000, -1.000000000000000000 ) ) ;
#92 = ORIENTED_EDGE ( 'NONE', *, *, #211, .T. ) ;
#93 = DIRECTION ( 'NONE',  ( 1.000000000000000000, 0.000000000000000000, 0.000000000000000000 ) ) ;
#94 = FACE_OUTER_BOUND ( 'NONE', #229, .T. ) ;
#95 = DIRECTION ( 'NONE',  ( 1.687291145491908606E-16, 1.000000000000000000, -0.000000000000000000 ) ) ;
#96 = SURFACE_SIDE_STYLE ('',( #3 ) ) ;
#97 = STYLED_ITEM ( 'NONE', ( #69 ), #105 ) ;
#98 = ORIENTED_EDGE ( 'NONE', *, *, #185, .T. ) ;
#99 = ORIENTED_EDGE ( 'NONE', *, *, #154, .F. ) ;
#100 = DIRECTION ( 'NONE',  ( 1.687291145491908606E-16, 1.000000000000000000, -0.000000000000000000 ) ) ;
#101 = STYLED_ITEM ( 'NONE', ( #221 ), #20 ) ;
#102 = CIRCLE ( 'NONE', #172, 2.999999999999999112 ) ;
#103 = AXIS2_PLACEMENT_3D ( 'NONE', #35, #29, #120 ) ;
#104 = SURFACE_STYLE_FILL_AREA ( #36 ) ;
#105 = MANIFOLD_SOLID_BREP ( 'Revolve - Cutting Edge', #171 ) ;
#106 = AXIS2_PLACEMENT_3D ( 'NONE', #151, #27, #1 ) ;
#107 = PLANE ( 'NONE',  #37 ) ;
#108 = EDGE_CURVE ( 'NONE', #25, #50, #198, .T. ) ;
#109 = DIRECTION ( 'NONE',  ( 1.000000000000000000, -1.687291145491908606E-16, 0.000000000000000000 ) ) ;
#110 =( LENGTH_UNIT ( ) NAMED_UNIT ( * ) SI_UNIT ( .MILLI., .METRE. ) );
#111 = DIRECTION ( 'NONE',  ( -0.000000000000000000, -1.000000000000000000, -0.000000000000000000 ) ) ;
#112 = DIRECTION ( 'NONE',  ( -1.000000000000000000, 0.000000000000000000, 0.000000000000000000 ) ) ;
#113 = STYLED_ITEM ( 'NONE', ( #38 ), #213 ) ;
#114 = DIRECTION ( 'NONE',  ( -1.000000000000000000, 0.000000000000000000, 0.000000000000000000 ) ) ;
#115 = UNCERTAINTY_MEASURE_WITH_UNIT (LENGTH_MEASURE( 1.000000000000000082E-05 ), #190, 'distance_accuracy_value', 'NONE');
#116 =( NAMED_UNIT ( * ) SI_UNIT ( $, .STERADIAN. ) SOLID_ANGLE_UNIT ( ) );
#117 = CARTESIAN_POINT ( 'NONE',  ( 0.000000000000000000, 0.000000000000000000, 0.000000000000000000 ) ) ;
#118 = AXIS2_PLACEMENT_3D ( 'NONE', #75, #33, #157 ) ;
#119 = CARTESIAN_POINT ( 'NONE',  ( 0.000000000000000000, 0.000000000000000000, 0.000000000000000000 ) ) ;
#120 = DIRECTION ( 'NONE',  ( -1.000000000000000000, 0.000000000000000000, 0.000000000000000000 ) ) ;
#121 = CARTESIAN_POINT ( 'NONE',  ( 0.000000000000000000, 18.00000000000000355, 0.000000000000000000 ) ) ;
#122 = APPLICATION_CONTEXT ( 'automotive_design' ) ;
#123 = MECHANICAL_DESIGN_GEOMETRIC_PRESENTATION_REPRESENTATION (  '', ( #97 ), #285 ) ;
#124 = ADVANCED_FACE ( 'NONE', ( #223 ), #159, .F. ) ;
#125 = AXIS2_PLACEMENT_3D ( 'NONE', #263, #287, #61 ) ;
#126 = CIRCLE ( 'NONE', #282, 2.999999999999991562 ) ;
#127 = SURFACE_STYLE_FILL_AREA ( #246 ) ;
#128 =( GEOMETRIC_REPRESENTATION_CONTEXT ( 3 ) GLOBAL_UNCERTAINTY_ASSIGNED_CONTEXT ( ( #72 ) ) GLOBAL_UNIT_ASSIGNED_CONTEXT ( ( #110, #197, #244 ) ) REPRESENTATION_CONTEXT ( 'NONE', 'WORKASPACE' ) );
#129 =( NAMED_UNIT ( * ) SI_UNIT ( $, .STERADIAN. ) SOLID_ANGLE_UNIT ( ) );
#130 = EDGE_LOOP ( 'NONE', ( #272, #152 ) ) ;
#131 = DIRECTION ( 'NONE',  ( -0.000000000000000000, -1.000000000000000000, -0.000000000000000000 ) ) ;
#132 = ORIENTED_EDGE ( 'NONE', *, *, #235, .F. ) ;
#133 = PRODUCT_DEFINITION ( 'UNKNOWN', '', #234, #254 ) ;
#134 =( LENGTH_UNIT ( ) NAMED_UNIT ( * ) SI_UNIT ( .MILLI., .METRE. ) );
#135 = CARTESIAN_POINT ( 'NONE',  ( 0.000000000000000000, 18.00000000000000355, -2.999999999999999112 ) ) ;
#136 = VERTEX_POINT ( 'NONE', #195 ) ;
#137 = ORIENTED_EDGE ( 'NONE', *, *, #211, .F. ) ;
#138 =( NAMED_UNIT ( * ) SI_UNIT ( $, .STERADIAN. ) SOLID_ANGLE_UNIT ( ) );
#139 = FACE_OUTER_BOUND ( 'NONE', #156, .T. ) ;
#140 = ORIENTED_EDGE ( 'NONE', *, *, #145, .T. ) ;
#141 = CARTESIAN_POINT ( 'NONE',  ( 7.592810154713587074E-15, 63.00000000000000000, 0.000000000000000000 ) ) ;
#142 = CIRCLE ( 'NONE', #19, 2.999999999999999112 ) ;
#143 = UNCERTAINTY_MEASURE_WITH_UNIT (LENGTH_MEASURE( 1.000000000000000082E-05 ), #206, 'distance_accuracy_value', 'NONE');
#144 =( NAMED_UNIT ( * ) PLANE_ANGLE_UNIT ( ) SI_UNIT ( $, .RADIAN. ) );
#145 = EDGE_CURVE ( 'NONE', #50, #136, #170, .T. ) ;
#146 = VERTEX_POINT ( 'NONE', #164 ) ;
#147 = AXIS2_PLACEMENT_3D ( 'NONE', #74, #66, #88 ) ;
#148 = FILL_AREA_STYLE ('',( #219 ) ) ;
#149 =( NAMED_UNIT ( * ) SI_UNIT ( $, .STERADIAN. ) SOLID_ANGLE_UNIT ( ) );
#150 = PRESENTATION_STYLE_ASSIGNMENT (( #44 ) ) ;
#151 = CARTESIAN_POINT ( 'NONE',  ( 7.592810154713587074E-15, 63.00000000000000000, 0.000000000000000000 ) ) ;
#152 = ORIENTED_EDGE ( 'NONE', *, *, #203, .T. ) ;
#153 = DIRECTION ( 'NONE',  ( 0.000000000000000000, 0.000000000000000000, -1.000000000000000000 ) ) ;
#154 = EDGE_CURVE ( 'NONE', #269, #9, #78, .T. ) ;
#155 = EDGE_LOOP ( 'NONE', ( #200, #232 ) ) ;
#156 = EDGE_LOOP ( 'NONE', ( #71, #251, #4, #207 ) ) ;
#157 = DIRECTION ( 'NONE',  ( -1.000000000000000000, 1.687291145491908606E-16, 0.000000000000000000 ) ) ;
#158 =( NAMED_UNIT ( * ) PLANE_ANGLE_UNIT ( ) SI_UNIT ( $, .RADIAN. ) );
#159 = PLANE ( 'NONE',  #268 ) ;
#160 = EDGE_LOOP ( 'NONE', ( #179, #79 ) ) ;
#161 = COLOUR_RGB ( '',1.000000000000000000, 0.000000000000000000, 0.000000000000000000 ) ;
#162 = COLOUR_RGB ( '',1.000000000000000000, 0.000000000000000000, 0.000000000000000000 ) ;
#163 = LINE ( 'NONE', #233, #34 ) ;
#164 = CARTESIAN_POINT ( 'NONE',  ( 2.999999999999999556, 18.00000000000000355, 3.673940397442056417E-16 ) ) ;
#165 = ORIENTED_EDGE ( 'NONE', *, *, #26, .F. ) ;
#166 = VECTOR ( 'NONE', #205, 1000.000000000000000 ) ;
#167 = PRESENTATION_STYLE_ASSIGNMENT (( #218 ) ) ;
#168 = EDGE_CURVE ( 'NONE', #146, #9, #163, .T. ) ;
#169 = CIRCLE ( 'NONE', #11, 2.999999999999999112 ) ;
#170 = LINE ( 'NONE', #24, #82 ) ;
#171 = CLOSED_SHELL ( 'NONE', ( #213, #222, #20, #18 ) ) ;
#172 = AXIS2_PLACEMENT_3D ( 'NONE', #30, #64, #112 ) ;
#173 = ORIENTED_EDGE ( 'NONE', *, *, #108, .F. ) ;
#174 = CARTESIAN_POINT ( 'NONE',  ( 3.673940397442058882E-16, 0.000000000000000000, 2.999999999999999112 ) ) ;
#175 = SURFACE_SIDE_STYLE ('',( #6 ) ) ;
#176 = ORIENTED_EDGE ( 'NONE', *, *, #145, .F. ) ;
#177 = PRODUCT ( '59795', '59795', '', ( #208 ) ) ;
#178 = PRESENTATION_LAYER_ASSIGNMENT (  '', '', ( #113 ) ) ;
#179 = ORIENTED_EDGE ( 'NONE', *, *, #185, .F. ) ;
#180 = CARTESIAN_POINT ( 'NONE',  ( -2.999999999999983569, 63.00000000000000000, 0.000000000000000000 ) ) ;
#181 = DIRECTION ( 'NONE',  ( -0.000000000000000000, -1.000000000000000000, -0.000000000000000000 ) ) ;
#182 = DIRECTION ( 'NONE',  ( -0.000000000000000000, -1.000000000000000000, -0.000000000000000000 ) ) ;
#183 = SURFACE_SIDE_STYLE ('',( #104 ) ) ;
#184 = FILL_AREA_STYLE ('',( #76 ) ) ;
#185 = EDGE_CURVE ( 'NONE', #45, #146, #275, .T. ) ;
#186 = PRODUCT_DEFINITION_SHAPE ( 'NONE', 'NONE',  #133 ) ;
#187 = ADVANCED_BREP_SHAPE_REPRESENTATION ( '59795', ( #105, #5, #12 ), #83 ) ;
#188 = EDGE_CURVE ( 'NONE', #9, #269, #126, .T. ) ;
#189 = AXIS2_PLACEMENT_3D ( 'NONE', #231, #288, #114 ) ;
#190 =( LENGTH_UNIT ( ) NAMED_UNIT ( * ) SI_UNIT ( .MILLI., .METRE. ) );
#191 = FACE_OUTER_BOUND ( 'NONE', #130, .T. ) ;
#192 =( GEOMETRIC_REPRESENTATION_CONTEXT ( 3 ) GLOBAL_UNCERTAINTY_ASSIGNED_CONTEXT ( ( #57 ) ) GLOBAL_UNIT_ASSIGNED_CONTEXT ( ( #252, #196, #116 ) ) REPRESENTATION_CONTEXT ( 'NONE', 'WORKASPACE' ) );
#193 = FILL_AREA_STYLE_COLOUR ( '', #226 ) ;
#194 = SURFACE_STYLE_FILL_AREA ( #148 ) ;
#195 = CARTESIAN_POINT ( 'NONE',  ( 0.000000000000000000, 0.000000000000000000, -2.999999999999999112 ) ) ;
#196 =( NAMED_UNIT ( * ) PLANE_ANGLE_UNIT ( ) SI_UNIT ( $, .RADIAN. ) );
#197 =( NAMED_UNIT ( * ) PLANE_ANGLE_UNIT ( ) SI_UNIT ( $, .RADIAN. ) );
#198 = CIRCLE ( 'NONE', #147, 2.999999999999999112 ) ;
#199 = CARTESIAN_POINT ( 'NONE',  ( 3.673940397442058882E-16, 18.00000000000000355, 2.999999999999999112 ) ) ;
#200 = ORIENTED_EDGE ( 'NONE', *, *, #154, .T. ) ;
#201 = DIRECTION ( 'NONE',  ( 0.000000000000000000, 0.000000000000000000, -1.000000000000000000 ) ) ;
#202 = DIRECTION ( 'NONE',  ( -1.000000000000000000, 0.000000000000000000, 0.000000000000000000 ) ) ;
#203 = EDGE_CURVE ( 'NONE', #53, #136, #142, .T. ) ;
#204 = CARTESIAN_POINT ( 'NONE',  ( 3.673940397442058882E-16, 0.000000000000000000, 2.999999999999999112 ) ) ;
#205 = DIRECTION ( 'NONE',  ( 1.687291145491908606E-16, 1.000000000000000000, -0.000000000000000000 ) ) ;
#206 =( LENGTH_UNIT ( ) NAMED_UNIT ( * ) SI_UNIT ( .MILLI., .METRE. ) );
#207 = ORIENTED_EDGE ( 'NONE', *, *, #188, .F. ) ;
#208 = PRODUCT_CONTEXT ( 'NONE', #260, 'mechanical' ) ;
#209 = COLOUR_RGB ( '',0.7921568627450980005, 0.8196078431372548767, 0.9333333333333333481 ) ;
#210 = VECTOR ( 'NONE', #131, 1000.000000000000000 ) ;
#211 = EDGE_CURVE ( 'NONE', #50, #25, #243, .T. ) ;
#212 = PRESENTATION_LAYER_ASSIGNMENT (  '', '', ( #21 ) ) ;
#213 = ADVANCED_FACE ( 'NONE', ( #16 ), #278, .T. ) ;
#214 = UNCERTAINTY_MEASURE_WITH_UNIT (LENGTH_MEASURE( 1.000000000000000082E-05 ), #134, 'distance_accuracy_value', 'NONE');
#215 = SURFACE_STYLE_USAGE ( .BOTH. , #175 ) ;
#216 =( NAMED_UNIT ( * ) SI_UNIT ( $, .STERADIAN. ) SOLID_ANGLE_UNIT ( ) );
#217 =( GEOMETRIC_REPRESENTATION_CONTEXT ( 3 ) GLOBAL_UNCERTAINTY_ASSIGNED_CONTEXT ( ( #259 ) ) GLOBAL_UNIT_ASSIGNED_CONTEXT ( ( #65, #220, #149 ) ) REPRESENTATION_CONTEXT ( 'NONE', 'WORKASPACE' ) );
#218 = SURFACE_STYLE_USAGE ( .BOTH. , #261 ) ;
#219 = FILL_AREA_STYLE_COLOUR ( '', #267 ) ;
#220 =( NAMED_UNIT ( * ) PLANE_ANGLE_UNIT ( ) SI_UNIT ( $, .RADIAN. ) );
#221 = PRESENTATION_STYLE_ASSIGNMENT (( #23 ) ) ;
#222 = ADVANCED_FACE ( 'NONE', ( #87 ), #107, .T. ) ;
#223 = FACE_OUTER_BOUND ( 'NONE', #155, .T. ) ;
#224 = ORIENTED_EDGE ( 'NONE', *, *, #108, .T. ) ;
#225 = ORIENTED_EDGE ( 'NONE', *, *, #203, .F. ) ;
#226 = COLOUR_RGB ( '',1.000000000000000000, 0.000000000000000000, 0.000000000000000000 ) ;
#227 = DIRECTION ( 'NONE',  ( 0.000000000000000000, 0.000000000000000000, -1.000000000000000000 ) ) ;
#228 = CARTESIAN_POINT ( 'NONE',  ( 0.000000000000000000, 0.000000000000000000, 0.000000000000000000 ) ) ;
#229 = EDGE_LOOP ( 'NONE', ( #98, #67, #99, #249 ) ) ;
#230 = DIRECTION ( 'NONE',  ( 0.000000000000000000, -0.000000000000000000, 1.000000000000000000 ) ) ;
#231 = CARTESIAN_POINT ( 'NONE',  ( 7.592810154713587074E-15, 63.00000000000000000, 0.000000000000000000 ) ) ;
#232 = ORIENTED_EDGE ( 'NONE', *, *, #188, .T. ) ;
#233 = CARTESIAN_POINT ( 'NONE',  ( 3.000000000000003109, 63.00000000000000000, 3.673940397442053952E-16 ) ) ;
#234 = PRODUCT_DEFINITION_FORMATION_WITH_SPECIFIED_SOURCE ( 'ANY', '', #177, .NOT_KNOWN. ) ;
#235 = EDGE_CURVE ( 'NONE', #136, #53, #169, .T. ) ;
#236 =( NAMED_UNIT ( * ) PLANE_ANGLE_UNIT ( ) SI_UNIT ( $, .RADIAN. ) );
#237 = DIRECTION ( 'NONE',  ( 0.000000000000000000, 0.000000000000000000, -1.000000000000000000 ) ) ;
#238 = UNCERTAINTY_MEASURE_WITH_UNIT (LENGTH_MEASURE( 1.000000000000000082E-05 ), #241, 'distance_accuracy_value', 'NONE');
#239 = CLOSED_SHELL ( 'NONE', ( #41, #281, #63, #124 ) ) ;
#240 = AXIS2_PLACEMENT_3D ( 'NONE', #228, #274, #91 ) ;
#241 =( LENGTH_UNIT ( ) NAMED_UNIT ( * ) SI_UNIT ( .MILLI., .METRE. ) );
#242 = MECHANICAL_DESIGN_GEOMETRIC_PRESENTATION_REPRESENTATION (  '', ( #101 ), #192 ) ;
#243 = CIRCLE ( 'NONE', #85, 2.999999999999999112 ) ;
#244 =( NAMED_UNIT ( * ) SI_UNIT ( $, .STERADIAN. ) SOLID_ANGLE_UNIT ( ) );
#245 = CYLINDRICAL_SURFACE ( 'NONE', #240, 2.999999999999999112 ) ;
#246 = FILL_AREA_STYLE ('',( #43 ) ) ;
#247 = PRESENTATION_LAYER_ASSIGNMENT (  '', '', ( #258 ) ) ;
#248 = EDGE_LOOP ( 'NONE', ( #165, #224, #140, #225 ) ) ;
#249 = ORIENTED_EDGE ( 'NONE', *, *, #257, .F. ) ;
#250 = STYLED_ITEM ( 'NONE', ( #167 ), #18 ) ;
#251 = ORIENTED_EDGE ( 'NONE', *, *, #77, .T. ) ;
#252 =( LENGTH_UNIT ( ) NAMED_UNIT ( * ) SI_UNIT ( .MILLI., .METRE. ) );
#253 = EDGE_LOOP ( 'NONE', ( #92, #47, #132, #176 ) ) ;
#254 = PRODUCT_DEFINITION_CONTEXT ( 'detailed design', #122, 'design' ) ;
#255 = PRESENTATION_STYLE_ASSIGNMENT (( #80 ) ) ;
#256 = DIRECTION ( 'NONE',  ( -0.000000000000000000, -1.000000000000000000, -0.000000000000000000 ) ) ;
#257 = EDGE_CURVE ( 'NONE', #45, #269, #31, .T. ) ;
#258 = STYLED_ITEM ( 'NONE', ( #150 ), #222 ) ;
#259 = UNCERTAINTY_MEASURE_WITH_UNIT (LENGTH_MEASURE( 1.000000000000000082E-05 ), #65, 'distance_accuracy_value', 'NONE');
#260 = APPLICATION_CONTEXT ( 'automotive_design' ) ;
#261 = SURFACE_SIDE_STYLE ('',( #194 ) ) ;
#262 = FACE_OUTER_BOUND ( 'NONE', #248, .T. ) ;
#263 = CARTESIAN_POINT ( 'NONE',  ( 0.000000000000000000, 0.000000000000000000, 0.000000000000000000 ) ) ;
#264 = CARTESIAN_POINT ( 'NONE',  ( 2.999999999999999556, 63.00000000000000000, 3.673940397442056417E-16 ) ) ;
#265 = SURFACE_SIDE_STYLE ('',( #62 ) ) ;
#266 = FILL_AREA_STYLE ('',( #8 ) ) ;
#267 = COLOUR_RGB ( '',1.000000000000000000, 0.000000000000000000, 0.000000000000000000 ) ;
#268 = AXIS2_PLACEMENT_3D ( 'NONE', #271, #52, #109 ) ;
#269 = VERTEX_POINT ( 'NONE', #180 ) ;
#270 = FACE_OUTER_BOUND ( 'NONE', #160, .T. ) ;
#271 = CARTESIAN_POINT ( 'NONE',  ( 2.999999999999999112, 63.00000000000000000, 0.000000000000000000 ) ) ;
#272 = ORIENTED_EDGE ( 'NONE', *, *, #235, .T. ) ;
#273 = SHAPE_DEFINITION_REPRESENTATION ( #186, #187 ) ;
#274 = DIRECTION ( 'NONE',  ( -0.000000000000000000, -1.000000000000000000, -0.000000000000000000 ) ) ;
#275 = CIRCLE ( 'NONE', #103, 2.999999999999999112 ) ;
#276 = CARTESIAN_POINT ( 'NONE',  ( 0.000000000000000000, 18.00000000000000355, 0.000000000000000000 ) ) ;
#277 = PLANE ( 'NONE',  #118 ) ;
#278 = CYLINDRICAL_SURFACE ( 'NONE', #58, 2.999999999999999112 ) ;
#279 =( GEOMETRIC_REPRESENTATION_CONTEXT ( 3 ) GLOBAL_UNCERTAINTY_ASSIGNED_CONTEXT ( ( #238 ) ) GLOBAL_UNIT_ASSIGNED_CONTEXT ( ( #241, #144, #216 ) ) REPRESENTATION_CONTEXT ( 'NONE', 'WORKASPACE' ) );
#280 = MECHANICAL_DESIGN_GEOMETRIC_PRESENTATION_REPRESENTATION (  '', ( #113 ), #217 ) ;
#281 = ADVANCED_FACE ( 'NONE', ( #270 ), #277, .F. ) ;
#282 = AXIS2_PLACEMENT_3D ( 'NONE', #15, #100, #51 ) ;
#283 =( NAMED_UNIT ( * ) PLANE_ANGLE_UNIT ( ) SI_UNIT ( $, .RADIAN. ) );
#284 =( NAMED_UNIT ( * ) SI_UNIT ( $, .STERADIAN. ) SOLID_ANGLE_UNIT ( ) );
#285 =( GEOMETRIC_REPRESENTATION_CONTEXT ( 3 ) GLOBAL_UNCERTAINTY_ASSIGNED_CONTEXT ( ( #143 ) ) GLOBAL_UNIT_ASSIGNED_CONTEXT ( ( #206, #158, #129 ) ) REPRESENTATION_CONTEXT ( 'NONE', 'WORKASPACE' ) );
#286 = FILL_AREA_STYLE ('',( #193 ) ) ;
#287 = DIRECTION ( 'NONE',  ( 0.000000000000000000, -1.000000000000000000, -0.000000000000000000 ) ) ;
#288 = DIRECTION ( 'NONE',  ( 1.687291145491908606E-16, 1.000000000000000000, -0.000000000000000000 ) ) ;
ENDSEC;
END-ISO-10303-21;
