ISO-10303-21;
HEADER;
FILE_DESCRIPTION (( 'STEP AP214' ),
    '1' );
FILE_NAME ('Micro_DMM-060-490X.STEP',
    '2021-09-02T16:24:08',
    ( '' ),
    ( '' ),
    'SwSTEP 2.0',
    'SolidWorks 2020',
    '' );
FILE_SCHEMA (( 'AUTOMOTIVE_DESIGN' ));
ENDSEC;

DATA;
#1 = DIRECTION ( 'NONE',  ( 1.000000000000000000, 0.0000000000000000000, -0.0000000000000000000 ) ) ;
#2 = AXIS2_PLACEMENT_3D ( 'NONE', #132, #233, #75 ) ;
#3 = COLOUR_RGB ( '',0.7921568627450980005, 0.8196078431372548767, 0.9333333333333333481 ) ;
#4 = ORIENTED_EDGE ( 'NONE', *, *, #6, .T. ) ;
#5 = DIRECTION ( 'NONE',  ( 0.0000000000000000000, 0.0000000000000000000, 1.000000000000000000 ) ) ;
#6 = EDGE_CURVE ( 'NONE', #30, #252, #152, .T. ) ;
#7 = ORIENTED_EDGE ( 'NONE', *, *, #170, .T. ) ;
#8 = DIRECTION ( 'NONE',  ( -1.000000000000000000, 0.0000000000000000000, 0.0000000000000000000 ) ) ;
#9 = DIRECTION ( 'NONE',  ( -0.0000000000000000000, -0.0000000000000000000, -1.000000000000000000 ) ) ;
#10 = EDGE_CURVE ( 'NONE', #318, #94, #19, .T. ) ;
#11 = CARTESIAN_POINT ( 'NONE',  ( 0.0000000000000000000, 0.0000000000000000000, 0.1105599999999995892 ) ) ;
#12 = DIRECTION ( 'NONE',  ( -0.0000000000000000000, -0.0000000000000000000, -1.000000000000000000 ) ) ;
#13 = CARTESIAN_POINT ( 'NONE',  ( 0.1031100000000002570, 1.354581824536888722E-17, 2.244094000000000033 ) ) ;
#14 = ORIENTED_EDGE ( 'NONE', *, *, #10, .T. ) ;
#15 = CYLINDRICAL_SURFACE ( 'NONE', #146, 0.1181100000000000066 ) ;
#16 =( GEOMETRIC_REPRESENTATION_CONTEXT ( 3 ) GLOBAL_UNCERTAINTY_ASSIGNED_CONTEXT ( ( #214 ) ) GLOBAL_UNIT_ASSIGNED_CONTEXT ( ( #90, #244, #151 ) ) REPRESENTATION_CONTEXT ( 'NONE', 'WORKASPACE' ) );
#17 = EDGE_LOOP ( 'NONE', ( #118, #57 ) ) ;
#18 =( NAMED_UNIT ( * ) PLANE_ANGLE_UNIT ( ) SI_UNIT ( $, .RADIAN. ) );
#19 = LINE ( 'NONE', #183, #107 ) ;
#20 = APPLICATION_PROTOCOL_DEFINITION ( 'draft international standard', 'automotive_design', 1998, #184 ) ;
#21 = ADVANCED_FACE ( 'NONE', ( #150 ), #253, .T. ) ;
#22 =( GEOMETRIC_REPRESENTATION_CONTEXT ( 3 ) GLOBAL_UNCERTAINTY_ASSIGNED_CONTEXT ( ( #163 ) ) GLOBAL_UNIT_ASSIGNED_CONTEXT ( ( #258, #276, #73 ) ) REPRESENTATION_CONTEXT ( 'NONE', 'WORKASPACE' ) );
#23 = AXIS2_PLACEMENT_3D ( 'NONE', #11, #12, #58 ) ;
#24 = FACE_OUTER_BOUND ( 'NONE', #84, .T. ) ;
#25 = DIRECTION ( 'NONE',  ( -0.0000000000000000000, -0.0000000000000000000, -1.000000000000000000 ) ) ;
#26 = DIRECTION ( 'NONE',  ( -1.000000000000000000, 0.0000000000000000000, 0.0000000000000000000 ) ) ;
#27 = MANIFOLD_SOLID_BREP ( 'Cut-Revolve4', #81 ) ;
#28 = AXIS2_PLACEMENT_3D ( 'NONE', #162, #259, #158 ) ;
#29 = CARTESIAN_POINT ( 'NONE',  ( 0.0000000000000000000, 0.0000000000000000000, 2.244094000000000033 ) ) ;
#30 = VERTEX_POINT ( 'NONE', #157 ) ;
#31 = CARTESIAN_POINT ( 'NONE',  ( 0.1181100000000000066, 1.446430334472939084E-17, 2.244094000000000033 ) ) ;
#32 = CARTESIAN_POINT ( 'NONE',  ( 0.0000000000000000000, 0.0000000000000000000, 1.707404996040164512E-17 ) ) ;
#33 = FACE_OUTER_BOUND ( 'NONE', #166, .T. ) ;
#34 = MECHANICAL_DESIGN_GEOMETRIC_PRESENTATION_REPRESENTATION (  '', ( #129 ), #139 ) ;
#35 = DIRECTION ( 'NONE',  ( -1.000000000000000000, 0.0000000000000000000, 0.0000000000000000000 ) ) ;
#36 = EDGE_LOOP ( 'NONE', ( #198, #195 ) ) ;
#37 = DIRECTION ( 'NONE',  ( 0.0000000000000000000, 0.0000000000000000000, 1.000000000000000000 ) ) ;
#38 = EDGE_CURVE ( 'NONE', #94, #220, #262, .T. ) ;
#39 = EDGE_LOOP ( 'NONE', ( #91, #222, #74, #164 ) ) ;
#40 = VECTOR ( 'NONE', #25, 39.37007874015748143 ) ;
#41 = AXIS2_PLACEMENT_3D ( 'NONE', #149, #55, #192 ) ;
#42 = ORIENTED_EDGE ( 'NONE', *, *, #208, .F. ) ;
#43 = ORIENTED_EDGE ( 'NONE', *, *, #226, .T. ) ;
#44 = CARTESIAN_POINT ( 'NONE',  ( -0.1031100000000002570, 0.0000000000000000000, 2.244094000000000033 ) ) ;
#45 = VECTOR ( 'NONE', #267, 39.37007874015748143 ) ;
#46 = CARTESIAN_POINT ( 'NONE',  ( 0.0000000000000000000, 0.0000000000000000000, 0.6299209999999999532 ) ) ;
#47 = FILL_AREA_STYLE ('',( #134 ) ) ;
#48 = LINE ( 'NONE', #188, #246 ) ;
#49 = FACE_OUTER_BOUND ( 'NONE', #279, .T. ) ;
#50 = MECHANICAL_DESIGN_GEOMETRIC_PRESENTATION_REPRESENTATION (  '', ( #175 ), #22 ) ;
#51 = ADVANCED_FACE ( 'NONE', ( #121 ), #159, .T. ) ;
#52 = ORIENTED_EDGE ( 'NONE', *, *, #65, .F. ) ;
#53 = CARTESIAN_POINT ( 'NONE',  ( 0.0000000000000000000, 0.0000000000000000000, 2.244094000000000033 ) ) ;
#54 = PRODUCT_DEFINITION_FORMATION_WITH_SPECIFIED_SOURCE ( 'ANY', '', #145, .NOT_KNOWN. ) ;
#55 = DIRECTION ( 'NONE',  ( -0.0000000000000000000, -0.0000000000000000000, -1.000000000000000000 ) ) ;
#56 = EDGE_CURVE ( 'NONE', #94, #187, #280, .T. ) ;
#57 = ORIENTED_EDGE ( 'NONE', *, *, #65, .T. ) ;
#58 = DIRECTION ( 'NONE',  ( -1.000000000000000000, 0.0000000000000000000, 0.0000000000000000000 ) ) ;
#59 = ORIENTED_EDGE ( 'NONE', *, *, #10, .F. ) ;
#60 = DIMENSIONAL_EXPONENTS ( 1.000000000000000000, 0.0000000000000000000, 0.0000000000000000000, 0.0000000000000000000, 0.0000000000000000000, 0.0000000000000000000, 0.0000000000000000000 ) ;
#61 = CIRCLE ( 'NONE', #93, 0.1180600000000000815 ) ;
#62 = CIRCLE ( 'NONE', #125, 0.1031100000000002570 ) ;
#63 = CARTESIAN_POINT ( 'NONE',  ( 0.0000000000000000000, 0.0000000000000000000, 0.6299209999999998422 ) ) ;
#64 = ORIENTED_EDGE ( 'NONE', *, *, #38, .T. ) ;
#65 = EDGE_CURVE ( 'NONE', #156, #30, #306, .T. ) ;
#66 = LINE ( 'NONE', #87, #136 ) ;
#67 = ORIENTED_EDGE ( 'NONE', *, *, #82, .T. ) ;
#68 = PRODUCT_CONTEXT ( 'NONE', #83, 'mechanical' ) ;
#69 = ORIENTED_EDGE ( 'NONE', *, *, #115, .T. ) ;
#70 = DIRECTION ( 'NONE',  ( 0.7071067811865490160, 0.0000000000000000000, 0.7071067811865460184 ) ) ;
#71 = EDGE_CURVE ( 'NONE', #114, #292, #61, .T. ) ;
#72 = ADVANCED_BREP_SHAPE_REPRESENTATION ( 'Micro_DMM-060-490X', ( #27, #211 ), #16 ) ;
#73 =( NAMED_UNIT ( * ) SI_UNIT ( $, .STERADIAN. ) SOLID_ANGLE_UNIT ( ) );
#74 = ORIENTED_EDGE ( 'NONE', *, *, #79, .T. ) ;
#75 = DIRECTION ( 'NONE',  ( -1.000000000000000000, 0.0000000000000000000, 0.0000000000000000000 ) ) ;
#76 = EDGE_CURVE ( 'NONE', #292, #114, #277, .T. ) ;
#77 = AXIS2_PLACEMENT_3D ( 'NONE', #141, #242, #235 ) ;
#78 = DIRECTION ( 'NONE',  ( -1.000000000000000000, 0.0000000000000000000, 0.0000000000000000000 ) ) ;
#79 = EDGE_CURVE ( 'NONE', #292, #116, #48, .T. ) ;
#80 = DIRECTION ( 'NONE',  ( -0.7071067811865358044, 0.0000000000000000000, -0.7071067811865590080 ) ) ;
#81 = CLOSED_SHELL ( 'NONE', ( #21, #202, #153, #138, #303, #51, #142, #272, #112, #263, #120 ) ) ;
#82 = EDGE_CURVE ( 'NONE', #156, #116, #135, .T. ) ;
#83 = APPLICATION_CONTEXT ( 'automotive_design' ) ;
#84 = EDGE_LOOP ( 'NONE', ( #245, #14, #217, #225 ) ) ;
#85 = CARTESIAN_POINT ( 'NONE',  ( -0.1181100000000000066, 0.0000000000000000000, 2.244094000000000033 ) ) ;
#86 = CONICAL_SURFACE ( 'NONE', #98, 0.1031100000000002570, 0.7853981633974318477 ) ;
#87 = CARTESIAN_POINT ( 'NONE',  ( 0.1180600000000000538, 1.445818011073365902E-17, 0.0000000000000000000 ) ) ;
#88 = PRODUCT_DEFINITION ( 'UNKNOWN', '', #54, #287 ) ;
#89 = VERTEX_POINT ( 'NONE', #44 ) ;
#90 =( CONVERSION_BASED_UNIT ( 'INCH', #122 ) LENGTH_UNIT ( ) NAMED_UNIT ( #296 ) );
#91 = ORIENTED_EDGE ( 'NONE', *, *, #250, .F. ) ;
#92 = FACE_OUTER_BOUND ( 'NONE', #39, .T. ) ;
#93 = AXIS2_PLACEMENT_3D ( 'NONE', #46, #133, #190 ) ;
#94 = VERTEX_POINT ( 'NONE', #137 ) ;
#95 = DIRECTION ( 'NONE',  ( 0.0000000000000000000, 0.0000000000000000000, 1.000000000000000000 ) ) ;
#96 =( CONVERSION_BASED_UNIT ( 'INCH', #254 ) LENGTH_UNIT ( ) NAMED_UNIT ( #60 ) );
#97 = FILL_AREA_STYLE_COLOUR ( '', #3 ) ;
#98 = AXIS2_PLACEMENT_3D ( 'NONE', #53, #165, #8 ) ;
#99 = ORIENTED_EDGE ( 'NONE', *, *, #6, .F. ) ;
#100 = CARTESIAN_POINT ( 'NONE',  ( 0.0000000000000000000, 0.0000000000000000000, 0.6299209999999998422 ) ) ;
#101 = DIRECTION ( 'NONE',  ( 1.000000000000000000, 0.0000000000000000000, 0.0000000000000000000 ) ) ;
#102 = DIRECTION ( 'NONE',  ( 0.0000000000000000000, 0.0000000000000000000, 1.000000000000000000 ) ) ;
#103 = EDGE_CURVE ( 'NONE', #30, #156, #224, .T. ) ;
#104 = AXIS2_PLACEMENT_3D ( 'NONE', #286, #5, #1 ) ;
#105 = CARTESIAN_POINT ( 'NONE',  ( 0.0000000000000000000, 0.0000000000000000000, 1.707404996040164512E-17 ) ) ;
#106 = EDGE_CURVE ( 'NONE', #89, #220, #207, .T. ) ;
#107 = VECTOR ( 'NONE', #229, 39.37007874015748854 ) ;
#108 = AXIS2_PLACEMENT_3D ( 'NONE', #32, #196, #293 ) ;
#109 = ORIENTED_EDGE ( 'NONE', *, *, #239, .T. ) ;
#110 = FACE_OUTER_BOUND ( 'NONE', #325, .T. ) ;
#111 = ORIENTED_EDGE ( 'NONE', *, *, #38, .F. ) ;
#112 = ADVANCED_FACE ( 'NONE', ( #305 ), #124, .T. ) ;
#113 = LINE ( 'NONE', #85, #154 ) ;
#114 = VERTEX_POINT ( 'NONE', #283 ) ;
#115 = EDGE_CURVE ( 'NONE', #174, #187, #206, .T. ) ;
#116 = VERTEX_POINT ( 'NONE', #185 ) ;
#117 = AXIS2_PLACEMENT_3D ( 'NONE', #194, #37, #176 ) ;
#118 = ORIENTED_EDGE ( 'NONE', *, *, #103, .T. ) ;
#119 = CARTESIAN_POINT ( 'NONE',  ( 0.1181100000000000066, 1.446430334472939084E-17, 0.6299209999999998422 ) ) ;
#120 = ADVANCED_FACE ( 'NONE', ( #260 ), #310, .F. ) ;
#121 = FACE_OUTER_BOUND ( 'NONE', #278, .T. ) ;
#122 = LENGTH_MEASURE_WITH_UNIT ( LENGTH_MEASURE( 0.02539999999999999897 ), #317 );
#123 = SURFACE_STYLE_USAGE ( .BOTH. , #320 ) ;
#124 = CONICAL_SURFACE ( 'NONE', #288, 0.007499999999999999722, 0.7853981633974503884 ) ;
#125 = AXIS2_PLACEMENT_3D ( 'NONE', #319, #95, #289 ) ;
#126 = EDGE_LOOP ( 'NONE', ( #311, #309, #4, #215 ) ) ;
#127 = CARTESIAN_POINT ( 'NONE',  ( 0.0000000000000000000, 0.0000000000000000000, 0.0000000000000000000 ) ) ;
#128 = ORIENTED_EDGE ( 'NONE', *, *, #106, .T. ) ;
#129 = STYLED_ITEM ( 'NONE', ( #323 ), #27 ) ;
#130 = SHAPE_DEFINITION_REPRESENTATION ( #314, #72 ) ;
#131 = CIRCLE ( 'NONE', #173, 0.1181100000000000066 ) ;
#132 = CARTESIAN_POINT ( 'NONE',  ( 0.0000000000000000000, 0.0000000000000000000, 2.244094000000000033 ) ) ;
#133 = DIRECTION ( 'NONE',  ( -0.0000000000000000000, -0.0000000000000000000, -1.000000000000000000 ) ) ;
#134 = FILL_AREA_STYLE_COLOUR ( '', #300 ) ;
#135 = LINE ( 'NONE', #237, #45 ) ;
#136 = VECTOR ( 'NONE', #315, 39.37007874015748143 ) ;
#137 = CARTESIAN_POINT ( 'NONE',  ( 0.1181100000000000066, 1.446430334472939084E-17, 2.229093999999999465 ) ) ;
#138 = ADVANCED_FACE ( 'NONE', ( #110 ), #161, .T. ) ;
#139 =( GEOMETRIC_REPRESENTATION_CONTEXT ( 3 ) GLOBAL_UNCERTAINTY_ASSIGNED_CONTEXT ( ( #209 ) ) GLOBAL_UNIT_ASSIGNED_CONTEXT ( ( #96, #18, #182 ) ) REPRESENTATION_CONTEXT ( 'NONE', 'WORKASPACE' ) );
#140 = CIRCLE ( 'NONE', #23, 0.1180600000000000399 ) ;
#141 = CARTESIAN_POINT ( 'NONE',  ( 0.0000000000000000000, 0.0000000000000000000, 1.707404996040164512E-17 ) ) ;
#142 = ADVANCED_FACE ( 'NONE', ( #49 ), #86, .T. ) ;
#143 = ORIENTED_EDGE ( 'NONE', *, *, #56, .F. ) ;
#144 = CARTESIAN_POINT ( 'NONE',  ( 0.0000000000000000000, 0.0000000000000000000, 2.244094000000000033 ) ) ;
#145 = PRODUCT ( 'Micro_DMM-060-490X', 'Micro_DMM-060-490X', '', ( #68 ) ) ;
#146 = AXIS2_PLACEMENT_3D ( 'NONE', #144, #275, #249 ) ;
#147 = EDGE_CURVE ( 'NONE', #220, #174, #113, .T. ) ;
#148 = DIRECTION ( 'NONE',  ( 0.0000000000000000000, 0.0000000000000000000, -1.000000000000000000 ) ) ;
#149 = CARTESIAN_POINT ( 'NONE',  ( 0.0000000000000000000, 0.0000000000000000000, 0.0000000000000000000 ) ) ;
#150 = FACE_OUTER_BOUND ( 'NONE', #298, .T. ) ;
#151 =( NAMED_UNIT ( * ) SI_UNIT ( $, .STERADIAN. ) SOLID_ANGLE_UNIT ( ) );
#152 = LINE ( 'NONE', #326, #210 ) ;
#153 = ADVANCED_FACE ( 'NONE', ( #24 ), #155, .T. ) ;
#154 = VECTOR ( 'NONE', #257, 39.37007874015748143 ) ;
#155 = CONICAL_SURFACE ( 'NONE', #2, 0.1031100000000002570, 0.7853981633974318477 ) ;
#156 = VERTEX_POINT ( 'NONE', #327 ) ;
#157 = CARTESIAN_POINT ( 'NONE',  ( 0.007499999999999999722, 0.0000000000000000000, 1.707404996040164512E-17 ) ) ;
#158 = DIRECTION ( 'NONE',  ( 1.000000000000000000, 0.0000000000000000000, -0.0000000000000000000 ) ) ;
#159 = PLANE ( 'NONE',  #28 ) ;
#160 = DIRECTION ( 'NONE',  ( 0.0000000000000000000, 0.0000000000000000000, 1.000000000000000000 ) ) ;
#161 = CYLINDRICAL_SURFACE ( 'NONE', #238, 0.1181100000000000066 ) ;
#162 = CARTESIAN_POINT ( 'NONE',  ( 0.0000000000000000000, 0.0000000000000000000, 2.244094000000000033 ) ) ;
#163 = UNCERTAINTY_MEASURE_WITH_UNIT (LENGTH_MEASURE( 1.000000000000000082E-05 ), #258, 'distance_accuracy_value', 'NONE');
#164 = ORIENTED_EDGE ( 'NONE', *, *, #265, .F. ) ;
#165 = DIRECTION ( 'NONE',  ( 0.0000000000000000000, 0.0000000000000000000, -1.000000000000000000 ) ) ;
#166 = EDGE_LOOP ( 'NONE', ( #143, #64, #189, #42 ) ) ;
#167 = FACE_BOUND ( 'NONE', #36, .T. ) ;
#168 = CARTESIAN_POINT ( 'NONE',  ( 0.0000000000000000000, 0.0000000000000000000, 0.1105599999999995892 ) ) ;
#169 = EDGE_LOOP ( 'NONE', ( #52, #67, #274, #99 ) ) ;
#170 = EDGE_CURVE ( 'NONE', #220, #94, #308, .T. ) ;
#171 = DIRECTION ( 'NONE',  ( -0.0000000000000000000, -0.0000000000000000000, -1.000000000000000000 ) ) ;
#172 = AXIS2_PLACEMENT_3D ( 'NONE', #105, #282, #312 ) ;
#173 = AXIS2_PLACEMENT_3D ( 'NONE', #63, #9, #297 ) ;
#174 = VERTEX_POINT ( 'NONE', #247 ) ;
#175 = STYLED_ITEM ( 'NONE', ( #232 ), #72 ) ;
#176 = DIRECTION ( 'NONE',  ( 1.000000000000000000, 0.0000000000000000000, 0.0000000000000000000 ) ) ;
#177 = ORIENTED_EDGE ( 'NONE', *, *, #147, .F. ) ;
#178 = SURFACE_SIDE_STYLE ('',( #234 ) ) ;
#179 = EDGE_CURVE ( 'NONE', #116, #252, #140, .T. ) ;
#180 = FILL_AREA_STYLE ('',( #97 ) ) ;
#181 = AXIS2_PLACEMENT_3D ( 'NONE', #100, #302, #78 ) ;
#182 =( NAMED_UNIT ( * ) SI_UNIT ( $, .STERADIAN. ) SOLID_ANGLE_UNIT ( ) );
#183 = CARTESIAN_POINT ( 'NONE',  ( 0.1031100000000002570, 1.262733314600838667E-17, 2.244094000000000033 ) ) ;
#184 = APPLICATION_CONTEXT ( 'automotive_design' ) ;
#185 = CARTESIAN_POINT ( 'NONE',  ( -0.1180600000000000538, 1.445818011073365594E-17, 0.1105599999999996030 ) ) ;
#186 = DIRECTION ( 'NONE',  ( -0.0000000000000000000, -0.0000000000000000000, -1.000000000000000000 ) ) ;
#187 = VERTEX_POINT ( 'NONE', #119 ) ;
#188 = CARTESIAN_POINT ( 'NONE',  ( -0.1180600000000000538, 0.0000000000000000000, 0.0000000000000000000 ) ) ;
#189 = ORIENTED_EDGE ( 'NONE', *, *, #147, .T. ) ;
#190 = DIRECTION ( 'NONE',  ( -1.000000000000000000, 0.0000000000000000000, 0.0000000000000000000 ) ) ;
#191 = CONICAL_SURFACE ( 'NONE', #108, 0.007499999999999999722, 0.7853981633974503884 ) ;
#192 = DIRECTION ( 'NONE',  ( -1.000000000000000000, 0.0000000000000000000, 0.0000000000000000000 ) ) ;
#193 = CARTESIAN_POINT ( 'NONE',  ( -0.1181100000000000066, 0.0000000000000000000, 2.229093999999999465 ) ) ;
#194 = CARTESIAN_POINT ( 'NONE',  ( 0.0000000000000000000, 0.0000000000000000000, 2.244094000000000033 ) ) ;
#195 = ORIENTED_EDGE ( 'NONE', *, *, #71, .F. ) ;
#196 = DIRECTION ( 'NONE',  ( 0.0000000000000000000, 0.0000000000000000000, 1.000000000000000000 ) ) ;
#197 = DIMENSIONAL_EXPONENTS ( 1.000000000000000000, 0.0000000000000000000, 0.0000000000000000000, 0.0000000000000000000, 0.0000000000000000000, 0.0000000000000000000, 0.0000000000000000000 ) ;
#198 = ORIENTED_EDGE ( 'NONE', *, *, #76, .F. ) ;
#199 = SURFACE_STYLE_USAGE ( .BOTH. , #178 ) ;
#200 = PRESENTATION_LAYER_ASSIGNMENT (  '', '', ( #175 ) ) ;
#201 = SURFACE_STYLE_FILL_AREA ( #180 ) ;
#202 = ADVANCED_FACE ( 'NONE', ( #218 ), #191, .T. ) ;
#203 = CARTESIAN_POINT ( 'NONE',  ( 0.0000000000000000000, 0.0000000000000000000, 2.229093999999999465 ) ) ;
#204 =( LENGTH_UNIT ( ) NAMED_UNIT ( * ) SI_UNIT ( $, .METRE. ) );
#205 = CARTESIAN_POINT ( 'NONE',  ( 0.0000000000000000000, 0.0000000000000000000, 0.6299209999999999532 ) ) ;
#206 = CIRCLE ( 'NONE', #181, 0.1181100000000000066 ) ;
#207 = LINE ( 'NONE', #329, #266 ) ;
#208 = EDGE_CURVE ( 'NONE', #187, #174, #131, .T. ) ;
#209 = UNCERTAINTY_MEASURE_WITH_UNIT (LENGTH_MEASURE( 1.000000000000000082E-05 ), #96, 'distance_accuracy_value', 'NONE');
#210 = VECTOR ( 'NONE', #70, 39.37007874015748143 ) ;
#211 = AXIS2_PLACEMENT_3D ( 'NONE', #328, #160, #101 ) ;
#212 = ORIENTED_EDGE ( 'NONE', *, *, #79, .F. ) ;
#213 = DIRECTION ( 'NONE',  ( -0.0000000000000000000, -0.0000000000000000000, -1.000000000000000000 ) ) ;
#214 = UNCERTAINTY_MEASURE_WITH_UNIT (LENGTH_MEASURE( 1.000000000000000082E-05 ), #90, 'distance_accuracy_value', 'NONE');
#215 = ORIENTED_EDGE ( 'NONE', *, *, #265, .T. ) ;
#216 = DIRECTION ( 'NONE',  ( -0.0000000000000000000, -0.0000000000000000000, -1.000000000000000000 ) ) ;
#217 = ORIENTED_EDGE ( 'NONE', *, *, #170, .F. ) ;
#218 = FACE_OUTER_BOUND ( 'NONE', #169, .T. ) ;
#219 = CARTESIAN_POINT ( 'NONE',  ( 0.1180600000000000815, 0.0000000000000000000, 0.6299209999999999532 ) ) ;
#220 = VERTEX_POINT ( 'NONE', #193 ) ;
#221 = CYLINDRICAL_SURFACE ( 'NONE', #41, 0.1180600000000000538 ) ;
#222 = ORIENTED_EDGE ( 'NONE', *, *, #71, .T. ) ;
#223 = CARTESIAN_POINT ( 'NONE',  ( 0.1180600000000000538, 0.0000000000000000000, 0.1105599999999996030 ) ) ;
#224 = CIRCLE ( 'NONE', #77, 0.007499999999999999722 ) ;
#225 = ORIENTED_EDGE ( 'NONE', *, *, #106, .F. ) ;
#226 = EDGE_CURVE ( 'NONE', #89, #318, #281, .T. ) ;
#227 =( LENGTH_UNIT ( ) NAMED_UNIT ( * ) SI_UNIT ( $, .METRE. ) );
#228 = APPLICATION_PROTOCOL_DEFINITION ( 'draft international standard', 'automotive_design', 1998, #83 ) ;
#229 = DIRECTION ( 'NONE',  ( 0.7071067811865358044, 8.659560562354788645E-17, -0.7071067811865590080 ) ) ;
#230 = AXIS2_PLACEMENT_3D ( 'NONE', #127, #251, #299 ) ;
#231 = AXIS2_PLACEMENT_3D ( 'NONE', #203, #291, #324 ) ;
#232 = PRESENTATION_STYLE_ASSIGNMENT (( #199 ) ) ;
#233 = DIRECTION ( 'NONE',  ( 0.0000000000000000000, 0.0000000000000000000, -1.000000000000000000 ) ) ;
#234 = SURFACE_STYLE_FILL_AREA ( #47 ) ;
#235 = DIRECTION ( 'NONE',  ( -1.000000000000000000, 0.0000000000000000000, 0.0000000000000000000 ) ) ;
#236 = LENGTH_MEASURE_WITH_UNIT ( LENGTH_MEASURE( 0.02539999999999999897 ), #204 );
#237 = CARTESIAN_POINT ( 'NONE',  ( -0.007499999999999999722, 9.184850993605147975E-19, 1.707404996040164512E-17 ) ) ;
#238 = AXIS2_PLACEMENT_3D ( 'NONE', #29, #213, #26 ) ;
#239 = EDGE_CURVE ( 'NONE', #318, #89, #62, .T. ) ;
#240 = ORIENTED_EDGE ( 'NONE', *, *, #56, .T. ) ;
#241 = PRESENTATION_LAYER_ASSIGNMENT (  '', '', ( #129 ) ) ;
#242 = DIRECTION ( 'NONE',  ( -0.0000000000000000000, -0.0000000000000000000, -1.000000000000000000 ) ) ;
#243 = CARTESIAN_POINT ( 'NONE',  ( 0.0000000000000000000, 0.0000000000000000000, 1.707404996040164512E-17 ) ) ;
#244 =( NAMED_UNIT ( * ) PLANE_ANGLE_UNIT ( ) SI_UNIT ( $, .RADIAN. ) );
#245 = ORIENTED_EDGE ( 'NONE', *, *, #239, .F. ) ;
#246 = VECTOR ( 'NONE', #186, 39.37007874015748143 ) ;
#247 = CARTESIAN_POINT ( 'NONE',  ( -0.1181100000000000066, 0.0000000000000000000, 0.6299209999999998422 ) ) ;
#248 = DIRECTION ( 'NONE',  ( 1.000000000000000000, 0.0000000000000000000, 0.0000000000000000000 ) ) ;
#249 = DIRECTION ( 'NONE',  ( -1.000000000000000000, 0.0000000000000000000, 0.0000000000000000000 ) ) ;
#250 = EDGE_CURVE ( 'NONE', #114, #252, #66, .T. ) ;
#251 = DIRECTION ( 'NONE',  ( -0.0000000000000000000, -0.0000000000000000000, -1.000000000000000000 ) ) ;
#252 = VERTEX_POINT ( 'NONE', #223 ) ;
#253 = CYLINDRICAL_SURFACE ( 'NONE', #230, 0.1180600000000000538 ) ;
#254 = LENGTH_MEASURE_WITH_UNIT ( LENGTH_MEASURE( 0.02539999999999999897 ), #227 );
#255 = PRODUCT_RELATED_PRODUCT_CATEGORY ( 'part', '', ( #145 ) ) ;
#256 = AXIS2_PLACEMENT_3D ( 'NONE', #205, #216, #261 ) ;
#257 = DIRECTION ( 'NONE',  ( -0.0000000000000000000, -0.0000000000000000000, -1.000000000000000000 ) ) ;
#258 =( CONVERSION_BASED_UNIT ( 'INCH', #236 ) LENGTH_UNIT ( ) NAMED_UNIT ( #197 ) );
#259 = DIRECTION ( 'NONE',  ( 0.0000000000000000000, 0.0000000000000000000, 1.000000000000000000 ) ) ;
#260 = FACE_OUTER_BOUND ( 'NONE', #17, .T. ) ;
#261 = DIRECTION ( 'NONE',  ( -1.000000000000000000, 0.0000000000000000000, 0.0000000000000000000 ) ) ;
#262 = CIRCLE ( 'NONE', #307, 0.1181100000000000066 ) ;
#263 = ADVANCED_FACE ( 'NONE', ( #92 ), #221, .T. ) ;
#264 = AXIS2_PLACEMENT_3D ( 'NONE', #168, #171, #321 ) ;
#265 = EDGE_CURVE ( 'NONE', #252, #116, #284, .T. ) ;
#266 = VECTOR ( 'NONE', #80, 39.37007874015748854 ) ;
#267 = DIRECTION ( 'NONE',  ( -0.7071067811865490160, 8.659560562354951347E-17, 0.7071067811865460184 ) ) ;
#268 = ORIENTED_EDGE ( 'NONE', *, *, #76, .T. ) ;
#269 = DIRECTION ( 'NONE',  ( -0.0000000000000000000, 0.0000000000000000000, -1.000000000000000000 ) ) ;
#270 = CARTESIAN_POINT ( 'NONE',  ( -0.1180600000000000815, 0.0000000000000000000, 0.6299209999999999532 ) ) ;
#271 = ORIENTED_EDGE ( 'NONE', *, *, #226, .F. ) ;
#272 = ADVANCED_FACE ( 'NONE', ( #167, #295 ), #273, .T. ) ;
#273 = PLANE ( 'NONE',  #322 ) ;
#274 = ORIENTED_EDGE ( 'NONE', *, *, #179, .T. ) ;
#275 = DIRECTION ( 'NONE',  ( -0.0000000000000000000, -0.0000000000000000000, -1.000000000000000000 ) ) ;
#276 =( NAMED_UNIT ( * ) PLANE_ANGLE_UNIT ( ) SI_UNIT ( $, .RADIAN. ) );
#277 = CIRCLE ( 'NONE', #256, 0.1180600000000000815 ) ;
#278 = EDGE_LOOP ( 'NONE', ( #43, #109 ) ) ;
#279 = EDGE_LOOP ( 'NONE', ( #59, #271, #128, #111 ) ) ;
#280 = LINE ( 'NONE', #31, #40 ) ;
#281 = CIRCLE ( 'NONE', #117, 0.1031100000000002570 ) ;
#282 = DIRECTION ( 'NONE',  ( -0.0000000000000000000, -0.0000000000000000000, -1.000000000000000000 ) ) ;
#283 = CARTESIAN_POINT ( 'NONE',  ( 0.1180600000000000815, 1.445818011073366210E-17, 0.6299209999999999532 ) ) ;
#284 = CIRCLE ( 'NONE', #264, 0.1180600000000000399 ) ;
#285 = EDGE_LOOP ( 'NONE', ( #69, #313 ) ) ;
#286 = CARTESIAN_POINT ( 'NONE',  ( 0.0000000000000000000, 0.0000000000000000000, 0.0000000000000000000 ) ) ;
#287 = PRODUCT_DEFINITION_CONTEXT ( 'detailed design', #184, 'design' ) ;
#288 = AXIS2_PLACEMENT_3D ( 'NONE', #243, #102, #304 ) ;
#289 = DIRECTION ( 'NONE',  ( 1.000000000000000000, 0.0000000000000000000, 0.0000000000000000000 ) ) ;
#290 = ORIENTED_EDGE ( 'NONE', *, *, #250, .T. ) ;
#291 = DIRECTION ( 'NONE',  ( 0.0000000000000000000, 0.0000000000000000000, -1.000000000000000000 ) ) ;
#292 = VERTEX_POINT ( 'NONE', #270 ) ;
#293 = DIRECTION ( 'NONE',  ( 1.000000000000000000, 0.0000000000000000000, 0.0000000000000000000 ) ) ;
#294 = ORIENTED_EDGE ( 'NONE', *, *, #179, .F. ) ;
#295 = FACE_OUTER_BOUND ( 'NONE', #285, .T. ) ;
#296 = DIMENSIONAL_EXPONENTS ( 1.000000000000000000, 0.0000000000000000000, 0.0000000000000000000, 0.0000000000000000000, 0.0000000000000000000, 0.0000000000000000000, 0.0000000000000000000 ) ;
#297 = DIRECTION ( 'NONE',  ( -1.000000000000000000, 0.0000000000000000000, 0.0000000000000000000 ) ) ;
#298 = EDGE_LOOP ( 'NONE', ( #268, #290, #294, #212 ) ) ;
#299 = DIRECTION ( 'NONE',  ( -1.000000000000000000, 0.0000000000000000000, 0.0000000000000000000 ) ) ;
#300 = COLOUR_RGB ( '',0.7921568627450980005, 0.8196078431372548767, 0.9333333333333333481 ) ;
#301 = CARTESIAN_POINT ( 'NONE',  ( 0.0000000000000000000, 0.0000000000000000000, 2.229093999999999465 ) ) ;
#302 = DIRECTION ( 'NONE',  ( -0.0000000000000000000, -0.0000000000000000000, -1.000000000000000000 ) ) ;
#303 = ADVANCED_FACE ( 'NONE', ( #33 ), #15, .T. ) ;
#304 = DIRECTION ( 'NONE',  ( 1.000000000000000000, 0.0000000000000000000, 0.0000000000000000000 ) ) ;
#305 = FACE_OUTER_BOUND ( 'NONE', #126, .T. ) ;
#306 = CIRCLE ( 'NONE', #172, 0.007499999999999999722 ) ;
#307 = AXIS2_PLACEMENT_3D ( 'NONE', #301, #148, #248 ) ;
#308 = CIRCLE ( 'NONE', #231, 0.1181100000000000066 ) ;
#309 = ORIENTED_EDGE ( 'NONE', *, *, #103, .F. ) ;
#310 = PLANE ( 'NONE',  #104 ) ;
#311 = ORIENTED_EDGE ( 'NONE', *, *, #82, .F. ) ;
#312 = DIRECTION ( 'NONE',  ( -1.000000000000000000, 0.0000000000000000000, 0.0000000000000000000 ) ) ;
#313 = ORIENTED_EDGE ( 'NONE', *, *, #208, .T. ) ;
#314 = PRODUCT_DEFINITION_SHAPE ( 'NONE', 'NONE',  #88 ) ;
#315 = DIRECTION ( 'NONE',  ( -0.0000000000000000000, -0.0000000000000000000, -1.000000000000000000 ) ) ;
#316 = ORIENTED_EDGE ( 'NONE', *, *, #115, .F. ) ;
#317 =( LENGTH_UNIT ( ) NAMED_UNIT ( * ) SI_UNIT ( $, .METRE. ) );
#318 = VERTEX_POINT ( 'NONE', #13 ) ;
#319 = CARTESIAN_POINT ( 'NONE',  ( 0.0000000000000000000, 0.0000000000000000000, 2.244094000000000033 ) ) ;
#320 = SURFACE_SIDE_STYLE ('',( #201 ) ) ;
#321 = DIRECTION ( 'NONE',  ( -1.000000000000000000, 0.0000000000000000000, 0.0000000000000000000 ) ) ;
#322 = AXIS2_PLACEMENT_3D ( 'NONE', #219, #269, #35 ) ;
#323 = PRESENTATION_STYLE_ASSIGNMENT (( #123 ) ) ;
#324 = DIRECTION ( 'NONE',  ( 1.000000000000000000, 0.0000000000000000000, 0.0000000000000000000 ) ) ;
#325 = EDGE_LOOP ( 'NONE', ( #7, #240, #316, #177 ) ) ;
#326 = CARTESIAN_POINT ( 'NONE',  ( 0.007499999999999999722, 0.0000000000000000000, 1.707404996040164512E-17 ) ) ;
#327 = CARTESIAN_POINT ( 'NONE',  ( -0.007499999999999999722, 7.688332605047084406E-18, 1.707404996040164512E-17 ) ) ;
#328 = CARTESIAN_POINT ( 'NONE',  ( 0.0000000000000000000, 0.0000000000000000000, 0.0000000000000000000 ) ) ;
#329 = CARTESIAN_POINT ( 'NONE',  ( -0.1031100000000002570, 0.0000000000000000000, 2.244094000000000033 ) ) ;
ENDSEC;
END-ISO-10303-21;
