ISO-10303-21;
HEADER;
FILE_DESCRIPTION (( 'STEP AP214' ),
    '1' );
FILE_NAME ('83192.STEP',
    '2023-06-23T08:11:29',
    ( '' ),
    ( '' ),
    'SwSTEP 2.0',
    'SolidWorks 2023',
    '' );
FILE_SCHEMA (( 'AUTOMOTIVE_DESIGN' ));
ENDSEC;

DATA;
#1 = DIRECTION ( 'NONE',  ( 3.918869757271530214E-17, 1.000000000000000000, -0.000000000000000000 ) ) ;
#2 = DIRECTION ( 'NONE',  ( -0.000000000000000000, -1.000000000000000000, -0.000000000000000000 ) ) ;
#3 = CIRCLE ( 'NONE', #214, 0.09375000000000001388 ) ;
#4 = DIMENSIONAL_EXPONENTS ( 1.000000000000000000, 0.000000000000000000, 0.000000000000000000, 0.000000000000000000, 0.000000000000000000, 0.000000000000000000, 0.000000000000000000 ) ;
#5 = UNCERTAINTY_MEASURE_WITH_UNIT (LENGTH_MEASURE( 1.000000000000000082E-05 ), #296, 'distance_accuracy_value', 'NONE');
#6 = ORIENTED_EDGE ( 'NONE', *, *, #114, .T. ) ;
#7 = CARTESIAN_POINT ( 'NONE',  ( 0.000000000000000000, 0.000000000000000000, 0.000000000000000000 ) ) ;
#8 = APPLICATION_CONTEXT ( 'automotive_design' ) ;
#9 = COLOUR_RGB ( '',1.000000000000000000, 0.000000000000000000, 0.000000000000000000 ) ;
#10 = DIRECTION ( 'NONE',  ( 3.918869757271530214E-17, 1.000000000000000000, -0.000000000000000000 ) ) ;
#11 = EDGE_CURVE ( 'NONE', #220, #218, #166, .T. ) ;
#12 = ORIENTED_EDGE ( 'NONE', *, *, #94, .F. ) ;
#13 = SURFACE_SIDE_STYLE ('',( #198 ) ) ;
#14 = DIRECTION ( 'NONE',  ( 0.000000000000000000, 0.000000000000000000, 1.000000000000000000 ) ) ;
#15 =( GEOMETRIC_REPRESENTATION_CONTEXT ( 3 ) GLOBAL_UNCERTAINTY_ASSIGNED_CONTEXT ( ( #118 ) ) GLOBAL_UNIT_ASSIGNED_CONTEXT ( ( #174, #63, #150 ) ) REPRESENTATION_CONTEXT ( 'NONE', 'WORKASPACE' ) );
#16 = CIRCLE ( 'NONE', #204, 0.09375000000000001388 ) ;
#17 = DIRECTION ( 'NONE',  ( 0.000000000000000000, -0.000000000000000000, 1.000000000000000000 ) ) ;
#18 = DIRECTION ( 'NONE',  ( 0.000000000000000000, 0.000000000000000000, -1.000000000000000000 ) ) ;
#19 = FACE_OUTER_BOUND ( 'NONE', #129, .T. ) ;
#20 =( CONVERSION_BASED_UNIT ( 'INCH', #302 ) LENGTH_UNIT ( ) NAMED_UNIT ( #34 ) );
#21 = EDGE_CURVE ( 'NONE', #145, #220, #247, .T. ) ;
#22 =( GEOMETRIC_REPRESENTATION_CONTEXT ( 3 ) GLOBAL_UNCERTAINTY_ASSIGNED_CONTEXT ( ( #240 ) ) GLOBAL_UNIT_ASSIGNED_CONTEXT ( ( #28, #119, #165 ) ) REPRESENTATION_CONTEXT ( 'NONE', 'WORKASPACE' ) );
#23 = CARTESIAN_POINT ( 'NONE',  ( 1.148106374200643863E-17, 0.000000000000000000, 0.09375000000000001388 ) ) ;
#24 =( NAMED_UNIT ( * ) SI_UNIT ( $, .STERADIAN. ) SOLID_ANGLE_UNIT ( ) );
#25 =( GEOMETRIC_REPRESENTATION_CONTEXT ( 3 ) GLOBAL_UNCERTAINTY_ASSIGNED_CONTEXT ( ( #142 ) ) GLOBAL_UNIT_ASSIGNED_CONTEXT ( ( #144, #100, #74 ) ) REPRESENTATION_CONTEXT ( 'NONE', 'WORKASPACE' ) );
#26 = CARTESIAN_POINT ( 'NONE',  ( 6.123233995736766036E-17, 2.000000000000000000, 0.000000000000000000 ) ) ;
#27 = PLANE ( 'NONE',  #303 ) ;
#28 =( CONVERSION_BASED_UNIT ( 'INCH', #31 ) LENGTH_UNIT ( ) NAMED_UNIT ( #55 ) );
#29 = DIMENSIONAL_EXPONENTS ( 1.000000000000000000, 0.000000000000000000, 0.000000000000000000, 0.000000000000000000, 0.000000000000000000, 0.000000000000000000, 0.000000000000000000 ) ;
#30 = STYLED_ITEM ( 'NONE', ( #79 ), #294 ) ;
#31 = LENGTH_MEASURE_WITH_UNIT ( LENGTH_MEASURE( 0.02539999999999999897 ), #237 );
#32 = CYLINDRICAL_SURFACE ( 'NONE', #103, 0.09375000000000001388 ) ;
#33 = EDGE_CURVE ( 'NONE', #124, #288, #249, .T. ) ;
#34 = DIMENSIONAL_EXPONENTS ( 1.000000000000000000, 0.000000000000000000, 0.000000000000000000, 0.000000000000000000, 0.000000000000000000, 0.000000000000000000, 0.000000000000000000 ) ;
#35 = DIRECTION ( 'NONE',  ( 3.918869757271530214E-17, 1.000000000000000000, -0.000000000000000000 ) ) ;
#36 = MECHANICAL_DESIGN_GEOMETRIC_PRESENTATION_REPRESENTATION (  '', ( #87 ), #275 ) ;
#37 = MECHANICAL_DESIGN_GEOMETRIC_PRESENTATION_REPRESENTATION (  '', ( #117 ), #222 ) ;
#38 = SURFACE_STYLE_USAGE ( .BOTH. , #13 ) ;
#39 = ORIENTED_EDGE ( 'NONE', *, *, #203, .F. ) ;
#40 = CARTESIAN_POINT ( 'NONE',  ( 0.000000000000000000, 0.4375000000000000000, 0.000000000000000000 ) ) ;
#41 =( LENGTH_UNIT ( ) NAMED_UNIT ( * ) SI_UNIT ( $, .METRE. ) );
#42 = CARTESIAN_POINT ( 'NONE',  ( 0.000000000000000000, 0.000000000000000000, 0.000000000000000000 ) ) ;
#43 = COLOUR_RGB ( '',1.000000000000000000, 0.000000000000000000, 0.000000000000000000 ) ;
#44 = CYLINDRICAL_SURFACE ( 'NONE', #209, 0.09375000000000001388 ) ;
#45 = ADVANCED_FACE ( 'NONE', ( #109 ), #62, .T. ) ;
#46 = SURFACE_STYLE_USAGE ( .BOTH. , #202 ) ;
#47 = DIRECTION ( 'NONE',  ( -0.000000000000000000, -1.000000000000000000, -0.000000000000000000 ) ) ;
#48 = MECHANICAL_DESIGN_GEOMETRIC_PRESENTATION_REPRESENTATION (  '', ( #277 ), #22 ) ;
#49 = CARTESIAN_POINT ( 'NONE',  ( 6.123233995736766036E-17, 2.000000000000000000, 0.000000000000000000 ) ) ;
#50 = FACE_OUTER_BOUND ( 'NONE', #238, .T. ) ;
#51 = AXIS2_PLACEMENT_3D ( 'NONE', #26, #1, #98 ) ;
#52 = MANIFOLD_SOLID_BREP ( 'Revolve - Tool Body (Straight Shanked)', #141 ) ;
#53 = EDGE_CURVE ( 'NONE', #124, #101, #137, .T. ) ;
#54 = VECTOR ( 'NONE', #146, 39.37007874015748143 ) ;
#55 = DIMENSIONAL_EXPONENTS ( 1.000000000000000000, 0.000000000000000000, 0.000000000000000000, 0.000000000000000000, 0.000000000000000000, 0.000000000000000000, 0.000000000000000000 ) ;
#56 = FACE_OUTER_BOUND ( 'NONE', #178, .T. ) ;
#57 = ORIENTED_EDGE ( 'NONE', *, *, #186, .F. ) ;
#58 = CIRCLE ( 'NONE', #131, 0.09375000000000001388 ) ;
#59 = DIRECTION ( 'NONE',  ( -0.000000000000000000, -1.000000000000000000, -0.000000000000000000 ) ) ;
#60 = CARTESIAN_POINT ( 'NONE',  ( 6.123233995736766036E-17, 2.000000000000000000, 0.000000000000000000 ) ) ;
#61 = DIRECTION ( 'NONE',  ( -0.000000000000000000, -1.000000000000000000, -0.000000000000000000 ) ) ;
#62 = PLANE ( 'NONE',  #260 ) ;
#63 =( NAMED_UNIT ( * ) PLANE_ANGLE_UNIT ( ) SI_UNIT ( $, .RADIAN. ) );
#64 = STYLED_ITEM ( 'NONE', ( #102 ), #191 ) ;
#65 = ADVANCED_FACE ( 'NONE', ( #19 ), #115, .F. ) ;
#66 = SURFACE_STYLE_USAGE ( .BOTH. , #175 ) ;
#67 = FACE_OUTER_BOUND ( 'NONE', #163, .T. ) ;
#68 = PRESENTATION_STYLE_ASSIGNMENT (( #89 ) ) ;
#69 = PRESENTATION_LAYER_ASSIGNMENT (  '', '', ( #30 ) ) ;
#70 = CARTESIAN_POINT ( 'NONE',  ( 0.000000000000000000, 0.4375000000000000000, -0.09375000000000001388 ) ) ;
#71 =( CONVERSION_BASED_UNIT ( 'INCH', #304 ) LENGTH_UNIT ( ) NAMED_UNIT ( #262 ) );
#72 = DIRECTION ( 'NONE',  ( 0.000000000000000000, 0.000000000000000000, -1.000000000000000000 ) ) ;
#73 = SURFACE_STYLE_USAGE ( .BOTH. , #239 ) ;
#74 =( NAMED_UNIT ( * ) SI_UNIT ( $, .STERADIAN. ) SOLID_ANGLE_UNIT ( ) );
#75 = ORIENTED_EDGE ( 'NONE', *, *, #11, .T. ) ;
#76 = CARTESIAN_POINT ( 'NONE',  ( 0.09375000000000001388, 2.000000000000000000, 1.148106374200643401E-17 ) ) ;
#77 = EDGE_LOOP ( 'NONE', ( #120, #190, #244, #123 ) ) ;
#78 = ORIENTED_EDGE ( 'NONE', *, *, #231, .T. ) ;
#79 = PRESENTATION_STYLE_ASSIGNMENT (( #38 ) ) ;
#80 = DIRECTION ( 'NONE',  ( -0.000000000000000000, -1.000000000000000000, -0.000000000000000000 ) ) ;
#81 = STYLED_ITEM ( 'NONE', ( #68 ), #156 ) ;
#82 =( NAMED_UNIT ( * ) SI_UNIT ( $, .STERADIAN. ) SOLID_ANGLE_UNIT ( ) );
#83 = ORIENTED_EDGE ( 'NONE', *, *, #282, .T. ) ;
#84 = PRODUCT_CONTEXT ( 'NONE', #234, 'mechanical' ) ;
#85 = LENGTH_MEASURE_WITH_UNIT ( LENGTH_MEASURE( 0.02539999999999999897 ), #127 );
#86 = VERTEX_POINT ( 'NONE', #261 ) ;
#87 = STYLED_ITEM ( 'NONE', ( #226 ), #45 ) ;
#88 = AXIS2_PLACEMENT_3D ( 'NONE', #122, #35, #192 ) ;
#89 = SURFACE_STYLE_USAGE ( .BOTH. , #280 ) ;
#90 = FILL_AREA_STYLE ('',( #206 ) ) ;
#91 = COLOUR_RGB ( '',1.000000000000000000, 0.000000000000000000, 0.000000000000000000 ) ;
#92 = DIRECTION ( 'NONE',  ( -1.000000000000000000, 0.000000000000000000, 0.000000000000000000 ) ) ;
#93 = UNCERTAINTY_MEASURE_WITH_UNIT (LENGTH_MEASURE( 1.000000000000000082E-05 ), #221, 'distance_accuracy_value', 'NONE');
#94 = EDGE_CURVE ( 'NONE', #288, #124, #126, .T. ) ;
#95 = ADVANCED_FACE ( 'NONE', ( #67 ), #181, .T. ) ;
#96 = DIRECTION ( 'NONE',  ( 0.000000000000000000, 0.000000000000000000, -1.000000000000000000 ) ) ;
#97 = AXIS2_PLACEMENT_3D ( 'NONE', #257, #113, #305 ) ;
#98 = DIRECTION ( 'NONE',  ( -1.000000000000000000, 0.000000000000000000, 0.000000000000000000 ) ) ;
#99 = ORIENTED_EDGE ( 'NONE', *, *, #11, .F. ) ;
#100 =( NAMED_UNIT ( * ) PLANE_ANGLE_UNIT ( ) SI_UNIT ( $, .RADIAN. ) );
#101 = VERTEX_POINT ( 'NONE', #232 ) ;
#102 = PRESENTATION_STYLE_ASSIGNMENT (( #73 ) ) ;
#103 = AXIS2_PLACEMENT_3D ( 'NONE', #7, #2, #96 ) ;
#104 = FILL_AREA_STYLE ('',( #171 ) ) ;
#105 = UNCERTAINTY_MEASURE_WITH_UNIT (LENGTH_MEASURE( 1.000000000000000082E-05 ), #20, 'distance_accuracy_value', 'NONE');
#106 = ORIENTED_EDGE ( 'NONE', *, *, #269, .F. ) ;
#107 = DIRECTION ( 'NONE',  ( 0.000000000000000000, 1.000000000000000000, 0.000000000000000000 ) ) ;
#108 = DIRECTION ( 'NONE',  ( 1.000000000000000000, 0.000000000000000000, 0.000000000000000000 ) ) ;
#109 = FACE_OUTER_BOUND ( 'NONE', #235, .T. ) ;
#110 = FILL_AREA_STYLE_COLOUR ( '', #301 ) ;
#111 = CIRCLE ( 'NONE', #88, 0.09374999999999994449 ) ;
#112 = FACE_OUTER_BOUND ( 'NONE', #139, .T. ) ;
#113 = DIRECTION ( 'NONE',  ( -3.918869757271530214E-17, -1.000000000000000000, 0.000000000000000000 ) ) ;
#114 = EDGE_CURVE ( 'NONE', #86, #218, #254, .T. ) ;
#115 = PLANE ( 'NONE',  #97 ) ;
#116 = LENGTH_MEASURE_WITH_UNIT ( LENGTH_MEASURE( 0.02539999999999999897 ), #143 );
#117 = STYLED_ITEM ( 'NONE', ( #272 ), #52 ) ;
#118 = UNCERTAINTY_MEASURE_WITH_UNIT (LENGTH_MEASURE( 1.000000000000000082E-05 ), #174, 'distance_accuracy_value', 'NONE');
#119 =( NAMED_UNIT ( * ) PLANE_ANGLE_UNIT ( ) SI_UNIT ( $, .RADIAN. ) );
#120 = ORIENTED_EDGE ( 'NONE', *, *, #33, .T. ) ;
#121 = PRODUCT_DEFINITION_CONTEXT ( 'detailed design', #8, 'design' ) ;
#122 = CARTESIAN_POINT ( 'NONE',  ( 6.123233995736766036E-17, 2.000000000000000000, 0.000000000000000000 ) ) ;
#123 = ORIENTED_EDGE ( 'NONE', *, *, #53, .F. ) ;
#124 = VERTEX_POINT ( 'NONE', #70 ) ;
#125 = DIRECTION ( 'NONE',  ( 3.918869757271530214E-17, 1.000000000000000000, -0.000000000000000000 ) ) ;
#126 = CIRCLE ( 'NONE', #307, 0.09375000000000001388 ) ;
#127 =( LENGTH_UNIT ( ) NAMED_UNIT ( * ) SI_UNIT ( $, .METRE. ) );
#128 = EDGE_LOOP ( 'NONE', ( #39, #268 ) ) ;
#129 = EDGE_LOOP ( 'NONE', ( #149, #75 ) ) ;
#130 = ADVANCED_BREP_SHAPE_REPRESENTATION ( '83192', ( #255, #52, #194 ), #245 ) ;
#131 = AXIS2_PLACEMENT_3D ( 'NONE', #285, #61, #278 ) ;
#132 = FACE_OUTER_BOUND ( 'NONE', #128, .T. ) ;
#133 = CARTESIAN_POINT ( 'NONE',  ( 7.198846956776916766E-35, 0.4375000000000000000, 0.000000000000000000 ) ) ;
#134 = ADVANCED_FACE ( 'NONE', ( #132 ), #27, .F. ) ;
#135 = CLOSED_SHELL ( 'NONE', ( #294, #45, #191, #156 ) ) ;
#136 = PRESENTATION_LAYER_ASSIGNMENT (  '', '', ( #277 ) ) ;
#137 = LINE ( 'NONE', #207, #167 ) ;
#138 = DIRECTION ( 'NONE',  ( 3.918869757271530214E-17, 1.000000000000000000, -0.000000000000000000 ) ) ;
#139 = EDGE_LOOP ( 'NONE', ( #83, #263 ) ) ;
#140 = SURFACE_STYLE_USAGE ( .BOTH. , #164 ) ;
#141 = CLOSED_SHELL ( 'NONE', ( #170, #134, #95, #65 ) ) ;
#142 = UNCERTAINTY_MEASURE_WITH_UNIT (LENGTH_MEASURE( 1.000000000000000082E-05 ), #144, 'distance_accuracy_value', 'NONE');
#143 =( LENGTH_UNIT ( ) NAMED_UNIT ( * ) SI_UNIT ( $, .METRE. ) );
#144 =( CONVERSION_BASED_UNIT ( 'INCH', #116 ) LENGTH_UNIT ( ) NAMED_UNIT ( #286 ) );
#145 = VERTEX_POINT ( 'NONE', #205 ) ;
#146 = DIRECTION ( 'NONE',  ( -0.000000000000000000, -1.000000000000000000, -0.000000000000000000 ) ) ;
#147 = DIRECTION ( 'NONE',  ( 0.000000000000000000, 0.000000000000000000, -1.000000000000000000 ) ) ;
#148 = VERTEX_POINT ( 'NONE', #23 ) ;
#149 = ORIENTED_EDGE ( 'NONE', *, *, #246, .T. ) ;
#150 =( NAMED_UNIT ( * ) SI_UNIT ( $, .STERADIAN. ) SOLID_ANGLE_UNIT ( ) );
#151 = PRESENTATION_LAYER_ASSIGNMENT (  '', '', ( #87 ) ) ;
#152 =( GEOMETRIC_REPRESENTATION_CONTEXT ( 3 ) GLOBAL_UNCERTAINTY_ASSIGNED_CONTEXT ( ( #264 ) ) GLOBAL_UNIT_ASSIGNED_CONTEXT ( ( #71, #306, #258 ) ) REPRESENTATION_CONTEXT ( 'NONE', 'WORKASPACE' ) );
#153 = FILL_AREA_STYLE ('',( #196 ) ) ;
#154 = DIRECTION ( 'NONE',  ( 3.918869757271530214E-17, 1.000000000000000000, -0.000000000000000000 ) ) ;
#155 = SURFACE_STYLE_FILL_AREA ( #252 ) ;
#156 = ADVANCED_FACE ( 'NONE', ( #112 ), #283, .T. ) ;
#157 = CARTESIAN_POINT ( 'NONE',  ( 0.000000000000000000, 0.4375000000000000000, 0.000000000000000000 ) ) ;
#158 = COLOUR_RGB ( '',1.000000000000000000, 0.000000000000000000, 0.000000000000000000 ) ;
#159 = DIRECTION ( 'NONE',  ( 3.918869757271530214E-17, 1.000000000000000000, -0.000000000000000000 ) ) ;
#160 = DIRECTION ( 'NONE',  ( 0.000000000000000000, -1.000000000000000000, -0.000000000000000000 ) ) ;
#161 = DIRECTION ( 'NONE',  ( -0.000000000000000000, -1.000000000000000000, -0.000000000000000000 ) ) ;
#162 = SURFACE_STYLE_FILL_AREA ( #215 ) ;
#163 = EDGE_LOOP ( 'NONE', ( #168, #78, #6, #99 ) ) ;
#164 = SURFACE_SIDE_STYLE ('',( #293 ) ) ;
#165 =( NAMED_UNIT ( * ) SI_UNIT ( $, .STERADIAN. ) SOLID_ANGLE_UNIT ( ) );
#166 = CIRCLE ( 'NONE', #265, 0.09374999999999994449 ) ;
#167 = VECTOR ( 'NONE', #161, 39.37007874015748143 ) ;
#168 = ORIENTED_EDGE ( 'NONE', *, *, #21, .F. ) ;
#169 = CARTESIAN_POINT ( 'NONE',  ( 0.000000000000000000, 0.4374999999999998890, 0.000000000000000000 ) ) ;
#170 = ADVANCED_FACE ( 'NONE', ( #50 ), #230, .T. ) ;
#171 = FILL_AREA_STYLE_COLOUR ( '', #227 ) ;
#172 = FACE_OUTER_BOUND ( 'NONE', #77, .T. ) ;
#173 =( NAMED_UNIT ( * ) SI_UNIT ( $, .STERADIAN. ) SOLID_ANGLE_UNIT ( ) );
#174 =( CONVERSION_BASED_UNIT ( 'INCH', #85 ) LENGTH_UNIT ( ) NAMED_UNIT ( #4 ) );
#175 = SURFACE_SIDE_STYLE ('',( #155 ) ) ;
#176 = APPLICATION_PROTOCOL_DEFINITION ( 'draft international standard', 'automotive_design', 1998, #8 ) ;
#177 = DIRECTION ( 'NONE',  ( 0.000000000000000000, 0.000000000000000000, -1.000000000000000000 ) ) ;
#178 = EDGE_LOOP ( 'NONE', ( #57, #266, #187, #106 ) ) ;
#179 = MECHANICAL_DESIGN_GEOMETRIC_PRESENTATION_REPRESENTATION (  '', ( #81 ), #152 ) ;
#180 = DIRECTION ( 'NONE',  ( -0.000000000000000000, -1.000000000000000000, -0.000000000000000000 ) ) ;
#181 = CYLINDRICAL_SURFACE ( 'NONE', #297, 0.09374999999999997224 ) ;
#182 = PRESENTATION_LAYER_ASSIGNMENT (  '', '', ( #117 ) ) ;
#183 =( LENGTH_UNIT ( ) NAMED_UNIT ( * ) SI_UNIT ( $, .METRE. ) );
#184 = VECTOR ( 'NONE', #159, 39.37007874015748143 ) ;
#185 = DIRECTION ( 'NONE',  ( -1.000000000000000000, 0.000000000000000000, 0.000000000000000000 ) ) ;
#186 = EDGE_CURVE ( 'NONE', #288, #148, #195, .T. ) ;
#187 = ORIENTED_EDGE ( 'NONE', *, *, #53, .T. ) ;
#188 = PRESENTATION_STYLE_ASSIGNMENT (( #140 ) ) ;
#189 = PRODUCT_DEFINITION_SHAPE ( 'NONE', 'NONE',  #212 ) ;
#190 = ORIENTED_EDGE ( 'NONE', *, *, #186, .T. ) ;
#191 = ADVANCED_FACE ( 'NONE', ( #56 ), #32, .T. ) ;
#192 = DIRECTION ( 'NONE',  ( -1.000000000000000000, 0.000000000000000000, 0.000000000000000000 ) ) ;
#193 = ORIENTED_EDGE ( 'NONE', *, *, #203, .T. ) ;
#194 = AXIS2_PLACEMENT_3D ( 'NONE', #299, #14, #108 ) ;
#195 = LINE ( 'NONE', #213, #54 ) ;
#196 = FILL_AREA_STYLE_COLOUR ( '', #158 ) ;
#197 = CIRCLE ( 'NONE', #243, 0.09375000000000001388 ) ;
#198 = SURFACE_STYLE_FILL_AREA ( #153 ) ;
#199 = SURFACE_STYLE_FILL_AREA ( #201 ) ;
#200 =( NAMED_UNIT ( * ) PLANE_ANGLE_UNIT ( ) SI_UNIT ( $, .RADIAN. ) );
#201 = FILL_AREA_STYLE ('',( #110 ) ) ;
#202 = SURFACE_SIDE_STYLE ('',( #199 ) ) ;
#203 = EDGE_CURVE ( 'NONE', #86, #145, #16, .T. ) ;
#204 = AXIS2_PLACEMENT_3D ( 'NONE', #169, #10, #185 ) ;
#205 = CARTESIAN_POINT ( 'NONE',  ( 0.09375000000000001388, 0.4374999999999998890, 1.148106374200643401E-17 ) ) ;
#206 = FILL_AREA_STYLE_COLOUR ( '', #43 ) ;
#207 = CARTESIAN_POINT ( 'NONE',  ( 0.000000000000000000, 0.000000000000000000, -0.09375000000000001388 ) ) ;
#208 = VECTOR ( 'NONE', #125, 39.37007874015748143 ) ;
#209 = AXIS2_PLACEMENT_3D ( 'NONE', #225, #59, #147 ) ;
#210 = CARTESIAN_POINT ( 'NONE',  ( -0.09374999999999990286, 2.000000000000000000, 0.000000000000000000 ) ) ;
#211 = DIRECTION ( 'NONE',  ( 3.918869757271530214E-17, 1.000000000000000000, -0.000000000000000000 ) ) ;
#212 = PRODUCT_DEFINITION ( 'UNKNOWN', '', #284, #121 ) ;
#213 = CARTESIAN_POINT ( 'NONE',  ( 1.148106374200643863E-17, 0.000000000000000000, 0.09375000000000001388 ) ) ;
#214 = AXIS2_PLACEMENT_3D ( 'NONE', #42, #180, #177 ) ;
#215 = FILL_AREA_STYLE ('',( #289 ) ) ;
#216 = ORIENTED_EDGE ( 'NONE', *, *, #114, .F. ) ;
#217 = PRESENTATION_LAYER_ASSIGNMENT (  '', '', ( #64 ) ) ;
#218 = VERTEX_POINT ( 'NONE', #241 ) ;
#219 =( LENGTH_UNIT ( ) NAMED_UNIT ( * ) SI_UNIT ( $, .METRE. ) );
#220 = VERTEX_POINT ( 'NONE', #76 ) ;
#221 =( CONVERSION_BASED_UNIT ( 'INCH', #253 ) LENGTH_UNIT ( ) NAMED_UNIT ( #233 ) );
#222 =( GEOMETRIC_REPRESENTATION_CONTEXT ( 3 ) GLOBAL_UNCERTAINTY_ASSIGNED_CONTEXT ( ( #105 ) ) GLOBAL_UNIT_ASSIGNED_CONTEXT ( ( #20, #250, #24 ) ) REPRESENTATION_CONTEXT ( 'NONE', 'WORKASPACE' ) );
#223 = SHAPE_DEFINITION_REPRESENTATION ( #189, #130 ) ;
#224 = FILL_AREA_STYLE_COLOUR ( '', #9 ) ;
#225 = CARTESIAN_POINT ( 'NONE',  ( 0.000000000000000000, 0.000000000000000000, 0.000000000000000000 ) ) ;
#226 = PRESENTATION_STYLE_ASSIGNMENT (( #66 ) ) ;
#227 = COLOUR_RGB ( '',0.7921568627450980005, 0.8196078431372548767, 0.9333333333333333481 ) ;
#228 = DIRECTION ( 'NONE',  ( -1.000000000000000000, 3.918869757271530214E-17, 0.000000000000000000 ) ) ;
#229 = CARTESIAN_POINT ( 'NONE',  ( 0.000000000000000000, 0.000000000000000000, 0.000000000000000000 ) ) ;
#230 = CYLINDRICAL_SURFACE ( 'NONE', #51, 0.09374999999999997224 ) ;
#231 = EDGE_CURVE ( 'NONE', #145, #86, #197, .T. ) ;
#232 = CARTESIAN_POINT ( 'NONE',  ( 0.000000000000000000, 0.000000000000000000, -0.09375000000000001388 ) ) ;
#233 = DIMENSIONAL_EXPONENTS ( 1.000000000000000000, 0.000000000000000000, 0.000000000000000000, 0.000000000000000000, 0.000000000000000000, 0.000000000000000000, 0.000000000000000000 ) ;
#234 = APPLICATION_CONTEXT ( 'automotive_design' ) ;
#235 = EDGE_LOOP ( 'NONE', ( #273, #12 ) ) ;
#236 = MECHANICAL_DESIGN_GEOMETRIC_PRESENTATION_REPRESENTATION (  '', ( #30 ), #15 ) ;
#237 =( LENGTH_UNIT ( ) NAMED_UNIT ( * ) SI_UNIT ( $, .METRE. ) );
#238 = EDGE_LOOP ( 'NONE', ( #193, #292, #290, #216 ) ) ;
#239 = SURFACE_SIDE_STYLE ('',( #162 ) ) ;
#240 = UNCERTAINTY_MEASURE_WITH_UNIT (LENGTH_MEASURE( 1.000000000000000082E-05 ), #28, 'distance_accuracy_value', 'NONE');
#241 = CARTESIAN_POINT ( 'NONE',  ( -0.09374999999999987510, 2.000000000000000000, 0.000000000000000000 ) ) ;
#242 = DIRECTION ( 'NONE',  ( -1.000000000000000000, 0.000000000000000000, 0.000000000000000000 ) ) ;
#243 = AXIS2_PLACEMENT_3D ( 'NONE', #267, #287, #242 ) ;
#244 = ORIENTED_EDGE ( 'NONE', *, *, #282, .F. ) ;
#245 =( GEOMETRIC_REPRESENTATION_CONTEXT ( 3 ) GLOBAL_UNCERTAINTY_ASSIGNED_CONTEXT ( ( #5 ) ) GLOBAL_UNIT_ASSIGNED_CONTEXT ( ( #296, #200, #82 ) ) REPRESENTATION_CONTEXT ( 'NONE', 'WORKASPACE' ) );
#246 = EDGE_CURVE ( 'NONE', #218, #220, #111, .T. ) ;
#247 = LINE ( 'NONE', #276, #208 ) ;
#248 = DIRECTION ( 'NONE',  ( -1.000000000000000000, 0.000000000000000000, 0.000000000000000000 ) ) ;
#249 = CIRCLE ( 'NONE', #291, 0.09375000000000001388 ) ;
#250 =( NAMED_UNIT ( * ) PLANE_ANGLE_UNIT ( ) SI_UNIT ( $, .RADIAN. ) );
#251 = MECHANICAL_DESIGN_GEOMETRIC_PRESENTATION_REPRESENTATION (  '', ( #64 ), #25 ) ;
#252 = FILL_AREA_STYLE ('',( #224 ) ) ;
#253 = LENGTH_MEASURE_WITH_UNIT ( LENGTH_MEASURE( 0.02539999999999999897 ), #41 );
#254 = LINE ( 'NONE', #210, #184 ) ;
#255 = MANIFOLD_SOLID_BREP ( 'Revolve - Cutting Edge', #135 ) ;
#256 = AXIS2_PLACEMENT_3D ( 'NONE', #229, #160, #259 ) ;
#257 = CARTESIAN_POINT ( 'NONE',  ( 0.09375000000000001388, 2.000000000000000000, 0.000000000000000000 ) ) ;
#258 =( NAMED_UNIT ( * ) SI_UNIT ( $, .STERADIAN. ) SOLID_ANGLE_UNIT ( ) );
#259 = DIRECTION ( 'NONE',  ( 0.000000000000000000, 0.000000000000000000, -1.000000000000000000 ) ) ;
#260 = AXIS2_PLACEMENT_3D ( 'NONE', #274, #107, #17 ) ;
#261 = CARTESIAN_POINT ( 'NONE',  ( -0.09375000000000001388, 0.4374999999999998890, 0.000000000000000000 ) ) ;
#262 = DIMENSIONAL_EXPONENTS ( 1.000000000000000000, 0.000000000000000000, 0.000000000000000000, 0.000000000000000000, 0.000000000000000000, 0.000000000000000000, 0.000000000000000000 ) ;
#263 = ORIENTED_EDGE ( 'NONE', *, *, #269, .T. ) ;
#264 = UNCERTAINTY_MEASURE_WITH_UNIT (LENGTH_MEASURE( 1.000000000000000082E-05 ), #71, 'distance_accuracy_value', 'NONE');
#265 = AXIS2_PLACEMENT_3D ( 'NONE', #60, #154, #248 ) ;
#266 = ORIENTED_EDGE ( 'NONE', *, *, #94, .T. ) ;
#267 = CARTESIAN_POINT ( 'NONE',  ( 0.000000000000000000, 0.4374999999999998890, 0.000000000000000000 ) ) ;
#268 = ORIENTED_EDGE ( 'NONE', *, *, #231, .F. ) ;
#269 = EDGE_CURVE ( 'NONE', #148, #101, #58, .T. ) ;
#270 = CARTESIAN_POINT ( 'NONE',  ( 1.148106374200643863E-17, 0.4375000000000000000, 0.09375000000000001388 ) ) ;
#271 = PRESENTATION_LAYER_ASSIGNMENT (  '', '', ( #81 ) ) ;
#272 = PRESENTATION_STYLE_ASSIGNMENT (( #46 ) ) ;
#273 = ORIENTED_EDGE ( 'NONE', *, *, #33, .F. ) ;
#274 = CARTESIAN_POINT ( 'NONE',  ( 0.000000000000000000, 0.4375000000000000000, 0.000000000000000000 ) ) ;
#275 =( GEOMETRIC_REPRESENTATION_CONTEXT ( 3 ) GLOBAL_UNCERTAINTY_ASSIGNED_CONTEXT ( ( #93 ) ) GLOBAL_UNIT_ASSIGNED_CONTEXT ( ( #221, #295, #173 ) ) REPRESENTATION_CONTEXT ( 'NONE', 'WORKASPACE' ) );
#276 = CARTESIAN_POINT ( 'NONE',  ( 0.09375000000000004163, 2.000000000000000000, 1.148106374200643247E-17 ) ) ;
#277 = STYLED_ITEM ( 'NONE', ( #188 ), #255 ) ;
#278 = DIRECTION ( 'NONE',  ( 0.000000000000000000, 0.000000000000000000, -1.000000000000000000 ) ) ;
#279 =( LENGTH_UNIT ( ) NAMED_UNIT ( * ) SI_UNIT ( $, .METRE. ) );
#280 = SURFACE_SIDE_STYLE ('',( #309 ) ) ;
#281 = PRODUCT ( '83192', '83192', '', ( #84 ) ) ;
#282 = EDGE_CURVE ( 'NONE', #101, #148, #3, .T. ) ;
#283 = PLANE ( 'NONE',  #256 ) ;
#284 = PRODUCT_DEFINITION_FORMATION_WITH_SPECIFIED_SOURCE ( 'ANY', '', #281, .NOT_KNOWN. ) ;
#285 = CARTESIAN_POINT ( 'NONE',  ( 0.000000000000000000, 0.000000000000000000, 0.000000000000000000 ) ) ;
#286 = DIMENSIONAL_EXPONENTS ( 1.000000000000000000, 0.000000000000000000, 0.000000000000000000, 0.000000000000000000, 0.000000000000000000, 0.000000000000000000, 0.000000000000000000 ) ;
#287 = DIRECTION ( 'NONE',  ( 3.918869757271530214E-17, 1.000000000000000000, -0.000000000000000000 ) ) ;
#288 = VERTEX_POINT ( 'NONE', #270 ) ;
#289 = FILL_AREA_STYLE_COLOUR ( '', #91 ) ;
#290 = ORIENTED_EDGE ( 'NONE', *, *, #246, .F. ) ;
#291 = AXIS2_PLACEMENT_3D ( 'NONE', #40, #80, #18 ) ;
#292 = ORIENTED_EDGE ( 'NONE', *, *, #21, .T. ) ;
#293 = SURFACE_STYLE_FILL_AREA ( #104 ) ;
#294 = ADVANCED_FACE ( 'NONE', ( #172 ), #44, .T. ) ;
#295 =( NAMED_UNIT ( * ) PLANE_ANGLE_UNIT ( ) SI_UNIT ( $, .RADIAN. ) );
#296 =( CONVERSION_BASED_UNIT ( 'INCH', #300 ) LENGTH_UNIT ( ) NAMED_UNIT ( #29 ) );
#297 = AXIS2_PLACEMENT_3D ( 'NONE', #49, #138, #92 ) ;
#298 = APPLICATION_PROTOCOL_DEFINITION ( 'draft international standard', 'automotive_design', 1998, #234 ) ;
#299 = CARTESIAN_POINT ( 'NONE',  ( 0.000000000000000000, 0.000000000000000000, 0.000000000000000000 ) ) ;
#300 = LENGTH_MEASURE_WITH_UNIT ( LENGTH_MEASURE( 0.02539999999999999897 ), #219 );
#301 = COLOUR_RGB ( '',0.7921568627450980005, 0.8196078431372548767, 0.9333333333333333481 ) ;
#302 = LENGTH_MEASURE_WITH_UNIT ( LENGTH_MEASURE( 0.02539999999999999897 ), #279 );
#303 = AXIS2_PLACEMENT_3D ( 'NONE', #133, #211, #228 ) ;
#304 = LENGTH_MEASURE_WITH_UNIT ( LENGTH_MEASURE( 0.02539999999999999897 ), #183 );
#305 = DIRECTION ( 'NONE',  ( 1.000000000000000000, -3.918869757271530214E-17, 0.000000000000000000 ) ) ;
#306 =( NAMED_UNIT ( * ) PLANE_ANGLE_UNIT ( ) SI_UNIT ( $, .RADIAN. ) );
#307 = AXIS2_PLACEMENT_3D ( 'NONE', #157, #47, #72 ) ;
#308 = PRODUCT_RELATED_PRODUCT_CATEGORY ( 'part', '', ( #281 ) ) ;
#309 = SURFACE_STYLE_FILL_AREA ( #90 ) ;
ENDSEC;
END-ISO-10303-21;
