ISO-10303-21;
HEADER;
FILE_DESCRIPTION (( 'STEP AP214' ),
    '1' );
FILE_NAME ('Micro_SEM-187-03.STEP',
    '2021-09-02T02:07:04',
    ( '' ),
    ( '' ),
    'SwSTEP 2.0',
    'SolidWorks 2020',
    '' );
FILE_SCHEMA (( 'AUTOMOTIVE_DESIGN' ));
ENDSEC;

DATA;
#1 = SURFACE_SIDE_STYLE ('',( #137 ) ) ;
#2 = CARTESIAN_POINT ( 'NONE',  ( 4.592425496802576068E-17, 0.0000000000000000000, 0.3750000000000000555 ) ) ;
#3 = AXIS2_PLACEMENT_3D ( 'NONE', #102, #37, #196 ) ;
#4 = CLOSED_SHELL ( 'NONE', ( #159, #85, #75, #150, #253, #131, #46, #276, #170, #180 ) ) ;
#5 = EDGE_CURVE ( 'NONE', #16, #261, #173, .T. ) ;
#6 = DIRECTION ( 'NONE',  ( -1.224646799147353454E-16, -0.0000000000000000000, -1.000000000000000000 ) ) ;
#7 =( GEOMETRIC_REPRESENTATION_CONTEXT ( 3 ) GLOBAL_UNCERTAINTY_ASSIGNED_CONTEXT ( ( #246 ) ) GLOBAL_UNIT_ASSIGNED_CONTEXT ( ( #76, #222, #268 ) ) REPRESENTATION_CONTEXT ( 'NONE', 'WORKASPACE' ) );
#8 = LINE ( 'NONE', #205, #77 ) ;
#9 = APPLICATION_CONTEXT ( 'automotive_design' ) ;
#10 = PRESENTATION_LAYER_ASSIGNMENT (  '', '', ( #100 ) ) ;
#11 = ORIENTED_EDGE ( 'NONE', *, *, #112, .T. ) ;
#12 = DIRECTION ( 'NONE',  ( 0.0000000000000000000, 0.0000000000000000000, 1.000000000000000000 ) ) ;
#13 = EDGE_LOOP ( 'NONE', ( #155, #290, #220, #59 ) ) ;
#14 = FILL_AREA_STYLE_COLOUR ( '', #281 ) ;
#15 = VERTEX_POINT ( 'NONE', #20 ) ;
#16 = VERTEX_POINT ( 'NONE', #109 ) ;
#17 = AXIS2_PLACEMENT_3D ( 'NONE', #113, #28, #207 ) ;
#18 = LENGTH_MEASURE_WITH_UNIT ( LENGTH_MEASURE( 0.02539999999999999897 ), #219 );
#19 = LENGTH_MEASURE_WITH_UNIT ( LENGTH_MEASURE( 0.02539999999999999897 ), #192 );
#20 = CARTESIAN_POINT ( 'NONE',  ( 0.09365625000000003808, 0.0000000000000000000, 0.3750000000000000555 ) ) ;
#21 = VECTOR ( 'NONE', #285, 39.37007874015748143 ) ;
#22 = CIRCLE ( 'NONE', #145, 0.09365624999999999645 ) ;
#23 = DIRECTION ( 'NONE',  ( 1.000000000000000000, 0.0000000000000000000, -0.0000000000000000000 ) ) ;
#24 = LINE ( 'NONE', #184, #141 ) ;
#25 = DIRECTION ( 'NONE',  ( -0.0000000000000000000, -0.0000000000000000000, -1.000000000000000000 ) ) ;
#26 = CARTESIAN_POINT ( 'NONE',  ( -0.07875000000000061118, 0.0000000000000000000, 1.500000000000000222 ) ) ;
#27 = UNCERTAINTY_MEASURE_WITH_UNIT (LENGTH_MEASURE( 1.000000000000000082E-05 ), #274, 'distance_accuracy_value', 'NONE');
#28 = DIRECTION ( 'NONE',  ( -1.224646799147353454E-16, -0.0000000000000000000, -1.000000000000000000 ) ) ;
#29 = AXIS2_PLACEMENT_3D ( 'NONE', #188, #237, #162 ) ;
#30 = CARTESIAN_POINT ( 'NONE',  ( 0.0000000000000000000, 0.0000000000000000000, 0.0000000000000000000 ) ) ;
#31 = VECTOR ( 'NONE', #143, 39.37007874015748143 ) ;
#32 = EDGE_CURVE ( 'NONE', #149, #16, #272, .T. ) ;
#33 = CIRCLE ( 'NONE', #55, 0.07875000000000061118 ) ;
#34 = ORIENTED_EDGE ( 'NONE', *, *, #229, .F. ) ;
#35 = ORIENTED_EDGE ( 'NONE', *, *, #223, .F. ) ;
#36 = ORIENTED_EDGE ( 'NONE', *, *, #194, .F. ) ;
#37 = DIRECTION ( 'NONE',  ( 0.0000000000000000000, 0.0000000000000000000, 1.000000000000000000 ) ) ;
#38 = EDGE_LOOP ( 'NONE', ( #104, #123 ) ) ;
#39 = ORIENTED_EDGE ( 'NONE', *, *, #157, .F. ) ;
#40 = EDGE_LOOP ( 'NONE', ( #264, #270, #248, #36 ) ) ;
#41 = AXIS2_PLACEMENT_3D ( 'NONE', #231, #235, #134 ) ;
#42 = AXIS2_PLACEMENT_3D ( 'NONE', #67, #167, #43 ) ;
#43 = DIRECTION ( 'NONE',  ( -1.000000000000000000, 0.0000000000000000000, 0.0000000000000000000 ) ) ;
#44 = CYLINDRICAL_SURFACE ( 'NONE', #195, 0.09375000000000001388 ) ;
#45 = LINE ( 'NONE', #94, #154 ) ;
#46 = ADVANCED_FACE ( 'NONE', ( #254 ), #241, .T. ) ;
#47 = LINE ( 'NONE', #88, #166 ) ;
#48 = APPLICATION_CONTEXT ( 'automotive_design' ) ;
#49 = FACE_OUTER_BOUND ( 'NONE', #181, .T. ) ;
#50 = DIRECTION ( 'NONE',  ( -1.224646799147353454E-16, -0.0000000000000000000, -1.000000000000000000 ) ) ;
#51 = AXIS2_PLACEMENT_3D ( 'NONE', #233, #50, #191 ) ;
#52 = CARTESIAN_POINT ( 'NONE',  ( 0.09375000000000001388, 1.148106374200643401E-17, 1.485000000000000986 ) ) ;
#53 = DIRECTION ( 'NONE',  ( 0.0000000000000000000, 0.0000000000000000000, -1.000000000000000000 ) ) ;
#54 = CARTESIAN_POINT ( 'NONE',  ( -0.09365624999999999645, 0.0000000000000000000, 2.293916535652886521E-17 ) ) ;
#55 = AXIS2_PLACEMENT_3D ( 'NONE', #121, #12, #242 ) ;
#56 = EDGE_CURVE ( 'NONE', #144, #74, #152, .T. ) ;
#57 = ORIENTED_EDGE ( 'NONE', *, *, #227, .F. ) ;
#58 = CARTESIAN_POINT ( 'NONE',  ( 0.0000000000000000000, 0.0000000000000000000, 0.0000000000000000000 ) ) ;
#59 = ORIENTED_EDGE ( 'NONE', *, *, #139, .F. ) ;
#60 = EDGE_CURVE ( 'NONE', #216, #294, #22, .T. ) ;
#61 = PRODUCT_DEFINITION_SHAPE ( 'NONE', 'NONE',  #124 ) ;
#62 = DIMENSIONAL_EXPONENTS ( 1.000000000000000000, 0.0000000000000000000, 0.0000000000000000000, 0.0000000000000000000, 0.0000000000000000000, 0.0000000000000000000, 0.0000000000000000000 ) ;
#63 = PLANE ( 'NONE',  #182 ) ;
#64 = VECTOR ( 'NONE', #250, 39.37007874015748143 ) ;
#65 = CARTESIAN_POINT ( 'NONE',  ( 1.404618771449246621E-33, 0.0000000000000000000, 1.146958267826443260E-17 ) ) ;
#66 = CARTESIAN_POINT ( 'NONE',  ( 0.09365624999999999645, 1.146958267826442798E-17, 0.0000000000000000000 ) ) ;
#67 = CARTESIAN_POINT ( 'NONE',  ( 0.0000000000000000000, 0.0000000000000000000, 1.500000000000000222 ) ) ;
#68 = DIRECTION ( 'NONE',  ( 0.0000000000000000000, 0.0000000000000000000, 1.000000000000000000 ) ) ;
#69 = DIRECTION ( 'NONE',  ( -1.000000000000000000, 0.0000000000000000000, 0.0000000000000000000 ) ) ;
#70 = AXIS2_PLACEMENT_3D ( 'NONE', #30, #120, #230 ) ;
#71 = PRESENTATION_LAYER_ASSIGNMENT (  '', '', ( #158 ) ) ;
#72 = LINE ( 'NONE', #165, #292 ) ;
#73 = SURFACE_SIDE_STYLE ('',( #125 ) ) ;
#74 = VERTEX_POINT ( 'NONE', #26 ) ;
#75 = ADVANCED_FACE ( 'NONE', ( #251 ), #267, .T. ) ;
#76 =( CONVERSION_BASED_UNIT ( 'INCH', #18 ) LENGTH_UNIT ( ) NAMED_UNIT ( #62 ) );
#77 = VECTOR ( 'NONE', #213, 39.37007874015748143 ) ;
#78 = ORIENTED_EDGE ( 'NONE', *, *, #202, .T. ) ;
#79 = SHAPE_DEFINITION_REPRESENTATION ( #61, #296 ) ;
#80 = AXIS2_PLACEMENT_3D ( 'NONE', #58, #293, #146 ) ;
#81 = EDGE_LOOP ( 'NONE', ( #217, #39, #84, #201 ) ) ;
#82 = EDGE_LOOP ( 'NONE', ( #151, #153, #244, #35 ) ) ;
#83 = AXIS2_PLACEMENT_3D ( 'NONE', #249, #132, #225 ) ;
#84 = ORIENTED_EDGE ( 'NONE', *, *, #194, .T. ) ;
#85 = ADVANCED_FACE ( 'NONE', ( #260 ), #271, .T. ) ;
#86 = AXIS2_PLACEMENT_3D ( 'NONE', #282, #53, #161 ) ;
#87 =( LENGTH_UNIT ( ) NAMED_UNIT ( * ) SI_UNIT ( $, .METRE. ) );
#88 = CARTESIAN_POINT ( 'NONE',  ( 0.09375000000000001388, 1.148106374200643401E-17, 1.500000000000000222 ) ) ;
#89 = CARTESIAN_POINT ( 'NONE',  ( 0.0000000000000000000, 0.0000000000000000000, 1.485000000000000986 ) ) ;
#90 = CARTESIAN_POINT ( 'NONE',  ( 0.07875000000000061118, 1.056257864264595965E-17, 1.500000000000000222 ) ) ;
#91 = LINE ( 'NONE', #212, #31 ) ;
#92 = FILL_AREA_STYLE_COLOUR ( '', #284 ) ;
#93 = CYLINDRICAL_SURFACE ( 'NONE', #128, 0.09365624999999999645 ) ;
#94 = CARTESIAN_POINT ( 'NONE',  ( 0.09365625000000003808, 0.0000000000000000000, 0.3750000000000000555 ) ) ;
#95 = DIRECTION ( 'NONE',  ( -1.000000000000000000, 0.0000000000000000000, 1.224646799147353454E-16 ) ) ;
#96 = PRODUCT_DEFINITION_FORMATION_WITH_SPECIFIED_SOURCE ( 'ANY', '', #148, .NOT_KNOWN. ) ;
#97 = DIRECTION ( 'NONE',  ( 0.0000000000000000000, 0.0000000000000000000, -1.000000000000000000 ) ) ;
#98 = DIRECTION ( 'NONE',  ( -1.224646799147353454E-16, -0.0000000000000000000, -1.000000000000000000 ) ) ;
#99 = CARTESIAN_POINT ( 'NONE',  ( 1.404618771449246621E-33, 0.0000000000000000000, 1.146958267826443260E-17 ) ) ;
#100 = STYLED_ITEM ( 'NONE', ( #279 ), #193 ) ;
#101 = ORIENTED_EDGE ( 'NONE', *, *, #112, .F. ) ;
#102 = CARTESIAN_POINT ( 'NONE',  ( 0.0000000000000000000, 0.0000000000000000000, 0.0000000000000000000 ) ) ;
#103 = DIMENSIONAL_EXPONENTS ( 1.000000000000000000, 0.0000000000000000000, 0.0000000000000000000, 0.0000000000000000000, 0.0000000000000000000, 0.0000000000000000000, 0.0000000000000000000 ) ;
#104 = ORIENTED_EDGE ( 'NONE', *, *, #60, .T. ) ;
#105 = EDGE_CURVE ( 'NONE', #149, #15, #226, .T. ) ;
#106 = ORIENTED_EDGE ( 'NONE', *, *, #186, .T. ) ;
#107 = FACE_OUTER_BOUND ( 'NONE', #38, .T. ) ;
#108 = EDGE_CURVE ( 'NONE', #15, #294, #24, .T. ) ;
#109 = CARTESIAN_POINT ( 'NONE',  ( -0.09374999999999995837, 0.0000000000000000000, 0.3755316826705892841 ) ) ;
#110 = AXIS2_PLACEMENT_3D ( 'NONE', #89, #97, #117 ) ;
#111 = DIRECTION ( 'NONE',  ( -0.0000000000000000000, -0.0000000000000000000, -1.000000000000000000 ) ) ;
#112 = EDGE_CURVE ( 'NONE', #240, #261, #47, .T. ) ;
#113 = CARTESIAN_POINT ( 'NONE',  ( 4.598936731609567916E-17, 0.0000000000000000000, 0.3755316826705892841 ) ) ;
#114 = CARTESIAN_POINT ( 'NONE',  ( 0.09375000000000004163, 1.148106374200644017E-17, 0.3755316826705892841 ) ) ;
#115 = FACE_OUTER_BOUND ( 'NONE', #262, .T. ) ;
#116 = DIRECTION ( 'NONE',  ( -1.224646799147353454E-16, -0.0000000000000000000, -1.000000000000000000 ) ) ;
#117 = DIRECTION ( 'NONE',  ( 1.000000000000000000, 0.0000000000000000000, 0.0000000000000000000 ) ) ;
#118 = DIRECTION ( 'NONE',  ( -1.000000000000000000, 0.0000000000000000000, 0.0000000000000000000 ) ) ;
#119 = EDGE_CURVE ( 'NONE', #144, #240, #8, .T. ) ;
#120 = DIRECTION ( 'NONE',  ( -1.224646799147353454E-16, -0.0000000000000000000, -1.000000000000000000 ) ) ;
#121 = CARTESIAN_POINT ( 'NONE',  ( 0.0000000000000000000, 0.0000000000000000000, 1.500000000000000222 ) ) ;
#122 =( CONVERSION_BASED_UNIT ( 'INCH', #19 ) LENGTH_UNIT ( ) NAMED_UNIT ( #103 ) );
#123 = ORIENTED_EDGE ( 'NONE', *, *, #223, .T. ) ;
#124 = PRODUCT_DEFINITION ( 'UNKNOWN', '', #96, #236 ) ;
#125 = SURFACE_STYLE_FILL_AREA ( #265 ) ;
#126 = ORIENTED_EDGE ( 'NONE', *, *, #202, .F. ) ;
#127 = EDGE_CURVE ( 'NONE', #261, #16, #133, .T. ) ;
#128 = AXIS2_PLACEMENT_3D ( 'NONE', #211, #6, #95 ) ;
#129 = PRODUCT_CONTEXT ( 'NONE', #48, 'mechanical' ) ;
#130 = PRESENTATION_STYLE_ASSIGNMENT (( #200 ) ) ;
#131 = ADVANCED_FACE ( 'NONE', ( #298 ), #63, .T. ) ;
#132 = DIRECTION ( 'NONE',  ( -1.224646799147353454E-16, -0.0000000000000000000, -1.000000000000000000 ) ) ;
#133 = CIRCLE ( 'NONE', #17, 0.09375000000000001388 ) ;
#134 = DIRECTION ( 'NONE',  ( -1.000000000000000000, 0.0000000000000000000, 0.0000000000000000000 ) ) ;
#135 = DIRECTION ( 'NONE',  ( -0.0000000000000000000, -0.0000000000000000000, -1.000000000000000000 ) ) ;
#136 = DIRECTION ( 'NONE',  ( 0.1736481776669315247, 0.0000000000000000000, 0.9848077530122077983 ) ) ;
#137 = SURFACE_STYLE_FILL_AREA ( #257 ) ;
#138 = CARTESIAN_POINT ( 'NONE',  ( 0.0000000000000000000, 0.0000000000000000000, 1.500000000000000222 ) ) ;
#139 = EDGE_CURVE ( 'NONE', #240, #269, #218, .T. ) ;
#140 = CARTESIAN_POINT ( 'NONE',  ( 4.592425496802576068E-17, 0.0000000000000000000, 0.3750000000000000555 ) ) ;
#141 = VECTOR ( 'NONE', #256, 39.37007874015748143 ) ;
#142 = CYLINDRICAL_SURFACE ( 'NONE', #70, 0.09365624999999999645 ) ;
#143 = DIRECTION ( 'NONE',  ( -0.7071067811865531239, 0.0000000000000000000, -0.7071067811865419106 ) ) ;
#144 = VERTEX_POINT ( 'NONE', #90 ) ;
#145 = AXIS2_PLACEMENT_3D ( 'NONE', #65, #98, #258 ) ;
#146 = DIRECTION ( 'NONE',  ( 1.000000000000000000, 0.0000000000000000000, 0.0000000000000000000 ) ) ;
#147 = ORIENTED_EDGE ( 'NONE', *, *, #105, .T. ) ;
#148 = PRODUCT ( 'Micro_SEM-187-03', 'Micro_SEM-187-03', '', ( #129 ) ) ;
#149 = VERTEX_POINT ( 'NONE', #297 ) ;
#150 = ADVANCED_FACE ( 'NONE', ( #183 ), #44, .T. ) ;
#151 = ORIENTED_EDGE ( 'NONE', *, *, #108, .F. ) ;
#152 = CIRCLE ( 'NONE', #29, 0.07875000000000061118 ) ;
#153 = ORIENTED_EDGE ( 'NONE', *, *, #157, .T. ) ;
#154 = VECTOR ( 'NONE', #136, 39.37007874015748143 ) ;
#155 = ORIENTED_EDGE ( 'NONE', *, *, #119, .F. ) ;
#156 = CARTESIAN_POINT ( 'NONE',  ( -0.09365624999999994094, 1.146958267826442798E-17, 0.3750000000000000555 ) ) ;
#157 = EDGE_CURVE ( 'NONE', #15, #149, #295, .T. ) ;
#158 = STYLED_ITEM ( 'NONE', ( #130 ), #296 ) ;
#159 = ADVANCED_FACE ( 'NONE', ( #115 ), #93, .T. ) ;
#160 = CARTESIAN_POINT ( 'NONE',  ( 4.592425496802576068E-17, 0.0000000000000000000, 0.3750000000000000555 ) ) ;
#161 = DIRECTION ( 'NONE',  ( 1.000000000000000000, 0.0000000000000000000, 0.0000000000000000000 ) ) ;
#162 = DIRECTION ( 'NONE',  ( 1.000000000000000000, 0.0000000000000000000, 0.0000000000000000000 ) ) ;
#163 = DIRECTION ( 'NONE',  ( -1.224646799147353454E-16, -0.0000000000000000000, -1.000000000000000000 ) ) ;
#164 = FACE_OUTER_BOUND ( 'NONE', #82, .T. ) ;
#165 = CARTESIAN_POINT ( 'NONE',  ( -0.09365624999999999645, 0.0000000000000000000, 1.146958267826443260E-17 ) ) ;
#166 = VECTOR ( 'NONE', #111, 39.37007874015748143 ) ;
#167 = DIRECTION ( 'NONE',  ( 0.0000000000000000000, 0.0000000000000000000, -1.000000000000000000 ) ) ;
#168 = DIRECTION ( 'NONE',  ( -1.000000000000000000, 0.0000000000000000000, 1.224646799147353454E-16 ) ) ;
#169 = ORIENTED_EDGE ( 'NONE', *, *, #139, .T. ) ;
#170 = ADVANCED_FACE ( 'NONE', ( #164 ), #142, .T. ) ;
#171 = EDGE_LOOP ( 'NONE', ( #214, #174 ) ) ;
#172 = EDGE_CURVE ( 'NONE', #74, #144, #33, .T. ) ;
#173 = CIRCLE ( 'NONE', #83, 0.09375000000000001388 ) ;
#174 = ORIENTED_EDGE ( 'NONE', *, *, #56, .T. ) ;
#175 = ORIENTED_EDGE ( 'NONE', *, *, #108, .T. ) ;
#176 = EDGE_LOOP ( 'NONE', ( #106, #11, #287, #126 ) ) ;
#177 = MECHANICAL_DESIGN_GEOMETRIC_PRESENTATION_REPRESENTATION (  '', ( #100 ), #288 ) ;
#178 =( NAMED_UNIT ( * ) SI_UNIT ( $, .STERADIAN. ) SOLID_ANGLE_UNIT ( ) );
#179 = ORIENTED_EDGE ( 'NONE', *, *, #56, .F. ) ;
#180 = ADVANCED_FACE ( 'NONE', ( #107 ), #245, .F. ) ;
#181 = EDGE_LOOP ( 'NONE', ( #101, #169, #78, #263 ) ) ;
#182 = AXIS2_PLACEMENT_3D ( 'NONE', #138, #68, #23 ) ;
#183 = FACE_OUTER_BOUND ( 'NONE', #176, .T. ) ;
#184 = CARTESIAN_POINT ( 'NONE',  ( 0.09365624999999999645, 1.146958267826442798E-17, -1.146958267826443260E-17 ) ) ;
#185 = DIRECTION ( 'NONE',  ( 1.224646799147353454E-16, 0.0000000000000000000, 1.000000000000000000 ) ) ;
#186 = EDGE_CURVE ( 'NONE', #269, #240, #247, .T. ) ;
#187 = AXIS2_PLACEMENT_3D ( 'NONE', #2, #283, #275 ) ;
#188 = CARTESIAN_POINT ( 'NONE',  ( 0.0000000000000000000, 0.0000000000000000000, 1.500000000000000222 ) ) ;
#189 = DIRECTION ( 'NONE',  ( -1.000000000000000000, 0.0000000000000000000, 0.0000000000000000000 ) ) ;
#190 = MECHANICAL_DESIGN_GEOMETRIC_PRESENTATION_REPRESENTATION (  '', ( #158 ), #7 ) ;
#191 = DIRECTION ( 'NONE',  ( -1.000000000000000000, 0.0000000000000000000, 0.0000000000000000000 ) ) ;
#192 =( LENGTH_UNIT ( ) NAMED_UNIT ( * ) SI_UNIT ( $, .METRE. ) );
#194 = EDGE_CURVE ( 'NONE', #15, #261, #45, .T. ) ;
#193 = MANIFOLD_SOLID_BREP ( 'Cut-Revolve1', #4 ) ;
#195 = AXIS2_PLACEMENT_3D ( 'NONE', #277, #135, #118 ) ;
#196 = DIRECTION ( 'NONE',  ( 1.000000000000000000, 0.0000000000000000000, -0.0000000000000000000 ) ) ;
#197 = CARTESIAN_POINT ( 'NONE',  ( -0.09375000000000001388, 0.0000000000000000000, 1.500000000000000222 ) ) ;
#198 =( GEOMETRIC_REPRESENTATION_CONTEXT ( 3 ) GLOBAL_UNCERTAINTY_ASSIGNED_CONTEXT ( ( #259 ) ) GLOBAL_UNIT_ASSIGNED_CONTEXT ( ( #122, #203, #178 ) ) REPRESENTATION_CONTEXT ( 'NONE', 'WORKASPACE' ) );
#199 =( NAMED_UNIT ( * ) PLANE_ANGLE_UNIT ( ) SI_UNIT ( $, .RADIAN. ) );
#200 = SURFACE_STYLE_USAGE ( .BOTH. , #73 ) ;
#201 = ORIENTED_EDGE ( 'NONE', *, *, #127, .T. ) ;
#202 = EDGE_CURVE ( 'NONE', #269, #16, #209, .T. ) ;
#203 =( NAMED_UNIT ( * ) PLANE_ANGLE_UNIT ( ) SI_UNIT ( $, .RADIAN. ) );
#204 = ORIENTED_EDGE ( 'NONE', *, *, #60, .F. ) ;
#205 = CARTESIAN_POINT ( 'NONE',  ( 0.07875000000000061118, 9.644093543285480678E-18, 1.500000000000000222 ) ) ;
#206 = SURFACE_STYLE_USAGE ( .BOTH. , #1 ) ;
#207 = DIRECTION ( 'NONE',  ( 1.000000000000000000, 0.0000000000000000000, 0.0000000000000000000 ) ) ;
#208 = FACE_OUTER_BOUND ( 'NONE', #81, .T. ) ;
#209 = LINE ( 'NONE', #197, #21 ) ;
#210 = DIRECTION ( 'NONE',  ( -1.224646799147353454E-16, -0.0000000000000000000, -1.000000000000000000 ) ) ;
#211 = CARTESIAN_POINT ( 'NONE',  ( 0.0000000000000000000, 0.0000000000000000000, 0.0000000000000000000 ) ) ;
#212 = CARTESIAN_POINT ( 'NONE',  ( -0.07875000000000061118, 0.0000000000000000000, 1.500000000000000222 ) ) ;
#213 = DIRECTION ( 'NONE',  ( 0.7071067811865531239, 8.659560562355003116E-17, -0.7071067811865419106 ) ) ;
#214 = ORIENTED_EDGE ( 'NONE', *, *, #172, .T. ) ;
#215 = ORIENTED_EDGE ( 'NONE', *, *, #186, .F. ) ;
#216 = VERTEX_POINT ( 'NONE', #54 ) ;
#217 = ORIENTED_EDGE ( 'NONE', *, *, #32, .F. ) ;
#218 = CIRCLE ( 'NONE', #86, 0.09375000000000001388 ) ;
#219 =( LENGTH_UNIT ( ) NAMED_UNIT ( * ) SI_UNIT ( $, .METRE. ) );
#220 = ORIENTED_EDGE ( 'NONE', *, *, #227, .T. ) ;
#221 = AXIS2_PLACEMENT_3D ( 'NONE', #99, #163, #168 ) ;
#222 =( NAMED_UNIT ( * ) PLANE_ANGLE_UNIT ( ) SI_UNIT ( $, .RADIAN. ) );
#223 = EDGE_CURVE ( 'NONE', #294, #216, #255, .T. ) ;
#224 = EDGE_LOOP ( 'NONE', ( #179, #289, #215, #57 ) ) ;
#225 = DIRECTION ( 'NONE',  ( 1.000000000000000000, 0.0000000000000000000, 0.0000000000000000000 ) ) ;
#226 = CIRCLE ( 'NONE', #51, 0.09365624999999999645 ) ;
#227 = EDGE_CURVE ( 'NONE', #74, #269, #91, .T. ) ;
#228 = AXIS2_PLACEMENT_3D ( 'NONE', #299, #25, #189 ) ;
#229 = EDGE_CURVE ( 'NONE', #149, #216, #72, .T. ) ;
#230 = DIRECTION ( 'NONE',  ( -1.000000000000000000, 0.0000000000000000000, 1.224646799147353454E-16 ) ) ;
#231 = CARTESIAN_POINT ( 'NONE',  ( 0.0000000000000000000, 0.0000000000000000000, 1.500000000000000222 ) ) ;
#232 = AXIS2_PLACEMENT_3D ( 'NONE', #140, #185, #278 ) ;
#233 = CARTESIAN_POINT ( 'NONE',  ( 4.592425496802576068E-17, 0.0000000000000000000, 0.3750000000000000555 ) ) ;
#234 = CYLINDRICAL_SURFACE ( 'NONE', #228, 0.09375000000000001388 ) ;
#235 = DIRECTION ( 'NONE',  ( 0.0000000000000000000, 0.0000000000000000000, -1.000000000000000000 ) ) ;
#236 = PRODUCT_DEFINITION_CONTEXT ( 'detailed design', #9, 'design' ) ;
#237 = DIRECTION ( 'NONE',  ( 0.0000000000000000000, 0.0000000000000000000, 1.000000000000000000 ) ) ;
#238 = CONICAL_SURFACE ( 'NONE', #232, 0.09365624999999999645, 0.1745329251994340303 ) ;
#239 =( NAMED_UNIT ( * ) SI_UNIT ( $, .STERADIAN. ) SOLID_ANGLE_UNIT ( ) );
#240 = VERTEX_POINT ( 'NONE', #52 ) ;
#241 = CONICAL_SURFACE ( 'NONE', #42, 0.07875000000000061118, 0.7853981633974562726 ) ;
#242 = DIRECTION ( 'NONE',  ( 1.000000000000000000, 0.0000000000000000000, 0.0000000000000000000 ) ) ;
#243 = APPLICATION_PROTOCOL_DEFINITION ( 'draft international standard', 'automotive_design', 1998, #9 ) ;
#244 = ORIENTED_EDGE ( 'NONE', *, *, #229, .T. ) ;
#245 = PLANE ( 'NONE',  #3 ) ;
#246 = UNCERTAINTY_MEASURE_WITH_UNIT (LENGTH_MEASURE( 1.000000000000000082E-05 ), #76, 'distance_accuracy_value', 'NONE');
#247 = CIRCLE ( 'NONE', #110, 0.09375000000000001388 ) ;
#248 = ORIENTED_EDGE ( 'NONE', *, *, #5, .T. ) ;
#249 = CARTESIAN_POINT ( 'NONE',  ( 4.598936731609567916E-17, 0.0000000000000000000, 0.3755316826705892841 ) ) ;
#250 = DIRECTION ( 'NONE',  ( -0.1736481776669313026, 2.126576849575784549E-17, 0.9848077530122077983 ) ) ;
#251 = FACE_OUTER_BOUND ( 'NONE', #224, .T. ) ;
#252 = AXIS2_PLACEMENT_3D ( 'NONE', #160, #210, #69 ) ;
#253 = ADVANCED_FACE ( 'NONE', ( #49 ), #234, .T. ) ;
#254 = FACE_OUTER_BOUND ( 'NONE', #13, .T. ) ;
#255 = CIRCLE ( 'NONE', #221, 0.09365624999999999645 ) ;
#256 = DIRECTION ( 'NONE',  ( -1.224646799147353454E-16, -0.0000000000000000000, -1.000000000000000000 ) ) ;
#257 = FILL_AREA_STYLE ('',( #92 ) ) ;
#258 = DIRECTION ( 'NONE',  ( -1.000000000000000000, 0.0000000000000000000, 1.224646799147353454E-16 ) ) ;
#259 = UNCERTAINTY_MEASURE_WITH_UNIT (LENGTH_MEASURE( 1.000000000000000082E-05 ), #122, 'distance_accuracy_value', 'NONE');
#260 = FACE_OUTER_BOUND ( 'NONE', #40, .T. ) ;
#261 = VERTEX_POINT ( 'NONE', #114 ) ;
#262 = EDGE_LOOP ( 'NONE', ( #147, #175, #204, #34 ) ) ;
#263 = ORIENTED_EDGE ( 'NONE', *, *, #127, .F. ) ;
#264 = ORIENTED_EDGE ( 'NONE', *, *, #105, .F. ) ;
#265 = FILL_AREA_STYLE ('',( #14 ) ) ;
#266 = PRODUCT_RELATED_PRODUCT_CATEGORY ( 'part', '', ( #148 ) ) ;
#267 = CONICAL_SURFACE ( 'NONE', #41, 0.07875000000000061118, 0.7853981633974562726 ) ;
#268 =( NAMED_UNIT ( * ) SI_UNIT ( $, .STERADIAN. ) SOLID_ANGLE_UNIT ( ) );
#269 = VERTEX_POINT ( 'NONE', #280 ) ;
#270 = ORIENTED_EDGE ( 'NONE', *, *, #32, .T. ) ;
#271 = CONICAL_SURFACE ( 'NONE', #187, 0.09365624999999999645, 0.1745329251994340303 ) ;
#272 = LINE ( 'NONE', #156, #64 ) ;
#273 = LENGTH_MEASURE_WITH_UNIT ( LENGTH_MEASURE( 0.02539999999999999897 ), #87 );
#274 =( CONVERSION_BASED_UNIT ( 'INCH', #273 ) LENGTH_UNIT ( ) NAMED_UNIT ( #286 ) );
#275 = DIRECTION ( 'NONE',  ( 1.000000000000000000, 0.0000000000000000000, 0.0000000000000000000 ) ) ;
#276 = ADVANCED_FACE ( 'NONE', ( #208 ), #238, .T. ) ;
#277 = CARTESIAN_POINT ( 'NONE',  ( 0.0000000000000000000, 0.0000000000000000000, 1.500000000000000222 ) ) ;
#278 = DIRECTION ( 'NONE',  ( 1.000000000000000000, 0.0000000000000000000, 0.0000000000000000000 ) ) ;
#279 = PRESENTATION_STYLE_ASSIGNMENT (( #206 ) ) ;
#280 = CARTESIAN_POINT ( 'NONE',  ( -0.09375000000000001388, 0.0000000000000000000, 1.485000000000000986 ) ) ;
#281 = COLOUR_RGB ( '',0.7921568627450980005, 0.8196078431372548767, 0.9333333333333333481 ) ;
#282 = CARTESIAN_POINT ( 'NONE',  ( 0.0000000000000000000, 0.0000000000000000000, 1.485000000000000986 ) ) ;
#283 = DIRECTION ( 'NONE',  ( 1.224646799147353454E-16, 0.0000000000000000000, 1.000000000000000000 ) ) ;
#284 = COLOUR_RGB ( '',0.7921568627450980005, 0.8196078431372548767, 0.9333333333333333481 ) ;
#285 = DIRECTION ( 'NONE',  ( -0.0000000000000000000, -0.0000000000000000000, -1.000000000000000000 ) ) ;
#286 = DIMENSIONAL_EXPONENTS ( 1.000000000000000000, 0.0000000000000000000, 0.0000000000000000000, 0.0000000000000000000, 0.0000000000000000000, 0.0000000000000000000, 0.0000000000000000000 ) ;
#287 = ORIENTED_EDGE ( 'NONE', *, *, #5, .F. ) ;
#288 =( GEOMETRIC_REPRESENTATION_CONTEXT ( 3 ) GLOBAL_UNCERTAINTY_ASSIGNED_CONTEXT ( ( #27 ) ) GLOBAL_UNIT_ASSIGNED_CONTEXT ( ( #274, #199, #239 ) ) REPRESENTATION_CONTEXT ( 'NONE', 'WORKASPACE' ) );
#289 = ORIENTED_EDGE ( 'NONE', *, *, #119, .T. ) ;
#290 = ORIENTED_EDGE ( 'NONE', *, *, #172, .F. ) ;
#291 = APPLICATION_PROTOCOL_DEFINITION ( 'draft international standard', 'automotive_design', 1998, #48 ) ;
#292 = VECTOR ( 'NONE', #116, 39.37007874015748143 ) ;
#293 = DIRECTION ( 'NONE',  ( 0.0000000000000000000, 0.0000000000000000000, 1.000000000000000000 ) ) ;
#294 = VERTEX_POINT ( 'NONE', #66 ) ;
#295 = CIRCLE ( 'NONE', #252, 0.09365624999999999645 ) ;
#296 = ADVANCED_BREP_SHAPE_REPRESENTATION ( 'Micro_SEM-187-03', ( #193, #80 ), #198 ) ;
#297 = CARTESIAN_POINT ( 'NONE',  ( -0.09365624999999994094, 1.147532321013543253E-17, 0.3750000000000000555 ) ) ;
#298 = FACE_OUTER_BOUND ( 'NONE', #171, .T. ) ;
#299 = CARTESIAN_POINT ( 'NONE',  ( 0.0000000000000000000, 0.0000000000000000000, 1.500000000000000222 ) ) ;
ENDSEC;
END-ISO-10303-21;
