ISO-10303-21;
HEADER;
FILE_DESCRIPTION (( 'STEP AP214' ),
    '1' );
FILE_NAME ('Micro_RNC-250-260.STEP',
    '2021-09-03T17:36:51',
    ( '' ),
    ( '' ),
    'SwSTEP 2.0',
    'SolidWorks 2020',
    '' );
FILE_SCHEMA (( 'AUTOMOTIVE_DESIGN' ));
ENDSEC;

DATA;
#1 = ORIENTED_EDGE ( 'NONE', *, *, #49, .T. ) ;
#2 = DIRECTION ( 'NONE',  ( 0.0000000000000000000, 0.0000000000000000000, -1.000000000000000000 ) ) ;
#3 = DIRECTION ( 'NONE',  ( 0.0000000000000000000, 0.0000000000000000000, 1.000000000000000000 ) ) ;
#4 = LENGTH_MEASURE_WITH_UNIT ( LENGTH_MEASURE( 0.02539999999999999897 ), #166 );
#5 = CIRCLE ( 'NONE', #211, 0.03000000000000000583 ) ;
#6 = FACE_OUTER_BOUND ( 'NONE', #163, .T. ) ;
#7 =( GEOMETRIC_REPRESENTATION_CONTEXT ( 3 ) GLOBAL_UNCERTAINTY_ASSIGNED_CONTEXT ( ( #62 ) ) GLOBAL_UNIT_ASSIGNED_CONTEXT ( ( #39, #173, #43 ) ) REPRESENTATION_CONTEXT ( 'NONE', 'WORKASPACE' ) );
#8 = EDGE_LOOP ( 'NONE', ( #246, #210, #42, #133 ) ) ;
#9 = UNCERTAINTY_MEASURE_WITH_UNIT (LENGTH_MEASURE( 1.000000000000000082E-05 ), #60, 'distance_accuracy_value', 'NONE');
#10 = EDGE_CURVE ( 'NONE', #159, #138, #50, .T. ) ;
#11 = AXIS2_PLACEMENT_3D ( 'NONE', #19, #37, #44 ) ;
#12 = CARTESIAN_POINT ( 'NONE',  ( 0.0000000000000000000, 0.0000000000000000000, 0.09499999999999972355 ) ) ;
#13 = EDGE_CURVE ( 'NONE', #61, #124, #78, .T. ) ;
#14 = DIRECTION ( 'NONE',  ( 0.0000000000000000000, 0.0000000000000000000, -1.000000000000000000 ) ) ;
#15 = STYLED_ITEM ( 'NONE', ( #184 ), #93 ) ;
#16 = LINE ( 'NONE', #194, #226 ) ;
#17 = ORIENTED_EDGE ( 'NONE', *, *, #123, .T. ) ;
#18 =( LENGTH_UNIT ( ) NAMED_UNIT ( * ) SI_UNIT ( $, .METRE. ) );
#19 = CARTESIAN_POINT ( 'NONE',  ( 0.0000000000000000000, 0.0000000000000000000, 2.500000000000000000 ) ) ;
#20 = AXIS2_PLACEMENT_3D ( 'NONE', #28, #183, #47 ) ;
#21 = FACE_OUTER_BOUND ( 'NONE', #199, .T. ) ;
#22 = DIRECTION ( 'NONE',  ( 0.7071067811865484609, 0.0000000000000000000, 0.7071067811865464625 ) ) ;
#23 = CARTESIAN_POINT ( 'NONE',  ( 0.0000000000000000000, 0.0000000000000000000, 0.0000000000000000000 ) ) ;
#24 = FACE_OUTER_BOUND ( 'NONE', #8, .T. ) ;
#25 = ORIENTED_EDGE ( 'NONE', *, *, #113, .F. ) ;
#26 = MECHANICAL_DESIGN_GEOMETRIC_PRESENTATION_REPRESENTATION (  '', ( #233 ), #56 ) ;
#27 = DIRECTION ( 'NONE',  ( 1.000000000000000000, 0.0000000000000000000, 0.0000000000000000000 ) ) ;
#28 = CARTESIAN_POINT ( 'NONE',  ( 0.0000000000000000000, 0.0000000000000000000, 0.0000000000000000000 ) ) ;
#29 = ADVANCED_FACE ( 'NONE', ( #21 ), #31, .T. ) ;
#30 = CONICAL_SURFACE ( 'NONE', #129, 0.03000000000000000583, 0.7853981633974497223 ) ;
#31 = CONICAL_SURFACE ( 'NONE', #162, 0.03000000000000000583, 0.7853981633974497223 ) ;
#32 = AXIS2_PLACEMENT_3D ( 'NONE', #229, #213, #153 ) ;
#33 = CYLINDRICAL_SURFACE ( 'NONE', #11, 0.1250000000000000000 ) ;
#34 = DIRECTION ( 'NONE',  ( 1.000000000000000000, 0.0000000000000000000, 0.0000000000000000000 ) ) ;
#35 = VECTOR ( 'NONE', #122, 39.37007874015748854 ) ;
#36 = DIRECTION ( 'NONE',  ( -0.7071067811865484609, 8.659560562354943952E-17, 0.7071067811865464625 ) ) ;
#37 = DIRECTION ( 'NONE',  ( -0.0000000000000000000, -0.0000000000000000000, -1.000000000000000000 ) ) ;
#38 = ORIENTED_EDGE ( 'NONE', *, *, #187, .F. ) ;
#39 =( CONVERSION_BASED_UNIT ( 'INCH', #63 ) LENGTH_UNIT ( ) NAMED_UNIT ( #128 ) );
#40 = LENGTH_MEASURE_WITH_UNIT ( LENGTH_MEASURE( 0.02539999999999999897 ), #148 );
#41 = CARTESIAN_POINT ( 'NONE',  ( 0.0000000000000000000, 0.0000000000000000000, 0.09499999999999972355 ) ) ;
#42 = ORIENTED_EDGE ( 'NONE', *, *, #179, .T. ) ;
#43 =( NAMED_UNIT ( * ) SI_UNIT ( $, .STERADIAN. ) SOLID_ANGLE_UNIT ( ) );
#44 = DIRECTION ( 'NONE',  ( -1.000000000000000000, 0.0000000000000000000, 0.0000000000000000000 ) ) ;
#45 = CARTESIAN_POINT ( 'NONE',  ( -0.03000000000000000583, 9.491012693391989451E-18, 0.0000000000000000000 ) ) ;
#46 = FILL_AREA_STYLE ('',( #121 ) ) ;
#47 = DIRECTION ( 'NONE',  ( 1.000000000000000000, 0.0000000000000000000, 0.0000000000000000000 ) ) ;
#48 = ORIENTED_EDGE ( 'NONE', *, *, #187, .T. ) ;
#49 = EDGE_CURVE ( 'NONE', #118, #237, #185, .T. ) ;
#50 = CIRCLE ( 'NONE', #95, 0.1250000000000000000 ) ;
#51 = AXIS2_PLACEMENT_3D ( 'NONE', #68, #69, #200 ) ;
#52 = EDGE_CURVE ( 'NONE', #120, #174, #219, .T. ) ;
#53 =( NAMED_UNIT ( * ) SI_UNIT ( $, .STERADIAN. ) SOLID_ANGLE_UNIT ( ) );
#54 = CARTESIAN_POINT ( 'NONE',  ( 0.0000000000000000000, 0.0000000000000000000, 0.0000000000000000000 ) ) ;
#55 = EDGE_CURVE ( 'NONE', #237, #118, #5, .T. ) ;
#56 =( GEOMETRIC_REPRESENTATION_CONTEXT ( 3 ) GLOBAL_UNCERTAINTY_ASSIGNED_CONTEXT ( ( #70 ) ) GLOBAL_UNIT_ASSIGNED_CONTEXT ( ( #208, #215, #132 ) ) REPRESENTATION_CONTEXT ( 'NONE', 'WORKASPACE' ) );
#57 = DIRECTION ( 'NONE',  ( 1.000000000000000000, 0.0000000000000000000, 0.0000000000000000000 ) ) ;
#58 = ORIENTED_EDGE ( 'NONE', *, *, #72, .F. ) ;
#59 = DIRECTION ( 'NONE',  ( -0.0000000000000000000, -0.0000000000000000000, -1.000000000000000000 ) ) ;
#60 =( CONVERSION_BASED_UNIT ( 'INCH', #4 ) LENGTH_UNIT ( ) NAMED_UNIT ( #244 ) );
#61 = VERTEX_POINT ( 'NONE', #231 ) ;
#62 = UNCERTAINTY_MEASURE_WITH_UNIT (LENGTH_MEASURE( 1.000000000000000082E-05 ), #39, 'distance_accuracy_value', 'NONE');
#63 = LENGTH_MEASURE_WITH_UNIT ( LENGTH_MEASURE( 0.02539999999999999897 ), #18 );
#64 = DIRECTION ( 'NONE',  ( -0.0000000000000000000, -0.0000000000000000000, -1.000000000000000000 ) ) ;
#65 = APPLICATION_CONTEXT ( 'automotive_design' ) ;
#66 = FACE_OUTER_BOUND ( 'NONE', #196, .T. ) ;
#67 = ORIENTED_EDGE ( 'NONE', *, *, #141, .T. ) ;
#68 = CARTESIAN_POINT ( 'NONE',  ( 0.0000000000000000000, 0.0000000000000000000, 2.500000000000000000 ) ) ;
#69 = DIRECTION ( 'NONE',  ( 0.0000000000000000000, 0.0000000000000000000, -1.000000000000000000 ) ) ;
#70 = UNCERTAINTY_MEASURE_WITH_UNIT (LENGTH_MEASURE( 1.000000000000000082E-05 ), #208, 'distance_accuracy_value', 'NONE');
#71 = ORIENTED_EDGE ( 'NONE', *, *, #55, .T. ) ;
#72 = EDGE_CURVE ( 'NONE', #237, #138, #84, .T. ) ;
#73 = CLOSED_SHELL ( 'NONE', ( #188, #29, #112, #101, #168, #212, #75, #98 ) ) ;
#74 = VECTOR ( 'NONE', #137, 39.37007874015748854 ) ;
#75 = ADVANCED_FACE ( 'NONE', ( #6 ), #191, .T. ) ;
#76 = DIRECTION ( 'NONE',  ( -0.0000000000000000000, -0.0000000000000000000, -1.000000000000000000 ) ) ;
#77 = SURFACE_STYLE_USAGE ( .BOTH. , #214 ) ;
#78 = CIRCLE ( 'NONE', #180, 0.1250000000000000000 ) ;
#79 = CIRCLE ( 'NONE', #135, 0.1250000000000000000 ) ;
#80 = ORIENTED_EDGE ( 'NONE', *, *, #52, .T. ) ;
#81 = EDGE_CURVE ( 'NONE', #124, #61, #205, .T. ) ;
#82 = DIRECTION ( 'NONE',  ( 0.0000000000000000000, 0.0000000000000000000, 1.000000000000000000 ) ) ;
#83 = ORIENTED_EDGE ( 'NONE', *, *, #10, .F. ) ;
#84 = LINE ( 'NONE', #172, #139 ) ;
#85 = MECHANICAL_DESIGN_GEOMETRIC_PRESENTATION_REPRESENTATION (  '', ( #15 ), #235 ) ;
#86 = DIRECTION ( 'NONE',  ( -1.000000000000000000, 0.0000000000000000000, 0.0000000000000000000 ) ) ;
#87 = DIRECTION ( 'NONE',  ( -0.0000000000000000000, -0.0000000000000000000, -1.000000000000000000 ) ) ;
#88 = DIRECTION ( 'NONE',  ( 1.000000000000000000, 0.0000000000000000000, 0.0000000000000000000 ) ) ;
#89 = AXIS2_PLACEMENT_3D ( 'NONE', #99, #136, #86 ) ;
#90 = CONICAL_SURFACE ( 'NONE', #20, 0.03000000000000000583, 0.7853981633974497223 ) ;
#91 = CARTESIAN_POINT ( 'NONE',  ( 0.1250000000000000000, 1.530808498934191509E-17, 2.500000000000000000 ) ) ;
#92 = LINE ( 'NONE', #182, #35 ) ;
#93 = ADVANCED_BREP_SHAPE_REPRESENTATION ( 'Micro_RNC-250-260', ( #106, #186 ), #7 ) ;
#94 = SHAPE_DEFINITION_REPRESENTATION ( #108, #93 ) ;
#95 = AXIS2_PLACEMENT_3D ( 'NONE', #41, #59, #195 ) ;
#96 = PRODUCT_CONTEXT ( 'NONE', #65, 'mechanical' ) ;
#97 = PRODUCT_DEFINITION_CONTEXT ( 'detailed design', #201, 'design' ) ;
#98 = ADVANCED_FACE ( 'NONE', ( #171 ), #102, .T. ) ;
#99 = CARTESIAN_POINT ( 'NONE',  ( 0.0000000000000000000, 0.0000000000000000000, 2.405000000000000249 ) ) ;
#100 = CARTESIAN_POINT ( 'NONE',  ( 0.0000000000000000000, 0.0000000000000000000, 2.500000000000000000 ) ) ;
#101 = ADVANCED_FACE ( 'NONE', ( #24 ), #152, .T. ) ;
#102 = PLANE ( 'NONE',  #114 ) ;
#103 = ORIENTED_EDGE ( 'NONE', *, *, #10, .T. ) ;
#104 = DIRECTION ( 'NONE',  ( -1.000000000000000000, 0.0000000000000000000, 0.0000000000000000000 ) ) ;
#105 = ORIENTED_EDGE ( 'NONE', *, *, #49, .F. ) ;
#106 = MANIFOLD_SOLID_BREP ( 'Mirror1', #73 ) ;
#107 = CARTESIAN_POINT ( 'NONE',  ( -0.1250000000000000000, 0.0000000000000000000, 0.09499999999999972355 ) ) ;
#108 = PRODUCT_DEFINITION_SHAPE ( 'NONE', 'NONE',  #146 ) ;
#109 = DIRECTION ( 'NONE',  ( 0.0000000000000000000, 0.0000000000000000000, 1.000000000000000000 ) ) ;
#110 = CARTESIAN_POINT ( 'NONE',  ( -0.03000000000000000583, -9.491012693391989451E-18, 2.500000000000000000 ) ) ;
#111 = AXIS2_PLACEMENT_3D ( 'NONE', #227, #14, #228 ) ;
#112 = ADVANCED_FACE ( 'NONE', ( #66 ), #33, .T. ) ;
#113 = EDGE_CURVE ( 'NONE', #120, #124, #92, .T. ) ;
#114 = AXIS2_PLACEMENT_3D ( 'NONE', #197, #82, #130 ) ;
#115 = PRESENTATION_LAYER_ASSIGNMENT (  '', '', ( #15 ) ) ;
#116 = FACE_OUTER_BOUND ( 'NONE', #218, .T. ) ;
#117 = SURFACE_STYLE_FILL_AREA ( #169 ) ;
#118 = VERTEX_POINT ( 'NONE', #45 ) ;
#119 = FILL_AREA_STYLE_COLOUR ( '', #245 ) ;
#120 = VERTEX_POINT ( 'NONE', #178 ) ;
#121 = FILL_AREA_STYLE_COLOUR ( '', #156 ) ;
#122 = DIRECTION ( 'NONE',  ( 0.7071067811865484609, 0.0000000000000000000, -0.7071067811865464625 ) ) ;
#123 = EDGE_CURVE ( 'NONE', #138, #159, #79, .T. ) ;
#124 = VERTEX_POINT ( 'NONE', #158 ) ;
#125 = SURFACE_SIDE_STYLE ('',( #242 ) ) ;
#126 = SURFACE_STYLE_USAGE ( .BOTH. , #125 ) ;
#127 = DIRECTION ( 'NONE',  ( -0.0000000000000000000, -0.0000000000000000000, -1.000000000000000000 ) ) ;
#128 = DIMENSIONAL_EXPONENTS ( 1.000000000000000000, 0.0000000000000000000, 0.0000000000000000000, 0.0000000000000000000, 0.0000000000000000000, 0.0000000000000000000, 0.0000000000000000000 ) ;
#129 = AXIS2_PLACEMENT_3D ( 'NONE', #100, #248, #57 ) ;
#130 = DIRECTION ( 'NONE',  ( 1.000000000000000000, 0.0000000000000000000, -0.0000000000000000000 ) ) ;
#131 = CARTESIAN_POINT ( 'NONE',  ( 0.0000000000000000000, 0.0000000000000000000, 2.405000000000000249 ) ) ;
#132 =( NAMED_UNIT ( * ) SI_UNIT ( $, .STERADIAN. ) SOLID_ANGLE_UNIT ( ) );
#133 = ORIENTED_EDGE ( 'NONE', *, *, #123, .F. ) ;
#134 = AXIS2_PLACEMENT_3D ( 'NONE', #175, #64, #154 ) ;
#135 = AXIS2_PLACEMENT_3D ( 'NONE', #12, #87, #220 ) ;
#136 = DIRECTION ( 'NONE',  ( 0.0000000000000000000, 0.0000000000000000000, -1.000000000000000000 ) ) ;
#137 = DIRECTION ( 'NONE',  ( -0.7071067811865484609, -8.659560562354943952E-17, -0.7071067811865464625 ) ) ;
#138 = VERTEX_POINT ( 'NONE', #160 ) ;
#139 = VECTOR ( 'NONE', #22, 39.37007874015748854 ) ;
#140 = EDGE_CURVE ( 'NONE', #174, #61, #238, .T. ) ;
#141 = EDGE_CURVE ( 'NONE', #174, #120, #192, .T. ) ;
#142 = APPLICATION_PROTOCOL_DEFINITION ( 'draft international standard', 'automotive_design', 1998, #65 ) ;
#143 = PRODUCT_DEFINITION_FORMATION_WITH_SPECIFIED_SOURCE ( 'ANY', '', #177, .NOT_KNOWN. ) ;
#144 = CARTESIAN_POINT ( 'NONE',  ( 0.0000000000000000000, 0.0000000000000000000, 0.0000000000000000000 ) ) ;
#145 = LINE ( 'NONE', #243, #181 ) ;
#146 = PRODUCT_DEFINITION ( 'UNKNOWN', '', #143, #97 ) ;
#147 =( NAMED_UNIT ( * ) PLANE_ANGLE_UNIT ( ) SI_UNIT ( $, .RADIAN. ) );
#148 =( LENGTH_UNIT ( ) NAMED_UNIT ( * ) SI_UNIT ( $, .METRE. ) );
#149 = PLANE ( 'NONE',  #32 ) ;
#150 = ORIENTED_EDGE ( 'NONE', *, *, #52, .F. ) ;
#151 = EDGE_LOOP ( 'NONE', ( #80, #193, #176, #25 ) ) ;
#152 = CYLINDRICAL_SURFACE ( 'NONE', #134, 0.1250000000000000000 ) ;
#153 = DIRECTION ( 'NONE',  ( 1.000000000000000000, 0.0000000000000000000, -0.0000000000000000000 ) ) ;
#154 = DIRECTION ( 'NONE',  ( -1.000000000000000000, 0.0000000000000000000, 0.0000000000000000000 ) ) ;
#155 = CARTESIAN_POINT ( 'NONE',  ( 0.0000000000000000000, 0.0000000000000000000, 0.0000000000000000000 ) ) ;
#156 = COLOUR_RGB ( '',0.7921568627450980005, 0.8196078431372548767, 0.9333333333333333481 ) ;
#157 = ORIENTED_EDGE ( 'NONE', *, *, #140, .F. ) ;
#158 = CARTESIAN_POINT ( 'NONE',  ( 0.1250000000000000000, 1.530808498934191509E-17, 2.405000000000000249 ) ) ;
#159 = VERTEX_POINT ( 'NONE', #107 ) ;
#160 = CARTESIAN_POINT ( 'NONE',  ( 0.1250000000000000000, 1.530808498934191509E-17, 0.09499999999999972355 ) ) ;
#161 = EDGE_CURVE ( 'NONE', #124, #138, #224, .T. ) ;
#162 = AXIS2_PLACEMENT_3D ( 'NONE', #23, #3, #88 ) ;
#163 = EDGE_LOOP ( 'NONE', ( #157, #67, #221, #198 ) ) ;
#164 = DIRECTION ( 'NONE',  ( -0.0000000000000000000, -0.0000000000000000000, -1.000000000000000000 ) ) ;
#165 = PRODUCT_RELATED_PRODUCT_CATEGORY ( 'part', '', ( #177 ) ) ;
#166 =( LENGTH_UNIT ( ) NAMED_UNIT ( * ) SI_UNIT ( $, .METRE. ) );
#167 = FACE_OUTER_BOUND ( 'NONE', #151, .T. ) ;
#168 = ADVANCED_FACE ( 'NONE', ( #204 ), #90, .T. ) ;
#169 = FILL_AREA_STYLE ('',( #119 ) ) ;
#170 = AXIS2_PLACEMENT_3D ( 'NONE', #234, #2, #34 ) ;
#171 = FACE_OUTER_BOUND ( 'NONE', #232, .T. ) ;
#172 = CARTESIAN_POINT ( 'NONE',  ( 0.03000000000000000583, 0.0000000000000000000, 0.0000000000000000000 ) ) ;
#173 =( NAMED_UNIT ( * ) PLANE_ANGLE_UNIT ( ) SI_UNIT ( $, .RADIAN. ) );
#174 = VERTEX_POINT ( 'NONE', #110 ) ;
#175 = CARTESIAN_POINT ( 'NONE',  ( 0.0000000000000000000, 0.0000000000000000000, 2.500000000000000000 ) ) ;
#176 = ORIENTED_EDGE ( 'NONE', *, *, #81, .F. ) ;
#177 = PRODUCT ( 'Micro_RNC-250-260', 'Micro_RNC-250-260', '', ( #96 ) ) ;
#178 = CARTESIAN_POINT ( 'NONE',  ( 0.03000000000000000583, 0.0000000000000000000, 2.500000000000000000 ) ) ;
#179 = EDGE_CURVE ( 'NONE', #61, #159, #145, .T. ) ;
#180 = AXIS2_PLACEMENT_3D ( 'NONE', #131, #216, #104 ) ;
#181 = VECTOR ( 'NONE', #76, 39.37007874015748143 ) ;
#182 = CARTESIAN_POINT ( 'NONE',  ( 0.03000000000000000583, 0.0000000000000000000, 2.500000000000000000 ) ) ;
#183 = DIRECTION ( 'NONE',  ( 0.0000000000000000000, 0.0000000000000000000, 1.000000000000000000 ) ) ;
#184 = PRESENTATION_STYLE_ASSIGNMENT (( #126 ) ) ;
#185 = CIRCLE ( 'NONE', #247, 0.03000000000000000583 ) ;
#186 = AXIS2_PLACEMENT_3D ( 'NONE', #144, #109, #27 ) ;
#187 = EDGE_CURVE ( 'NONE', #118, #159, #16, .T. ) ;
#188 = ADVANCED_FACE ( 'NONE', ( #167 ), #30, .T. ) ;
#189 = EDGE_LOOP ( 'NONE', ( #38, #236, #203, #17 ) ) ;
#190 = DIRECTION ( 'NONE',  ( -1.000000000000000000, 0.0000000000000000000, 0.0000000000000000000 ) ) ;
#191 = CONICAL_SURFACE ( 'NONE', #170, 0.03000000000000000583, 0.7853981633974497223 ) ;
#192 = CIRCLE ( 'NONE', #51, 0.03000000000000000583 ) ;
#193 = ORIENTED_EDGE ( 'NONE', *, *, #140, .T. ) ;
#194 = CARTESIAN_POINT ( 'NONE',  ( -0.03000000000000000583, 3.673940397442059960E-18, 0.0000000000000000000 ) ) ;
#195 = DIRECTION ( 'NONE',  ( -1.000000000000000000, 0.0000000000000000000, 0.0000000000000000000 ) ) ;
#196 = EDGE_LOOP ( 'NONE', ( #239, #217, #83, #209 ) ) ;
#197 = CARTESIAN_POINT ( 'NONE',  ( 0.0000000000000000000, 0.0000000000000000000, 2.500000000000000000 ) ) ;
#198 = ORIENTED_EDGE ( 'NONE', *, *, #13, .F. ) ;
#199 = EDGE_LOOP ( 'NONE', ( #105, #48, #103, #58 ) ) ;
#200 = DIRECTION ( 'NONE',  ( -1.000000000000000000, 0.0000000000000000000, 0.0000000000000000000 ) ) ;
#201 = APPLICATION_CONTEXT ( 'automotive_design' ) ;
#202 = DIRECTION ( 'NONE',  ( -0.0000000000000000000, -0.0000000000000000000, -1.000000000000000000 ) ) ;
#203 = ORIENTED_EDGE ( 'NONE', *, *, #72, .T. ) ;
#204 = FACE_OUTER_BOUND ( 'NONE', #189, .T. ) ;
#205 = CIRCLE ( 'NONE', #89, 0.1250000000000000000 ) ;
#206 = DIRECTION ( 'NONE',  ( -1.000000000000000000, 0.0000000000000000000, 0.0000000000000000000 ) ) ;
#207 = PRESENTATION_LAYER_ASSIGNMENT (  '', '', ( #233 ) ) ;
#208 =( CONVERSION_BASED_UNIT ( 'INCH', #40 ) LENGTH_UNIT ( ) NAMED_UNIT ( #223 ) );
#209 = ORIENTED_EDGE ( 'NONE', *, *, #179, .F. ) ;
#210 = ORIENTED_EDGE ( 'NONE', *, *, #81, .T. ) ;
#211 = AXIS2_PLACEMENT_3D ( 'NONE', #54, #127, #206 ) ;
#212 = ADVANCED_FACE ( 'NONE', ( #116 ), #149, .F. ) ;
#213 = DIRECTION ( 'NONE',  ( 0.0000000000000000000, 0.0000000000000000000, 1.000000000000000000 ) ) ;
#214 = SURFACE_SIDE_STYLE ('',( #117 ) ) ;
#215 =( NAMED_UNIT ( * ) PLANE_ANGLE_UNIT ( ) SI_UNIT ( $, .RADIAN. ) );
#216 = DIRECTION ( 'NONE',  ( 0.0000000000000000000, 0.0000000000000000000, -1.000000000000000000 ) ) ;
#217 = ORIENTED_EDGE ( 'NONE', *, *, #161, .T. ) ;
#218 = EDGE_LOOP ( 'NONE', ( #71, #1 ) ) ;
#219 = CIRCLE ( 'NONE', #111, 0.03000000000000000583 ) ;
#220 = DIRECTION ( 'NONE',  ( -1.000000000000000000, 0.0000000000000000000, 0.0000000000000000000 ) ) ;
#221 = ORIENTED_EDGE ( 'NONE', *, *, #113, .T. ) ;
#222 = ORIENTED_EDGE ( 'NONE', *, *, #141, .F. ) ;
#223 = DIMENSIONAL_EXPONENTS ( 1.000000000000000000, 0.0000000000000000000, 0.0000000000000000000, 0.0000000000000000000, 0.0000000000000000000, 0.0000000000000000000, 0.0000000000000000000 ) ;
#224 = LINE ( 'NONE', #91, #225 ) ;
#225 = VECTOR ( 'NONE', #164, 39.37007874015748143 ) ;
#226 = VECTOR ( 'NONE', #36, 39.37007874015748854 ) ;
#227 = CARTESIAN_POINT ( 'NONE',  ( 0.0000000000000000000, 0.0000000000000000000, 2.500000000000000000 ) ) ;
#228 = DIRECTION ( 'NONE',  ( -1.000000000000000000, 0.0000000000000000000, 0.0000000000000000000 ) ) ;
#229 = CARTESIAN_POINT ( 'NONE',  ( 0.0000000000000000000, 0.0000000000000000000, 0.0000000000000000000 ) ) ;
#230 = CARTESIAN_POINT ( 'NONE',  ( 0.03000000000000000583, 0.0000000000000000000, 0.0000000000000000000 ) ) ;
#231 = CARTESIAN_POINT ( 'NONE',  ( -0.1250000000000000000, 0.0000000000000000000, 2.405000000000000249 ) ) ;
#232 = EDGE_LOOP ( 'NONE', ( #150, #222 ) ) ;
#233 = STYLED_ITEM ( 'NONE', ( #249 ), #106 ) ;
#234 = CARTESIAN_POINT ( 'NONE',  ( 0.0000000000000000000, 0.0000000000000000000, 2.500000000000000000 ) ) ;
#235 =( GEOMETRIC_REPRESENTATION_CONTEXT ( 3 ) GLOBAL_UNCERTAINTY_ASSIGNED_CONTEXT ( ( #9 ) ) GLOBAL_UNIT_ASSIGNED_CONTEXT ( ( #60, #147, #53 ) ) REPRESENTATION_CONTEXT ( 'NONE', 'WORKASPACE' ) );
#236 = ORIENTED_EDGE ( 'NONE', *, *, #55, .F. ) ;
#237 = VERTEX_POINT ( 'NONE', #230 ) ;
#238 = LINE ( 'NONE', #240, #74 ) ;
#239 = ORIENTED_EDGE ( 'NONE', *, *, #13, .T. ) ;
#240 = CARTESIAN_POINT ( 'NONE',  ( -0.03000000000000000583, -3.673940397442059960E-18, 2.500000000000000000 ) ) ;
#241 = APPLICATION_PROTOCOL_DEFINITION ( 'draft international standard', 'automotive_design', 1998, #201 ) ;
#242 = SURFACE_STYLE_FILL_AREA ( #46 ) ;
#243 = CARTESIAN_POINT ( 'NONE',  ( -0.1250000000000000000, 0.0000000000000000000, 2.500000000000000000 ) ) ;
#244 = DIMENSIONAL_EXPONENTS ( 1.000000000000000000, 0.0000000000000000000, 0.0000000000000000000, 0.0000000000000000000, 0.0000000000000000000, 0.0000000000000000000, 0.0000000000000000000 ) ;
#245 = COLOUR_RGB ( '',0.7921568627450980005, 0.8196078431372548767, 0.9333333333333333481 ) ;
#246 = ORIENTED_EDGE ( 'NONE', *, *, #161, .F. ) ;
#247 = AXIS2_PLACEMENT_3D ( 'NONE', #155, #202, #190 ) ;
#248 = DIRECTION ( 'NONE',  ( 0.0000000000000000000, 0.0000000000000000000, -1.000000000000000000 ) ) ;
#249 = PRESENTATION_STYLE_ASSIGNMENT (( #77 ) ) ;
ENDSEC;
END-ISO-10303-21;
