ISO-10303-21;
HEADER;
FILE_DESCRIPTION (( 'STEP AP214' ),
    '1' );
FILE_NAME ('12347.STEP',
    '2023-06-30T21:51:18',
    ( '' ),
    ( '' ),
    'SwSTEP 2.0',
    'SolidWorks 2023',
    '' );
FILE_SCHEMA (( 'AUTOMOTIVE_DESIGN' ));
ENDSEC;

DATA;
#1 = FACE_OUTER_BOUND ( 'NONE', #12, .T. ) ;
#2 = CARTESIAN_POINT ( 'NONE',  ( -3.061616997868383018E-17, 0.2500000000000000000, 0.000000000000000000 ) ) ;
#3 = VERTEX_POINT ( 'NONE', #110 ) ;
#4 = ORIENTED_EDGE ( 'NONE', *, *, #149, .F. ) ;
#5 = PRODUCT ( '12347', '12347', '', ( #335 ) ) ;
#6 = EDGE_LOOP ( 'NONE', ( #118, #204 ) ) ;
#7 =( NAMED_UNIT ( * ) PLANE_ANGLE_UNIT ( ) SI_UNIT ( $, .RADIAN. ) );
#8 = ORIENTED_EDGE ( 'NONE', *, *, #309, .F. ) ;
#9 = APPLICATION_CONTEXT ( 'automotive_design' ) ;
#10 = MECHANICAL_DESIGN_GEOMETRIC_PRESENTATION_REPRESENTATION (  '', ( #102 ), #297 ) ;
#11 =( LENGTH_UNIT ( ) NAMED_UNIT ( * ) SI_UNIT ( $, .METRE. ) );
#12 = EDGE_LOOP ( 'NONE', ( #167, #285, #354, #37 ) ) ;
#13 = DIRECTION ( 'NONE',  ( -1.574545884618025728E-16, 1.000000000000000000, -0.000000000000000000 ) ) ;
#14 = ADVANCED_FACE ( 'NONE', ( #348 ), #236, .T. ) ;
#15 = ORIENTED_EDGE ( 'NONE', *, *, #142, .F. ) ;
#16 = DIRECTION ( 'NONE',  ( -1.574545884618025728E-16, 1.000000000000000000, -0.000000000000000000 ) ) ;
#17 = CIRCLE ( 'NONE', #245, 0.2500000000000000000 ) ;
#18 = ADVANCED_FACE ( 'NONE', ( #166 ), #345, .T. ) ;
#19 = CARTESIAN_POINT ( 'NONE',  ( 0.000000000000000000, 0.000000000000000000, -0.2499999999999999167 ) ) ;
#20 =( LENGTH_UNIT ( ) NAMED_UNIT ( * ) SI_UNIT ( $, .METRE. ) );
#21 = CLOSED_SHELL ( 'NONE', ( #34, #284, #211, #367 ) ) ;
#22 = STYLED_ITEM ( 'NONE', ( #304 ), #203 ) ;
#23 = AXIS2_PLACEMENT_3D ( 'NONE', #191, #98, #44 ) ;
#24 =( CONVERSION_BASED_UNIT ( 'INCH', #253 ) LENGTH_UNIT ( ) NAMED_UNIT ( #268 ) );
#25 =( NAMED_UNIT ( * ) SI_UNIT ( $, .STERADIAN. ) SOLID_ANGLE_UNIT ( ) );
#26 = FACE_OUTER_BOUND ( 'NONE', #350, .T. ) ;
#27 = DIRECTION ( 'NONE',  ( -1.000000000000000000, 0.000000000000000000, 0.000000000000000000 ) ) ;
#28 =( NAMED_UNIT ( * ) SI_UNIT ( $, .STERADIAN. ) SOLID_ANGLE_UNIT ( ) );
#29 = VERTEX_POINT ( 'NONE', #64 ) ;
#30 = ORIENTED_EDGE ( 'NONE', *, *, #149, .T. ) ;
#31 = CARTESIAN_POINT ( 'NONE',  ( -0.2499999999999994171, 1.250000000000000000, 0.000000000000000000 ) ) ;
#32 = VERTEX_POINT ( 'NONE', #88 ) ;
#33 = PRESENTATION_LAYER_ASSIGNMENT (  '', '', ( #102 ) ) ;
#34 = ADVANCED_FACE ( 'NONE', ( #365 ), #96, .T. ) ;
#35 = PRESENTATION_STYLE_ASSIGNMENT (( #331 ) ) ;
#36 = AXIS2_PLACEMENT_3D ( 'NONE', #228, #105, #136 ) ;
#37 = ORIENTED_EDGE ( 'NONE', *, *, #315, .T. ) ;
#38 = SURFACE_STYLE_FILL_AREA ( #269 ) ;
#39 = COLOUR_RGB ( '',1.000000000000000000, 0.000000000000000000, 0.000000000000000000 ) ;
#40 = FILL_AREA_STYLE_COLOUR ( '', #209 ) ;
#41 = LINE ( 'NONE', #126, #140 ) ;
#42 = SURFACE_SIDE_STYLE ('',( #273 ) ) ;
#43 = EDGE_CURVE ( 'NONE', #117, #233, #226, .T. ) ;
#44 = DIRECTION ( 'NONE',  ( 0.000000000000000000, 0.000000000000000000, -1.000000000000000000 ) ) ;
#45 = CIRCLE ( 'NONE', #160, 0.2499999999999998335 ) ;
#46 = SURFACE_STYLE_FILL_AREA ( #189 ) ;
#47 =( LENGTH_UNIT ( ) NAMED_UNIT ( * ) SI_UNIT ( $, .METRE. ) );
#48 = DIRECTION ( 'NONE',  ( -0.000000000000000000, -1.000000000000000000, -0.000000000000000000 ) ) ;
#49 = PRESENTATION_LAYER_ASSIGNMENT (  '', '', ( #22 ) ) ;
#50 = STYLED_ITEM ( 'NONE', ( #257 ), #295 ) ;
#51 = CARTESIAN_POINT ( 'NONE',  ( -1.530808498934191509E-17, 0.000000000000000000, 0.000000000000000000 ) ) ;
#52 = DIRECTION ( 'NONE',  ( -1.574545884618025728E-16, 1.000000000000000000, -0.000000000000000000 ) ) ;
#53 = CARTESIAN_POINT ( 'NONE',  ( 0.000000000000000000, 0.2500000000000000000, 0.000000000000000000 ) ) ;
#54 = SURFACE_STYLE_FILL_AREA ( #286 ) ;
#55 = DIRECTION ( 'NONE',  ( 0.000000000000000000, 0.000000000000000000, -1.000000000000000000 ) ) ;
#56 =( GEOMETRIC_REPRESENTATION_CONTEXT ( 3 ) GLOBAL_UNCERTAINTY_ASSIGNED_CONTEXT ( ( #361 ) ) GLOBAL_UNIT_ASSIGNED_CONTEXT ( ( #288, #7, #229 ) ) REPRESENTATION_CONTEXT ( 'NONE', 'WORKASPACE' ) );
#57 = AXIS2_PLACEMENT_3D ( 'NONE', #186, #67, #360 ) ;
#58 = ORIENTED_EDGE ( 'NONE', *, *, #222, .F. ) ;
#59 = ORIENTED_EDGE ( 'NONE', *, *, #173, .F. ) ;
#60 = ORIENTED_EDGE ( 'NONE', *, *, #135, .F. ) ;
#61 = DIRECTION ( 'NONE',  ( -1.574545884618025728E-16, 1.000000000000000000, -0.000000000000000000 ) ) ;
#62 = ORIENTED_EDGE ( 'NONE', *, *, #274, .T. ) ;
#63 = PRESENTATION_STYLE_ASSIGNMENT (( #318 ) ) ;
#64 = CARTESIAN_POINT ( 'NONE',  ( -0.2500000000000000000, 0.2500000000000000000, 3.061616997868382402E-17 ) ) ;
#65 =( GEOMETRIC_REPRESENTATION_CONTEXT ( 3 ) GLOBAL_UNCERTAINTY_ASSIGNED_CONTEXT ( ( #154 ) ) GLOBAL_UNIT_ASSIGNED_CONTEXT ( ( #281, #275, #192 ) ) REPRESENTATION_CONTEXT ( 'NONE', 'WORKASPACE' ) );
#66 = DIRECTION ( 'NONE',  ( -1.000000000000000000, 0.000000000000000000, 0.000000000000000000 ) ) ;
#67 = DIRECTION ( 'NONE',  ( 1.574545884618025728E-16, -1.000000000000000000, 0.000000000000000000 ) ) ;
#68 =( NAMED_UNIT ( * ) PLANE_ANGLE_UNIT ( ) SI_UNIT ( $, .RADIAN. ) );
#69 = STYLED_ITEM ( 'NONE', ( #63 ), #14 ) ;
#70 = CARTESIAN_POINT ( 'NONE',  ( -6.123233995736772199E-17, 3.000000000000000444, 0.000000000000000000 ) ) ;
#71 = EDGE_CURVE ( 'NONE', #233, #117, #176, .T. ) ;
#72 = FILL_AREA_STYLE_COLOUR ( '', #298 ) ;
#73 = DIRECTION ( 'NONE',  ( -0.000000000000000000, -1.000000000000000000, -0.000000000000000000 ) ) ;
#74 = VECTOR ( 'NONE', #170, 39.37007874015748143 ) ;
#75 = AXIS2_PLACEMENT_3D ( 'NONE', #250, #368, #101 ) ;
#76 =( NAMED_UNIT ( * ) PLANE_ANGLE_UNIT ( ) SI_UNIT ( $, .RADIAN. ) );
#77 = UNCERTAINTY_MEASURE_WITH_UNIT (LENGTH_MEASURE( 1.000000000000000082E-05 ), #364, 'distance_accuracy_value', 'NONE');
#78 = MANIFOLD_SOLID_BREP ( 'Revolve - Cutting Edge', #159 ) ;
#79 = LENGTH_MEASURE_WITH_UNIT ( LENGTH_MEASURE( 0.02539999999999999897 ), #277 );
#80 = FILL_AREA_STYLE ('',( #323 ) ) ;
#81 = DIRECTION ( 'NONE',  ( -0.000000000000000000, -1.000000000000000000, -0.000000000000000000 ) ) ;
#82 = SURFACE_STYLE_USAGE ( .BOTH. , #112 ) ;
#83 = COLOUR_RGB ( '',0.7921568627450980005, 0.8196078431372548767, 0.9333333333333333481 ) ;
#84 = CIRCLE ( 'NONE', #213, 0.2500000000000000000 ) ;
#85 = LENGTH_MEASURE_WITH_UNIT ( LENGTH_MEASURE( 0.02539999999999999897 ), #320 );
#86 = PRODUCT_DEFINITION ( 'UNKNOWN', '', #177, #251 ) ;
#87 = VERTEX_POINT ( 'NONE', #184 ) ;
#88 = CARTESIAN_POINT ( 'NONE',  ( 0.2500000000000000000, 0.2500000000000000000, 0.000000000000000000 ) ) ;
#89 = ORIENTED_EDGE ( 'NONE', *, *, #327, .F. ) ;
#90 = CARTESIAN_POINT ( 'NONE',  ( 2.143131898507868297E-16, 1.250000000000000000, 0.000000000000000000 ) ) ;
#91 = AXIS2_PLACEMENT_3D ( 'NONE', #70, #195, #27 ) ;
#92 = DIRECTION ( 'NONE',  ( 0.000000000000000000, 0.000000000000000000, -1.000000000000000000 ) ) ;
#93 = MECHANICAL_DESIGN_GEOMETRIC_PRESENTATION_REPRESENTATION (  '', ( #22 ), #314 ) ;
#94 = APPLICATION_PROTOCOL_DEFINITION ( 'draft international standard', 'automotive_design', 1998, #291 ) ;
#95 = DIMENSIONAL_EXPONENTS ( 1.000000000000000000, 0.000000000000000000, 0.000000000000000000, 0.000000000000000000, 0.000000000000000000, 0.000000000000000000, 0.000000000000000000 ) ;
#96 = CYLINDRICAL_SURFACE ( 'NONE', #357, 0.2499999999999998057 ) ;
#97 = UNCERTAINTY_MEASURE_WITH_UNIT (LENGTH_MEASURE( 1.000000000000000082E-05 ), #202, 'distance_accuracy_value', 'NONE');
#98 = DIRECTION ( 'NONE',  ( -0.000000000000000000, -1.000000000000000000, -0.000000000000000000 ) ) ;
#99 =( NAMED_UNIT ( * ) PLANE_ANGLE_UNIT ( ) SI_UNIT ( $, .RADIAN. ) );
#100 = DIRECTION ( 'NONE',  ( 1.000000000000000000, 0.000000000000000000, -1.224646799147353207E-16 ) ) ;
#101 = DIRECTION ( 'NONE',  ( -1.000000000000000000, -1.574545884618025728E-16, 0.000000000000000000 ) ) ;
#102 = STYLED_ITEM ( 'NONE', ( #313 ), #18 ) ;
#103 = CYLINDRICAL_SURFACE ( 'NONE', #91, 0.2499999999999998057 ) ;
#104 = CARTESIAN_POINT ( 'NONE',  ( -0.2499999999999998612, 3.000000000000000444, 0.000000000000000000 ) ) ;
#105 = DIRECTION ( 'NONE',  ( -0.000000000000000000, -1.000000000000000000, -0.000000000000000000 ) ) ;
#106 =( GEOMETRIC_REPRESENTATION_CONTEXT ( 3 ) GLOBAL_UNCERTAINTY_ASSIGNED_CONTEXT ( ( #248 ) ) GLOBAL_UNIT_ASSIGNED_CONTEXT ( ( #127, #244, #340 ) ) REPRESENTATION_CONTEXT ( 'NONE', 'WORKASPACE' ) );
#107 = CARTESIAN_POINT ( 'NONE',  ( 0.000000000000000000, 0.000000000000000000, 0.000000000000000000 ) ) ;
#108 = DIRECTION ( 'NONE',  ( 0.000000000000000000, 0.000000000000000000, -1.000000000000000000 ) ) ;
#109 = PRODUCT_DEFINITION_SHAPE ( 'NONE', 'NONE',  #86 ) ;
#110 = CARTESIAN_POINT ( 'NONE',  ( 0.2499999999999998890, 3.000000000000000444, 3.061616997868381785E-17 ) ) ;
#111 = EDGE_CURVE ( 'NONE', #3, #87, #193, .T. ) ;
#112 = SURFACE_SIDE_STYLE ('',( #169 ) ) ;
#113 = VERTEX_POINT ( 'NONE', #217 ) ;
#114 = CIRCLE ( 'NONE', #296, 0.2499999999999999722 ) ;
#115 =( LENGTH_UNIT ( ) NAMED_UNIT ( * ) SI_UNIT ( $, .METRE. ) );
#116 = DIRECTION ( 'NONE',  ( 0.000000000000000000, 0.000000000000000000, -1.000000000000000000 ) ) ;
#117 = VERTEX_POINT ( 'NONE', #31 ) ;
#118 = ORIENTED_EDGE ( 'NONE', *, *, #142, .T. ) ;
#119 = DIRECTION ( 'NONE',  ( -1.000000000000000000, 0.000000000000000000, 0.000000000000000000 ) ) ;
#120 = MECHANICAL_DESIGN_GEOMETRIC_PRESENTATION_REPRESENTATION (  '', ( #241 ), #265 ) ;
#121 = CIRCLE ( 'NONE', #227, 0.2500000000000000000 ) ;
#122 = SURFACE_SIDE_STYLE ('',( #325 ) ) ;
#123 = DIMENSIONAL_EXPONENTS ( 1.000000000000000000, 0.000000000000000000, 0.000000000000000000, 0.000000000000000000, 0.000000000000000000, 0.000000000000000000, 0.000000000000000000 ) ;
#124 = PRESENTATION_LAYER_ASSIGNMENT (  '', '', ( #69 ) ) ;
#125 = PRESENTATION_LAYER_ASSIGNMENT (  '', '', ( #241 ) ) ;
#126 = CARTESIAN_POINT ( 'NONE',  ( 3.061616997868382402E-17, 0.000000000000000000, 0.2499999999999999167 ) ) ;
#127 =( CONVERSION_BASED_UNIT ( 'INCH', #183 ) LENGTH_UNIT ( ) NAMED_UNIT ( #326 ) );
#128 = DIRECTION ( 'NONE',  ( 0.000000000000000000, 0.000000000000000000, -1.000000000000000000 ) ) ;
#129 = CARTESIAN_POINT ( 'NONE',  ( 3.061616997868383018E-17, 0.2500000000000000000, 0.2500000000000000000 ) ) ;
#130 = SURFACE_SIDE_STYLE ('',( #372 ) ) ;
#131 = DIRECTION ( 'NONE',  ( 1.000000000000000000, 0.000000000000000000, 0.000000000000000000 ) ) ;
#132 = PLANE ( 'NONE',  #75 ) ;
#133 = STYLED_ITEM ( 'NONE', ( #157 ), #175 ) ;
#134 = DIRECTION ( 'NONE',  ( 1.000000000000000000, 0.000000000000000000, 0.000000000000000000 ) ) ;
#135 = EDGE_CURVE ( 'NONE', #164, #32, #17, .T. ) ;
#136 = DIRECTION ( 'NONE',  ( 0.000000000000000000, 0.000000000000000000, -1.000000000000000000 ) ) ;
#137 = FILL_AREA_STYLE ('',( #280 ) ) ;
#138 =( NAMED_UNIT ( * ) PLANE_ANGLE_UNIT ( ) SI_UNIT ( $, .RADIAN. ) );
#139 = MECHANICAL_DESIGN_GEOMETRIC_PRESENTATION_REPRESENTATION (  '', ( #303 ), #106 ) ;
#140 = VECTOR ( 'NONE', #48, 39.37007874015748143 ) ;
#141 = LENGTH_MEASURE_WITH_UNIT ( LENGTH_MEASURE( 0.02539999999999999897 ), #115 );
#142 = EDGE_CURVE ( 'NONE', #87, #3, #114, .T. ) ;
#143 = DIRECTION ( 'NONE',  ( 0.000000000000000000, 0.000000000000000000, 1.000000000000000000 ) ) ;
#144 = ORIENTED_EDGE ( 'NONE', *, *, #135, .T. ) ;
#145 = ORIENTED_EDGE ( 'NONE', *, *, #315, .F. ) ;
#146 = VECTOR ( 'NONE', #52, 39.37007874015748143 ) ;
#147 = ORIENTED_EDGE ( 'NONE', *, *, #173, .T. ) ;
#148 = CARTESIAN_POINT ( 'NONE',  ( -6.123233995736770966E-17, 3.000000000000000444, 0.000000000000000000 ) ) ;
#149 = EDGE_CURVE ( 'NONE', #113, #254, #45, .T. ) ;
#150 = AXIS2_PLACEMENT_3D ( 'NONE', #231, #256, #341 ) ;
#151 = AXIS2_PLACEMENT_3D ( 'NONE', #2, #143, #134 ) ;
#152 = PRODUCT_RELATED_PRODUCT_CATEGORY ( 'part', '', ( #5 ) ) ;
#153 =( CONVERSION_BASED_UNIT ( 'INCH', #300 ) LENGTH_UNIT ( ) NAMED_UNIT ( #294 ) );
#154 = UNCERTAINTY_MEASURE_WITH_UNIT (LENGTH_MEASURE( 1.000000000000000082E-05 ), #281, 'distance_accuracy_value', 'NONE');
#155 = SURFACE_STYLE_USAGE ( .BOTH. , #42 ) ;
#156 = DIRECTION ( 'NONE',  ( -1.574545884618025728E-16, 1.000000000000000000, -0.000000000000000000 ) ) ;
#157 = PRESENTATION_STYLE_ASSIGNMENT (( #363 ) ) ;
#158 = SURFACE_SIDE_STYLE ('',( #46 ) ) ;
#159 = CLOSED_SHELL ( 'NONE', ( #230, #18, #14, #175, #295 ) ) ;
#160 = AXIS2_PLACEMENT_3D ( 'NONE', #240, #356, #92 ) ;
#161 = VECTOR ( 'NONE', #312, 39.37007874015748143 ) ;
#162 = CARTESIAN_POINT ( 'NONE',  ( 0.2499999999999998612, 1.250000000000000000, 3.061616997868381169E-17 ) ) ;
#163 = DIRECTION ( 'NONE',  ( -0.000000000000000000, -1.000000000000000000, -0.000000000000000000 ) ) ;
#164 = VERTEX_POINT ( 'NONE', #321 ) ;
#165 = AXIS2_PLACEMENT_3D ( 'NONE', #90, #16, #208 ) ;
#166 = FACE_OUTER_BOUND ( 'NONE', #207, .T. ) ;
#167 = ORIENTED_EDGE ( 'NONE', *, *, #249, .T. ) ;
#168 = ORIENTED_EDGE ( 'NONE', *, *, #71, .F. ) ;
#169 = SURFACE_STYLE_FILL_AREA ( #80 ) ;
#170 = DIRECTION ( 'NONE',  ( -0.000000000000000000, -1.000000000000000000, -0.000000000000000000 ) ) ;
#171 = ORIENTED_EDGE ( 'NONE', *, *, #43, .T. ) ;
#172 = AXIS2_PLACEMENT_3D ( 'NONE', #181, #13, #119 ) ;
#173 = EDGE_CURVE ( 'NONE', #113, #164, #289, .T. ) ;
#174 =( NAMED_UNIT ( * ) PLANE_ANGLE_UNIT ( ) SI_UNIT ( $, .RADIAN. ) );
#175 = ADVANCED_FACE ( 'NONE', ( #299 ), #210, .T. ) ;
#176 = CIRCLE ( 'NONE', #172, 0.2499999999999996114 ) ;
#177 = PRODUCT_DEFINITION_FORMATION_WITH_SPECIFIED_SOURCE ( 'ANY', '', #5, .NOT_KNOWN. ) ;
#178 = DIMENSIONAL_EXPONENTS ( 1.000000000000000000, 0.000000000000000000, 0.000000000000000000, 0.000000000000000000, 0.000000000000000000, 0.000000000000000000, 0.000000000000000000 ) ;
#179 = UNCERTAINTY_MEASURE_WITH_UNIT (LENGTH_MEASURE( 1.000000000000000082E-05 ), #153, 'distance_accuracy_value', 'NONE');
#180 = DIRECTION ( 'NONE',  ( -1.000000000000000000, 0.000000000000000000, 0.000000000000000000 ) ) ;
#181 = CARTESIAN_POINT ( 'NONE',  ( 2.143131898507868297E-16, 1.250000000000000000, 0.000000000000000000 ) ) ;
#182 = DIRECTION ( 'NONE',  ( 0.000000000000000000, 0.000000000000000000, 1.000000000000000000 ) ) ;
#183 = LENGTH_MEASURE_WITH_UNIT ( LENGTH_MEASURE( 0.02539999999999999897 ), #20 );
#184 = CARTESIAN_POINT ( 'NONE',  ( -0.2500000000000000555, 3.000000000000000444, 0.000000000000000000 ) ) ;
#185 = PRESENTATION_LAYER_ASSIGNMENT (  '', '', ( #303 ) ) ;
#186 = CARTESIAN_POINT ( 'NONE',  ( 0.2499999999999998890, 3.000000000000000444, 0.000000000000000000 ) ) ;
#187 = PRESENTATION_LAYER_ASSIGNMENT (  '', '', ( #50 ) ) ;
#188 =( LENGTH_UNIT ( ) NAMED_UNIT ( * ) SI_UNIT ( $, .METRE. ) );
#189 = FILL_AREA_STYLE ('',( #72 ) ) ;
#190 = FACE_OUTER_BOUND ( 'NONE', #6, .T. ) ;
#191 = CARTESIAN_POINT ( 'NONE',  ( 0.000000000000000000, 0.2500000000000000000, 0.000000000000000000 ) ) ;
#192 =( NAMED_UNIT ( * ) SI_UNIT ( $, .STERADIAN. ) SOLID_ANGLE_UNIT ( ) );
#193 = CIRCLE ( 'NONE', #369, 0.2499999999999999722 ) ;
#194 = MECHANICAL_DESIGN_GEOMETRIC_PRESENTATION_REPRESENTATION (  '', ( #50 ), #370 ) ;
#195 = DIRECTION ( 'NONE',  ( -1.574545884618025728E-16, 1.000000000000000000, -0.000000000000000000 ) ) ;
#196 = SURFACE_STYLE_USAGE ( .BOTH. , #158 ) ;
#197 = VERTEX_POINT ( 'NONE', #51 ) ;
#198 = FILL_AREA_STYLE ('',( #232 ) ) ;
#199 = ORIENTED_EDGE ( 'NONE', *, *, #359, .F. ) ;
#200 = SPHERICAL_SURFACE ( 'NONE', #151, 0.2500000000000000000 ) ;
#201 =( CONVERSION_BASED_UNIT ( 'INCH', #85 ) LENGTH_UNIT ( ) NAMED_UNIT ( #243 ) );
#202 =( CONVERSION_BASED_UNIT ( 'INCH', #223 ) LENGTH_UNIT ( ) NAMED_UNIT ( #178 ) );
#203 = MANIFOLD_SOLID_BREP ( 'Revolve - Tool Body (Straight Shanked)', #21 ) ;
#204 = ORIENTED_EDGE ( 'NONE', *, *, #111, .T. ) ;
#205 = EDGE_LOOP ( 'NONE', ( #4, #235 ) ) ;
#206 = DIRECTION ( 'NONE',  ( -1.574545884618025728E-16, 1.000000000000000000, -0.000000000000000000 ) ) ;
#207 = EDGE_LOOP ( 'NONE', ( #30, #270, #145, #60, #59 ) ) ;
#208 = DIRECTION ( 'NONE',  ( -1.000000000000000000, 0.000000000000000000, 0.000000000000000000 ) ) ;
#209 = COLOUR_RGB ( '',1.000000000000000000, 0.000000000000000000, 0.000000000000000000 ) ;
#210 = CYLINDRICAL_SURFACE ( 'NONE', #212, 0.2499999999999999167 ) ;
#211 = ADVANCED_FACE ( 'NONE', ( #373 ), #103, .T. ) ;
#212 = AXIS2_PLACEMENT_3D ( 'NONE', #107, #73, #307 ) ;
#213 = AXIS2_PLACEMENT_3D ( 'NONE', #306, #279, #100 ) ;
#214 = UNCERTAINTY_MEASURE_WITH_UNIT (LENGTH_MEASURE( 1.000000000000000082E-05 ), #201, 'distance_accuracy_value', 'NONE');
#215 = CARTESIAN_POINT ( 'NONE',  ( 0.000000000000000000, 0.000000000000000000, 0.000000000000000000 ) ) ;
#216 = SPHERICAL_SURFACE ( 'NONE', #308, 0.2500000000000000000 ) ;
#217 = CARTESIAN_POINT ( 'NONE',  ( 0.000000000000000000, 1.250000000000000000, -0.2499999999999998335 ) ) ;
#218 = ORIENTED_EDGE ( 'NONE', *, *, #344, .T. ) ;
#219 = CARTESIAN_POINT ( 'NONE',  ( -3.061616997868383018E-17, 0.2500000000000000000, 0.000000000000000000 ) ) ;
#220 = CIRCLE ( 'NONE', #247, 0.2500000000000000000 ) ;
#221 = FACE_OUTER_BOUND ( 'NONE', #292, .T. ) ;
#222 = EDGE_CURVE ( 'NONE', #233, #3, #224, .T. ) ;
#223 = LENGTH_MEASURE_WITH_UNIT ( LENGTH_MEASURE( 0.02539999999999999897 ), #252 );
#224 = LINE ( 'NONE', #310, #146 ) ;
#225 = MECHANICAL_DESIGN_GEOMETRIC_PRESENTATION_REPRESENTATION (  '', ( #69 ), #56 ) ;
#226 = CIRCLE ( 'NONE', #165, 0.2499999999999996114 ) ;
#227 = AXIS2_PLACEMENT_3D ( 'NONE', #342, #81, #55 ) ;
#228 = CARTESIAN_POINT ( 'NONE',  ( 0.000000000000000000, 1.250000000000000000, 0.000000000000000000 ) ) ;
#229 =( NAMED_UNIT ( * ) SI_UNIT ( $, .STERADIAN. ) SOLID_ANGLE_UNIT ( ) );
#230 = ADVANCED_FACE ( 'NONE', ( #1 ), #216, .T. ) ;
#231 = CARTESIAN_POINT ( 'NONE',  ( 0.000000000000000000, 1.250000000000000000, 0.000000000000000000 ) ) ;
#232 = FILL_AREA_STYLE_COLOUR ( '', #39 ) ;
#233 = VERTEX_POINT ( 'NONE', #162 ) ;
#234 =( GEOMETRIC_REPRESENTATION_CONTEXT ( 3 ) GLOBAL_UNCERTAINTY_ASSIGNED_CONTEXT ( ( #77 ) ) GLOBAL_UNIT_ASSIGNED_CONTEXT ( ( #364, #99, #25 ) ) REPRESENTATION_CONTEXT ( 'NONE', 'WORKASPACE' ) );
#235 = ORIENTED_EDGE ( 'NONE', *, *, #344, .F. ) ;
#236 = PLANE ( 'NONE',  #150 ) ;
#237 = CARTESIAN_POINT ( 'NONE',  ( -6.123233995736770966E-17, 3.000000000000000444, 0.000000000000000000 ) ) ;
#238 = ORIENTED_EDGE ( 'NONE', *, *, #111, .F. ) ;
#239 = CARTESIAN_POINT ( 'NONE',  ( 0.000000000000000000, 0.2500000000000000000, 0.000000000000000000 ) ) ;
#240 = CARTESIAN_POINT ( 'NONE',  ( 0.000000000000000000, 1.250000000000000000, 0.000000000000000000 ) ) ;
#241 = STYLED_ITEM ( 'NONE', ( #35 ), #78 ) ;
#242 = AXIS2_PLACEMENT_3D ( 'NONE', #215, #182, #131 ) ;
#243 = DIMENSIONAL_EXPONENTS ( 1.000000000000000000, 0.000000000000000000, 0.000000000000000000, 0.000000000000000000, 0.000000000000000000, 0.000000000000000000, 0.000000000000000000 ) ;
#244 =( NAMED_UNIT ( * ) PLANE_ANGLE_UNIT ( ) SI_UNIT ( $, .RADIAN. ) );
#245 = AXIS2_PLACEMENT_3D ( 'NONE', #239, #264, #116 ) ;
#246 = FILL_AREA_STYLE_COLOUR ( '', #83 ) ;
#247 = AXIS2_PLACEMENT_3D ( 'NONE', #53, #163, #108 ) ;
#248 = UNCERTAINTY_MEASURE_WITH_UNIT (LENGTH_MEASURE( 1.000000000000000082E-05 ), #127, 'distance_accuracy_value', 'NONE');
#249 = EDGE_CURVE ( 'NONE', #262, #29, #337, .T. ) ;
#250 = CARTESIAN_POINT ( 'NONE',  ( 2.143131898507868297E-16, 1.250000000000000000, 0.000000000000000000 ) ) ;
#251 = PRODUCT_DEFINITION_CONTEXT ( 'detailed design', #291, 'design' ) ;
#252 =( LENGTH_UNIT ( ) NAMED_UNIT ( * ) SI_UNIT ( $, .METRE. ) );
#253 = LENGTH_MEASURE_WITH_UNIT ( LENGTH_MEASURE( 0.02539999999999999897 ), #47 );
#254 = VERTEX_POINT ( 'NONE', #271 ) ;
#255 = ORIENTED_EDGE ( 'NONE', *, *, #267, .F. ) ;
#256 = DIRECTION ( 'NONE',  ( 0.000000000000000000, 1.000000000000000000, 0.000000000000000000 ) ) ;
#257 = PRESENTATION_STYLE_ASSIGNMENT (( #196 ) ) ;
#258 = EDGE_LOOP ( 'NONE', ( #199, #218, #147, #89, #263 ) ) ;
#259 = FILL_AREA_STYLE_COLOUR ( '', #290 ) ;
#260 = DIRECTION ( 'NONE',  ( -0.000000000000000000, -1.000000000000000000, -0.000000000000000000 ) ) ;
#261 = PRESENTATION_LAYER_ASSIGNMENT (  '', '', ( #133 ) ) ;
#262 = VERTEX_POINT ( 'NONE', #129 ) ;
#263 = ORIENTED_EDGE ( 'NONE', *, *, #249, .F. ) ;
#264 = DIRECTION ( 'NONE',  ( -0.000000000000000000, -1.000000000000000000, -0.000000000000000000 ) ) ;
#265 =( GEOMETRIC_REPRESENTATION_CONTEXT ( 3 ) GLOBAL_UNCERTAINTY_ASSIGNED_CONTEXT ( ( #179 ) ) GLOBAL_UNIT_ASSIGNED_CONTEXT ( ( #153, #68, #355 ) ) REPRESENTATION_CONTEXT ( 'NONE', 'WORKASPACE' ) );
#266 = FILL_AREA_STYLE ('',( #40 ) ) ;
#267 = EDGE_CURVE ( 'NONE', #29, #197, #84, .T. ) ;
#268 = DIMENSIONAL_EXPONENTS ( 1.000000000000000000, 0.000000000000000000, 0.000000000000000000, 0.000000000000000000, 0.000000000000000000, 0.000000000000000000, 0.000000000000000000 ) ;
#269 = FILL_AREA_STYLE ('',( #246 ) ) ;
#270 = ORIENTED_EDGE ( 'NONE', *, *, #359, .T. ) ;
#271 = CARTESIAN_POINT ( 'NONE',  ( 3.061616997868381785E-17, 1.250000000000000000, 0.2499999999999998335 ) ) ;
#272 = SURFACE_STYLE_USAGE ( .BOTH. , #130 ) ;
#273 = SURFACE_STYLE_FILL_AREA ( #198 ) ;
#274 = EDGE_CURVE ( 'NONE', #32, #197, #358, .T. ) ;
#275 =( NAMED_UNIT ( * ) PLANE_ANGLE_UNIT ( ) SI_UNIT ( $, .RADIAN. ) );
#276 = SHAPE_DEFINITION_REPRESENTATION ( #109, #339 ) ;
#277 =( LENGTH_UNIT ( ) NAMED_UNIT ( * ) SI_UNIT ( $, .METRE. ) );
#278 = COLOUR_RGB ( '',0.7921568627450980005, 0.8196078431372548767, 0.9333333333333333481 ) ;
#279 = DIRECTION ( 'NONE',  ( 1.224646799147353207E-16, -0.000000000000000000, 1.000000000000000000 ) ) ;
#280 = FILL_AREA_STYLE_COLOUR ( '', #278 ) ;
#281 =( CONVERSION_BASED_UNIT ( 'INCH', #79 ) LENGTH_UNIT ( ) NAMED_UNIT ( #95 ) );
#282 = SURFACE_SIDE_STYLE ('',( #54 ) ) ;
#283 = COLOUR_RGB ( '',1.000000000000000000, 0.000000000000000000, 0.000000000000000000 ) ;
#284 = ADVANCED_FACE ( 'NONE', ( #26 ), #132, .F. ) ;
#285 = ORIENTED_EDGE ( 'NONE', *, *, #267, .T. ) ;
#286 = FILL_AREA_STYLE ('',( #259 ) ) ;
#287 = ORIENTED_EDGE ( 'NONE', *, *, #327, .T. ) ;
#288 =( CONVERSION_BASED_UNIT ( 'INCH', #141 ) LENGTH_UNIT ( ) NAMED_UNIT ( #123 ) );
#289 = LINE ( 'NONE', #19, #74 ) ;
#290 = COLOUR_RGB ( '',1.000000000000000000, 0.000000000000000000, 0.000000000000000000 ) ;
#291 = APPLICATION_CONTEXT ( 'automotive_design' ) ;
#292 = EDGE_LOOP ( 'NONE', ( #255, #287, #144, #62 ) ) ;
#293 = CARTESIAN_POINT ( 'NONE',  ( 0.000000000000000000, 0.000000000000000000, 0.000000000000000000 ) ) ;
#294 = DIMENSIONAL_EXPONENTS ( 1.000000000000000000, 0.000000000000000000, 0.000000000000000000, 0.000000000000000000, 0.000000000000000000, 0.000000000000000000, 0.000000000000000000 ) ;
#295 = ADVANCED_FACE ( 'NONE', ( #221 ), #200, .T. ) ;
#296 = AXIS2_PLACEMENT_3D ( 'NONE', #237, #206, #352 ) ;
#297 =( GEOMETRIC_REPRESENTATION_CONTEXT ( 3 ) GLOBAL_UNCERTAINTY_ASSIGNED_CONTEXT ( ( #214 ) ) GLOBAL_UNIT_ASSIGNED_CONTEXT ( ( #201, #174, #351 ) ) REPRESENTATION_CONTEXT ( 'NONE', 'WORKASPACE' ) );
#298 = COLOUR_RGB ( '',1.000000000000000000, 0.000000000000000000, 0.000000000000000000 ) ;
#299 = FACE_OUTER_BOUND ( 'NONE', #258, .T. ) ;
#300 = LENGTH_MEASURE_WITH_UNIT ( LENGTH_MEASURE( 0.02539999999999999897 ), #11 );
#301 = DIMENSIONAL_EXPONENTS ( 1.000000000000000000, 0.000000000000000000, 0.000000000000000000, 0.000000000000000000, 0.000000000000000000, 0.000000000000000000, 0.000000000000000000 ) ;
#302 = DIRECTION ( 'NONE',  ( 1.000000000000000000, 0.000000000000000000, 0.000000000000000000 ) ) ;
#303 = STYLED_ITEM ( 'NONE', ( #305 ), #230 ) ;
#304 = PRESENTATION_STYLE_ASSIGNMENT (( #272 ) ) ;
#305 = PRESENTATION_STYLE_ASSIGNMENT (( #155 ) ) ;
#306 = CARTESIAN_POINT ( 'NONE',  ( -3.061616997868383018E-17, 0.2500000000000000000, 0.000000000000000000 ) ) ;
#307 = DIRECTION ( 'NONE',  ( 0.000000000000000000, 0.000000000000000000, -1.000000000000000000 ) ) ;
#308 = AXIS2_PLACEMENT_3D ( 'NONE', #366, #330, #302 ) ;
#309 = EDGE_CURVE ( 'NONE', #117, #87, #338, .T. ) ;
#310 = CARTESIAN_POINT ( 'NONE',  ( 0.2499999999999997224, 3.000000000000000444, 3.061616997868380553E-17 ) ) ;
#311 = ORIENTED_EDGE ( 'NONE', *, *, #43, .F. ) ;
#312 = DIRECTION ( 'NONE',  ( -1.574545884618025728E-16, 1.000000000000000000, -0.000000000000000000 ) ) ;
#313 = PRESENTATION_STYLE_ASSIGNMENT (( #82 ) ) ;
#314 =( GEOMETRIC_REPRESENTATION_CONTEXT ( 3 ) GLOBAL_UNCERTAINTY_ASSIGNED_CONTEXT ( ( #333 ) ) GLOBAL_UNIT_ASSIGNED_CONTEXT ( ( #24, #76, #28 ) ) REPRESENTATION_CONTEXT ( 'NONE', 'WORKASPACE' ) );
#315 = EDGE_CURVE ( 'NONE', #32, #262, #220, .T. ) ;
#316 = AXIS2_PLACEMENT_3D ( 'NONE', #219, #362, #336 ) ;
#317 = EDGE_LOOP ( 'NONE', ( #58, #322, #343, #238 ) ) ;
#318 = SURFACE_STYLE_USAGE ( .BOTH. , #282 ) ;
#319 = EDGE_LOOP ( 'NONE', ( #171, #353, #15, #8 ) ) ;
#320 =( LENGTH_UNIT ( ) NAMED_UNIT ( * ) SI_UNIT ( $, .METRE. ) );
#321 = CARTESIAN_POINT ( 'NONE',  ( 0.000000000000000000, 0.2500000000000000000, -0.2500000000000000000 ) ) ;
#322 = ORIENTED_EDGE ( 'NONE', *, *, #71, .T. ) ;
#323 = FILL_AREA_STYLE_COLOUR ( '', #283 ) ;
#324 = SURFACE_SIDE_STYLE ('',( #38 ) ) ;
#325 = SURFACE_STYLE_FILL_AREA ( #266 ) ;
#326 = DIMENSIONAL_EXPONENTS ( 1.000000000000000000, 0.000000000000000000, 0.000000000000000000, 0.000000000000000000, 0.000000000000000000, 0.000000000000000000, 0.000000000000000000 ) ;
#327 = EDGE_CURVE ( 'NONE', #29, #164, #121, .T. ) ;
#328 = AXIS2_PLACEMENT_3D ( 'NONE', #293, #260, #128 ) ;
#329 = APPLICATION_PROTOCOL_DEFINITION ( 'draft international standard', 'automotive_design', 1998, #9 ) ;
#330 = DIRECTION ( 'NONE',  ( 0.000000000000000000, 0.000000000000000000, 1.000000000000000000 ) ) ;
#331 = SURFACE_STYLE_USAGE ( .BOTH. , #324 ) ;
#332 = PLANE ( 'NONE',  #57 ) ;
#333 = UNCERTAINTY_MEASURE_WITH_UNIT (LENGTH_MEASURE( 1.000000000000000082E-05 ), #24, 'distance_accuracy_value', 'NONE');
#334 = CARTESIAN_POINT ( 'NONE',  ( -6.123233995736772199E-17, 3.000000000000000444, 0.000000000000000000 ) ) ;
#335 = PRODUCT_CONTEXT ( 'NONE', #9, 'mechanical' ) ;
#336 = DIRECTION ( 'NONE',  ( -1.000000000000000000, 0.000000000000000000, 0.000000000000000000 ) ) ;
#337 = CIRCLE ( 'NONE', #23, 0.2500000000000000000 ) ;
#338 = LINE ( 'NONE', #104, #161 ) ;
#339 = ADVANCED_BREP_SHAPE_REPRESENTATION ( '12347', ( #78, #203, #242 ), #234 ) ;
#340 =( NAMED_UNIT ( * ) SI_UNIT ( $, .STERADIAN. ) SOLID_ANGLE_UNIT ( ) );
#341 = DIRECTION ( 'NONE',  ( 0.000000000000000000, -0.000000000000000000, 1.000000000000000000 ) ) ;
#342 = CARTESIAN_POINT ( 'NONE',  ( 0.000000000000000000, 0.2500000000000000000, 0.000000000000000000 ) ) ;
#343 = ORIENTED_EDGE ( 'NONE', *, *, #309, .T. ) ;
#344 = EDGE_CURVE ( 'NONE', #254, #113, #349, .T. ) ;
#345 = CYLINDRICAL_SURFACE ( 'NONE', #328, 0.2499999999999999167 ) ;
#346 =( NAMED_UNIT ( * ) SI_UNIT ( $, .STERADIAN. ) SOLID_ANGLE_UNIT ( ) );
#347 = MECHANICAL_DESIGN_GEOMETRIC_PRESENTATION_REPRESENTATION (  '', ( #133 ), #65 ) ;
#348 = FACE_OUTER_BOUND ( 'NONE', #205, .T. ) ;
#349 = CIRCLE ( 'NONE', #36, 0.2499999999999998335 ) ;
#350 = EDGE_LOOP ( 'NONE', ( #311, #168 ) ) ;
#351 =( NAMED_UNIT ( * ) SI_UNIT ( $, .STERADIAN. ) SOLID_ANGLE_UNIT ( ) );
#352 = DIRECTION ( 'NONE',  ( -1.000000000000000000, 0.000000000000000000, 0.000000000000000000 ) ) ;
#353 = ORIENTED_EDGE ( 'NONE', *, *, #222, .T. ) ;
#354 = ORIENTED_EDGE ( 'NONE', *, *, #274, .F. ) ;
#355 =( NAMED_UNIT ( * ) SI_UNIT ( $, .STERADIAN. ) SOLID_ANGLE_UNIT ( ) );
#356 = DIRECTION ( 'NONE',  ( -0.000000000000000000, -1.000000000000000000, -0.000000000000000000 ) ) ;
#357 = AXIS2_PLACEMENT_3D ( 'NONE', #334, #61, #66 ) ;
#358 = CIRCLE ( 'NONE', #316, 0.2500000000000000000 ) ;
#359 = EDGE_CURVE ( 'NONE', #254, #262, #41, .T. ) ;
#360 = DIRECTION ( 'NONE',  ( 1.000000000000000000, 1.574545884618025728E-16, 0.000000000000000000 ) ) ;
#361 = UNCERTAINTY_MEASURE_WITH_UNIT (LENGTH_MEASURE( 1.000000000000000082E-05 ), #288, 'distance_accuracy_value', 'NONE');
#362 = DIRECTION ( 'NONE',  ( 0.000000000000000000, 0.000000000000000000, -1.000000000000000000 ) ) ;
#363 = SURFACE_STYLE_USAGE ( .BOTH. , #122 ) ;
#364 =( CONVERSION_BASED_UNIT ( 'INCH', #371 ) LENGTH_UNIT ( ) NAMED_UNIT ( #301 ) );
#365 = FACE_OUTER_BOUND ( 'NONE', #319, .T. ) ;
#366 = CARTESIAN_POINT ( 'NONE',  ( -3.061616997868383018E-17, 0.2500000000000000000, 0.000000000000000000 ) ) ;
#367 = ADVANCED_FACE ( 'NONE', ( #190 ), #332, .F. ) ;
#368 = DIRECTION ( 'NONE',  ( -1.574545884618025728E-16, 1.000000000000000000, 0.000000000000000000 ) ) ;
#369 = AXIS2_PLACEMENT_3D ( 'NONE', #148, #156, #180 ) ;
#370 =( GEOMETRIC_REPRESENTATION_CONTEXT ( 3 ) GLOBAL_UNCERTAINTY_ASSIGNED_CONTEXT ( ( #97 ) ) GLOBAL_UNIT_ASSIGNED_CONTEXT ( ( #202, #138, #346 ) ) REPRESENTATION_CONTEXT ( 'NONE', 'WORKASPACE' ) );
#371 = LENGTH_MEASURE_WITH_UNIT ( LENGTH_MEASURE( 0.02539999999999999897 ), #188 );
#372 = SURFACE_STYLE_FILL_AREA ( #137 ) ;
#373 = FACE_OUTER_BOUND ( 'NONE', #317, .T. ) ;
ENDSEC;
END-ISO-10303-21;
