ISO-10303-21;
HEADER;
FILE_DESCRIPTION (( 'STEP AP214' ),
    '1' );
FILE_NAME ('05487.STEP',
    '2023-06-22T16:09:39',
    ( '' ),
    ( '' ),
    'SwSTEP 2.0',
    'SolidWorks 2023',
    '' );
FILE_SCHEMA (( 'AUTOMOTIVE_DESIGN' ));
ENDSEC;

DATA;
#1 =( CONVERSION_BASED_UNIT ( 'INCH', #131 ) LENGTH_UNIT ( ) NAMED_UNIT ( #9 ) );
#2 = FILL_AREA_STYLE ('',( #216 ) ) ;
#3 = CLOSED_SHELL ( 'NONE', ( #118, #64, #203, #71 ) ) ;
#4 = COLOUR_RGB ( '',1.000000000000000000, 0.000000000000000000, 0.000000000000000000 ) ;
#5 = DIRECTION ( 'NONE',  ( -0.000000000000000000, -1.000000000000000000, -0.000000000000000000 ) ) ;
#6 = SURFACE_STYLE_FILL_AREA ( #285 ) ;
#7 = DIRECTION ( 'NONE',  ( -1.000000000000000000, 0.000000000000000000, 0.000000000000000000 ) ) ;
#8 = AXIS2_PLACEMENT_3D ( 'NONE', #200, #271, #14 ) ;
#9 = DIMENSIONAL_EXPONENTS ( 1.000000000000000000, 0.000000000000000000, 0.000000000000000000, 0.000000000000000000, 0.000000000000000000, 0.000000000000000000, 0.000000000000000000 ) ;
#10 = EDGE_CURVE ( 'NONE', #258, #209, #242, .T. ) ;
#11 = DIRECTION ( 'NONE',  ( -3.498990854706726443E-17, 1.000000000000000000, -0.000000000000000000 ) ) ;
#12 = APPLICATION_CONTEXT ( 'automotive_design' ) ;
#13 = MECHANICAL_DESIGN_GEOMETRIC_PRESENTATION_REPRESENTATION (  '', ( #35 ), #115 ) ;
#14 = DIRECTION ( 'NONE',  ( -1.000000000000000000, 0.000000000000000000, 0.000000000000000000 ) ) ;
#15 =( CONVERSION_BASED_UNIT ( 'INCH', #152 ) LENGTH_UNIT ( ) NAMED_UNIT ( #54 ) );
#16 = CARTESIAN_POINT ( 'NONE',  ( 0.000000000000000000, 1.250000000000000000, 0.000000000000000000 ) ) ;
#17 = DIMENSIONAL_EXPONENTS ( 1.000000000000000000, 0.000000000000000000, 0.000000000000000000, 0.000000000000000000, 0.000000000000000000, 0.000000000000000000, 0.000000000000000000 ) ;
#18 = VECTOR ( 'NONE', #11, 39.37007874015748143 ) ;
#19 = STYLED_ITEM ( 'NONE', ( #20 ), #295 ) ;
#20 = PRESENTATION_STYLE_ASSIGNMENT (( #279 ) ) ;
#21 = FACE_OUTER_BOUND ( 'NONE', #117, .T. ) ;
#22 = ORIENTED_EDGE ( 'NONE', *, *, #237, .T. ) ;
#23 = CARTESIAN_POINT ( 'NONE',  ( 0.000000000000000000, 1.250000000000000000, 0.000000000000000000 ) ) ;
#24 = DIRECTION ( 'NONE',  ( -1.000000000000000000, 0.000000000000000000, 0.000000000000000000 ) ) ;
#25 = ORIENTED_EDGE ( 'NONE', *, *, #241, .T. ) ;
#26 = UNCERTAINTY_MEASURE_WITH_UNIT (LENGTH_MEASURE( 1.000000000000000082E-05 ), #263, 'distance_accuracy_value', 'NONE');
#27 = DIRECTION ( 'NONE',  ( -0.000000000000000000, -1.000000000000000000, -0.000000000000000000 ) ) ;
#28 = ORIENTED_EDGE ( 'NONE', *, *, #255, .T. ) ;
#29 = DIRECTION ( 'NONE',  ( 0.000000000000000000, 0.000000000000000000, -1.000000000000000000 ) ) ;
#30 = EDGE_LOOP ( 'NONE', ( #159, #28 ) ) ;
#31 = DIRECTION ( 'NONE',  ( -3.498990854706726443E-17, 1.000000000000000000, -0.000000000000000000 ) ) ;
#32 = PRODUCT_DEFINITION_FORMATION_WITH_SPECIFIED_SOURCE ( 'ANY', '', #264, .NOT_KNOWN. ) ;
#33 = LENGTH_MEASURE_WITH_UNIT ( LENGTH_MEASURE( 0.02539999999999999897 ), #147 );
#34 = SURFACE_STYLE_USAGE ( .BOTH. , #144 ) ;
#35 = STYLED_ITEM ( 'NONE', ( #51 ), #166 ) ;
#36 = DIRECTION ( 'NONE',  ( -1.000000000000000000, -3.498990854706726443E-17, 0.000000000000000000 ) ) ;
#37 =( NAMED_UNIT ( * ) PLANE_ANGLE_UNIT ( ) SI_UNIT ( $, .RADIAN. ) );
#38 = DIRECTION ( 'NONE',  ( 0.000000000000000000, 0.000000000000000000, -1.000000000000000000 ) ) ;
#39 = FILL_AREA_STYLE ('',( #105 ) ) ;
#40 = EDGE_CURVE ( 'NONE', #189, #235, #240, .T. ) ;
#41 = PRESENTATION_STYLE_ASSIGNMENT (( #55 ) ) ;
#42 = FACE_OUTER_BOUND ( 'NONE', #309, .T. ) ;
#43 = CYLINDRICAL_SURFACE ( 'NONE', #262, 0.2500000000000000000 ) ;
#44 = FILL_AREA_STYLE ('',( #68 ) ) ;
#45 = ORIENTED_EDGE ( 'NONE', *, *, #237, .F. ) ;
#46 = ORIENTED_EDGE ( 'NONE', *, *, #10, .F. ) ;
#47 = DIRECTION ( 'NONE',  ( -3.498990854706726443E-17, 1.000000000000000000, -0.000000000000000000 ) ) ;
#48 = APPLICATION_PROTOCOL_DEFINITION ( 'draft international standard', 'automotive_design', 1998, #106 ) ;
#49 = ORIENTED_EDGE ( 'NONE', *, *, #247, .F. ) ;
#50 = DIRECTION ( 'NONE',  ( -3.498990854706726443E-17, 1.000000000000000000, -0.000000000000000000 ) ) ;
#51 = PRESENTATION_STYLE_ASSIGNMENT (( #100 ) ) ;
#52 = DIRECTION ( 'NONE',  ( -1.000000000000000000, 0.000000000000000000, 0.000000000000000000 ) ) ;
#53 = MECHANICAL_DESIGN_GEOMETRIC_PRESENTATION_REPRESENTATION (  '', ( #257 ), #181 ) ;
#54 = DIMENSIONAL_EXPONENTS ( 1.000000000000000000, 0.000000000000000000, 0.000000000000000000, 0.000000000000000000, 0.000000000000000000, 0.000000000000000000, 0.000000000000000000 ) ;
#55 = SURFACE_STYLE_USAGE ( .BOTH. , #127 ) ;
#56 = CARTESIAN_POINT ( 'NONE',  ( 0.000000000000000000, 0.000000000000000000, -0.2500000000000000000 ) ) ;
#57 = SURFACE_SIDE_STYLE ('',( #177 ) ) ;
#58 = CLOSED_SHELL ( 'NONE', ( #272, #191, #295, #266 ) ) ;
#59 = COLOUR_RGB ( '',1.000000000000000000, 0.000000000000000000, 0.000000000000000000 ) ;
#60 = DIRECTION ( 'NONE',  ( -3.498990854706726443E-17, 1.000000000000000000, -0.000000000000000000 ) ) ;
#61 = UNCERTAINTY_MEASURE_WITH_UNIT (LENGTH_MEASURE( 1.000000000000000082E-05 ), #174, 'distance_accuracy_value', 'NONE');
#62 = MANIFOLD_SOLID_BREP ( 'Revolve - Tool Body (Straight Shanked)', #3 ) ;
#63 = CARTESIAN_POINT ( 'NONE',  ( 0.000000000000000000, 0.000000000000000000, 0.000000000000000000 ) ) ;
#64 = ADVANCED_FACE ( 'NONE', ( #126 ), #141, .F. ) ;
#65 = ORIENTED_EDGE ( 'NONE', *, *, #255, .F. ) ;
#66 = DIMENSIONAL_EXPONENTS ( 1.000000000000000000, 0.000000000000000000, 0.000000000000000000, 0.000000000000000000, 0.000000000000000000, 0.000000000000000000, 0.000000000000000000 ) ;
#67 = STYLED_ITEM ( 'NONE', ( #41 ), #191 ) ;
#68 = FILL_AREA_STYLE_COLOUR ( '', #308 ) ;
#69 =( NAMED_UNIT ( * ) PLANE_ANGLE_UNIT ( ) SI_UNIT ( $, .RADIAN. ) );
#70 =( LENGTH_UNIT ( ) NAMED_UNIT ( * ) SI_UNIT ( $, .METRE. ) );
#71 = ADVANCED_FACE ( 'NONE', ( #173 ), #168, .F. ) ;
#72 = PRESENTATION_LAYER_ASSIGNMENT (  '', '', ( #67 ) ) ;
#73 = MECHANICAL_DESIGN_GEOMETRIC_PRESENTATION_REPRESENTATION (  '', ( #19 ), #286 ) ;
#74 = ORIENTED_EDGE ( 'NONE', *, *, #206, .F. ) ;
#75 = CARTESIAN_POINT ( 'NONE',  ( 0.000000000000000000, 1.250000000000000000, 0.000000000000000000 ) ) ;
#76 = FACE_OUTER_BOUND ( 'NONE', #163, .T. ) ;
#77 = DIRECTION ( 'NONE',  ( -3.498990854706726443E-17, 1.000000000000000000, 0.000000000000000000 ) ) ;
#78 = AXIS2_PLACEMENT_3D ( 'NONE', #239, #5, #29 ) ;
#79 = CYLINDRICAL_SURFACE ( 'NONE', #299, 0.2500000000000000555 ) ;
#80 = DIRECTION ( 'NONE',  ( -0.000000000000000000, -1.000000000000000000, -0.000000000000000000 ) ) ;
#81 = CIRCLE ( 'NONE', #251, 0.2500000000000000000 ) ;
#82 = PRESENTATION_LAYER_ASSIGNMENT (  '', '', ( #294 ) ) ;
#83 = SURFACE_STYLE_FILL_AREA ( #180 ) ;
#84 = DIMENSIONAL_EXPONENTS ( 1.000000000000000000, 0.000000000000000000, 0.000000000000000000, 0.000000000000000000, 0.000000000000000000, 0.000000000000000000, 0.000000000000000000 ) ;
#85 = CARTESIAN_POINT ( 'NONE',  ( -6.123233995736772199E-17, 3.000000000000000444, 0.000000000000000000 ) ) ;
#86 = CIRCLE ( 'NONE', #211, 0.2500000000000000555 ) ;
#87 = CARTESIAN_POINT ( 'NONE',  ( 0.000000000000000000, 1.250000000000000000, -0.2500000000000000000 ) ) ;
#88 = UNCERTAINTY_MEASURE_WITH_UNIT (LENGTH_MEASURE( 1.000000000000000082E-05 ), #15, 'distance_accuracy_value', 'NONE');
#89 = ORIENTED_EDGE ( 'NONE', *, *, #149, .T. ) ;
#90 = SURFACE_SIDE_STYLE ('',( #207 ) ) ;
#91 = VERTEX_POINT ( 'NONE', #283 ) ;
#92 = VECTOR ( 'NONE', #47, 39.37007874015748143 ) ;
#93 =( GEOMETRIC_REPRESENTATION_CONTEXT ( 3 ) GLOBAL_UNCERTAINTY_ASSIGNED_CONTEXT ( ( #214 ) ) GLOBAL_UNIT_ASSIGNED_CONTEXT ( ( #1, #69, #162 ) ) REPRESENTATION_CONTEXT ( 'NONE', 'WORKASPACE' ) );
#94 = DIRECTION ( 'NONE',  ( 0.000000000000000000, 0.000000000000000000, -1.000000000000000000 ) ) ;
#95 = EDGE_LOOP ( 'NONE', ( #274, #234 ) ) ;
#96 = UNCERTAINTY_MEASURE_WITH_UNIT (LENGTH_MEASURE( 1.000000000000000082E-05 ), #116, 'distance_accuracy_value', 'NONE');
#97 =( LENGTH_UNIT ( ) NAMED_UNIT ( * ) SI_UNIT ( $, .METRE. ) );
#98 = SURFACE_STYLE_FILL_AREA ( #2 ) ;
#99 = DIRECTION ( 'NONE',  ( 3.498990854706726443E-17, -1.000000000000000000, 0.000000000000000000 ) ) ;
#100 = SURFACE_STYLE_USAGE ( .BOTH. , #121 ) ;
#101 =( NAMED_UNIT ( * ) PLANE_ANGLE_UNIT ( ) SI_UNIT ( $, .RADIAN. ) );
#102 = AXIS2_PLACEMENT_3D ( 'NONE', #16, #226, #109 ) ;
#103 = DIRECTION ( 'NONE',  ( -0.000000000000000000, -1.000000000000000000, -0.000000000000000000 ) ) ;
#104 = DIRECTION ( 'NONE',  ( 1.000000000000000000, 3.498990854706726443E-17, 0.000000000000000000 ) ) ;
#105 = FILL_AREA_STYLE_COLOUR ( '', #59 ) ;
#106 = APPLICATION_CONTEXT ( 'automotive_design' ) ;
#107 = DIRECTION ( 'NONE',  ( -1.000000000000000000, 0.000000000000000000, 0.000000000000000000 ) ) ;
#108 = DIRECTION ( 'NONE',  ( -0.000000000000000000, -1.000000000000000000, -0.000000000000000000 ) ) ;
#109 = DIRECTION ( 'NONE',  ( 0.000000000000000000, -0.000000000000000000, 1.000000000000000000 ) ) ;
#110 = PRODUCT_DEFINITION_SHAPE ( 'NONE', 'NONE',  #182 ) ;
#111 = MECHANICAL_DESIGN_GEOMETRIC_PRESENTATION_REPRESENTATION (  '', ( #67 ), #150 ) ;
#112 = DIMENSIONAL_EXPONENTS ( 1.000000000000000000, 0.000000000000000000, 0.000000000000000000, 0.000000000000000000, 0.000000000000000000, 0.000000000000000000, 0.000000000000000000 ) ;
#113 = FACE_OUTER_BOUND ( 'NONE', #276, .T. ) ;
#114 = VERTEX_POINT ( 'NONE', #194 ) ;
#115 =( GEOMETRIC_REPRESENTATION_CONTEXT ( 3 ) GLOBAL_UNCERTAINTY_ASSIGNED_CONTEXT ( ( #26 ) ) GLOBAL_UNIT_ASSIGNED_CONTEXT ( ( #263, #244, #175 ) ) REPRESENTATION_CONTEXT ( 'NONE', 'WORKASPACE' ) );
#116 =( CONVERSION_BASED_UNIT ( 'INCH', #183 ) LENGTH_UNIT ( ) NAMED_UNIT ( #112 ) );
#117 = EDGE_LOOP ( 'NONE', ( #49, #136, #25, #45 ) ) ;
#118 = ADVANCED_FACE ( 'NONE', ( #76 ), #79, .T. ) ;
#119 = AXIS2_PLACEMENT_3D ( 'NONE', #23, #280, #256 ) ;
#120 = LENGTH_MEASURE_WITH_UNIT ( LENGTH_MEASURE( 0.02539999999999999897 ), #151 );
#121 = SURFACE_SIDE_STYLE ('',( #6 ) ) ;
#122 =( LENGTH_UNIT ( ) NAMED_UNIT ( * ) SI_UNIT ( $, .METRE. ) );
#123 = EDGE_CURVE ( 'NONE', #209, #258, #304, .T. ) ;
#124 = PRESENTATION_STYLE_ASSIGNMENT (( #34 ) ) ;
#125 = CIRCLE ( 'NONE', #129, 0.2500000000000000000 ) ;
#126 = FACE_OUTER_BOUND ( 'NONE', #95, .T. ) ;
#127 = SURFACE_SIDE_STYLE ('',( #83 ) ) ;
#128 = PRESENTATION_STYLE_ASSIGNMENT (( #267 ) ) ;
#129 = AXIS2_PLACEMENT_3D ( 'NONE', #133, #275, #24 ) ;
#130 =( NAMED_UNIT ( * ) SI_UNIT ( $, .STERADIAN. ) SOLID_ANGLE_UNIT ( ) );
#131 = LENGTH_MEASURE_WITH_UNIT ( LENGTH_MEASURE( 0.02539999999999999897 ), #158 );
#132 = PRESENTATION_LAYER_ASSIGNMENT (  '', '', ( #257 ) ) ;
#133 = CARTESIAN_POINT ( 'NONE',  ( 0.000000000000000000, 1.250000000000000000, 0.000000000000000000 ) ) ;
#134 = ORIENTED_EDGE ( 'NONE', *, *, #198, .T. ) ;
#135 = SURFACE_STYLE_FILL_AREA ( #44 ) ;
#136 = ORIENTED_EDGE ( 'NONE', *, *, #123, .T. ) ;
#137 =( NAMED_UNIT ( * ) SI_UNIT ( $, .STERADIAN. ) SOLID_ANGLE_UNIT ( ) );
#138 = CIRCLE ( 'NONE', #218, 0.2500000000000000555 ) ;
#139 = AXIS2_PLACEMENT_3D ( 'NONE', #169, #142, #193 ) ;
#140 = SURFACE_STYLE_USAGE ( .BOTH. , #90 ) ;
#141 = PLANE ( 'NONE',  #229 ) ;
#142 = DIRECTION ( 'NONE',  ( 0.000000000000000000, 0.000000000000000000, 1.000000000000000000 ) ) ;
#143 = EDGE_LOOP ( 'NONE', ( #188, #307, #252, #65 ) ) ;
#144 = SURFACE_SIDE_STYLE ('',( #98 ) ) ;
#145 = VECTOR ( 'NONE', #108, 39.37007874015748143 ) ;
#146 =( GEOMETRIC_REPRESENTATION_CONTEXT ( 3 ) GLOBAL_UNCERTAINTY_ASSIGNED_CONTEXT ( ( #61 ) ) GLOBAL_UNIT_ASSIGNED_CONTEXT ( ( #174, #195, #290 ) ) REPRESENTATION_CONTEXT ( 'NONE', 'WORKASPACE' ) );
#147 =( LENGTH_UNIT ( ) NAMED_UNIT ( * ) SI_UNIT ( $, .METRE. ) );
#148 = CARTESIAN_POINT ( 'NONE',  ( -6.123233995736772199E-17, 3.000000000000000444, 0.000000000000000000 ) ) ;
#149 = EDGE_CURVE ( 'NONE', #161, #114, #292, .T. ) ;
#150 =( GEOMETRIC_REPRESENTATION_CONTEXT ( 3 ) GLOBAL_UNCERTAINTY_ASSIGNED_CONTEXT ( ( #88 ) ) GLOBAL_UNIT_ASSIGNED_CONTEXT ( ( #15, #37, #130 ) ) REPRESENTATION_CONTEXT ( 'NONE', 'WORKASPACE' ) );
#151 =( LENGTH_UNIT ( ) NAMED_UNIT ( * ) SI_UNIT ( $, .METRE. ) );
#152 = LENGTH_MEASURE_WITH_UNIT ( LENGTH_MEASURE( 0.02539999999999999897 ), #246 );
#153 = PRODUCT_RELATED_PRODUCT_CATEGORY ( 'part', '', ( #264 ) ) ;
#154 = CARTESIAN_POINT ( 'NONE',  ( 3.061616997868383018E-17, 0.000000000000000000, 0.2500000000000000000 ) ) ;
#155 = COLOUR_RGB ( '',1.000000000000000000, 0.000000000000000000, 0.000000000000000000 ) ;
#156 = DIRECTION ( 'NONE',  ( -1.000000000000000000, 0.000000000000000000, 0.000000000000000000 ) ) ;
#157 = CARTESIAN_POINT ( 'NONE',  ( 0.2499999999999999722, 3.000000000000000444, 3.061616997868383634E-17 ) ) ;
#158 =( LENGTH_UNIT ( ) NAMED_UNIT ( * ) SI_UNIT ( $, .METRE. ) );
#159 = ORIENTED_EDGE ( 'NONE', *, *, #206, .T. ) ;
#160 = AXIS2_PLACEMENT_3D ( 'NONE', #63, #233, #94 ) ;
#161 = VERTEX_POINT ( 'NONE', #221 ) ;
#162 =( NAMED_UNIT ( * ) SI_UNIT ( $, .STERADIAN. ) SOLID_ANGLE_UNIT ( ) );
#163 = EDGE_LOOP ( 'NONE', ( #186, #134, #74, #238 ) ) ;
#164 = AXIS2_PLACEMENT_3D ( 'NONE', #219, #261, #192 ) ;
#165 = FILL_AREA_STYLE_COLOUR ( '', #4 ) ;
#166 = MANIFOLD_SOLID_BREP ( 'Revolve - Cutting Edge', #58 ) ;
#167 = LENGTH_MEASURE_WITH_UNIT ( LENGTH_MEASURE( 0.02539999999999999897 ), #122 );
#168 = PLANE ( 'NONE',  #176 ) ;
#169 = CARTESIAN_POINT ( 'NONE',  ( 0.000000000000000000, 0.000000000000000000, 0.000000000000000000 ) ) ;
#170 = COLOUR_RGB ( '',0.7921568627450980005, 0.8196078431372548767, 0.9333333333333333481 ) ;
#171 = PRESENTATION_LAYER_ASSIGNMENT (  '', '', ( #19 ) ) ;
#172 =( CONVERSION_BASED_UNIT ( 'INCH', #120 ) LENGTH_UNIT ( ) NAMED_UNIT ( #66 ) );
#173 = FACE_OUTER_BOUND ( 'NONE', #30, .T. ) ;
#174 =( CONVERSION_BASED_UNIT ( 'INCH', #167 ) LENGTH_UNIT ( ) NAMED_UNIT ( #225 ) );
#175 =( NAMED_UNIT ( * ) SI_UNIT ( $, .STERADIAN. ) SOLID_ANGLE_UNIT ( ) );
#176 = AXIS2_PLACEMENT_3D ( 'NONE', #260, #99, #104 ) ;
#177 = SURFACE_STYLE_FILL_AREA ( #39 ) ;
#178 = CARTESIAN_POINT ( 'NONE',  ( 0.2500000000000000000, 3.000000000000000444, 3.061616997868383634E-17 ) ) ;
#179 = CARTESIAN_POINT ( 'NONE',  ( 0.000000000000000000, 0.000000000000000000, 0.000000000000000000 ) ) ;
#180 = FILL_AREA_STYLE ('',( #301 ) ) ;
#181 =( GEOMETRIC_REPRESENTATION_CONTEXT ( 3 ) GLOBAL_UNCERTAINTY_ASSIGNED_CONTEXT ( ( #230 ) ) GLOBAL_UNIT_ASSIGNED_CONTEXT ( ( #172, #101, #222 ) ) REPRESENTATION_CONTEXT ( 'NONE', 'WORKASPACE' ) );
#182 = PRODUCT_DEFINITION ( 'UNKNOWN', '', #32, #273 ) ;
#183 = LENGTH_MEASURE_WITH_UNIT ( LENGTH_MEASURE( 0.02539999999999999897 ), #70 );
#184 = ORIENTED_EDGE ( 'NONE', *, *, #247, .T. ) ;
#185 = ORIENTED_EDGE ( 'NONE', *, *, #123, .F. ) ;
#186 = ORIENTED_EDGE ( 'NONE', *, *, #306, .T. ) ;
#187 = CYLINDRICAL_SURFACE ( 'NONE', #78, 0.2500000000000000000 ) ;
#188 = ORIENTED_EDGE ( 'NONE', *, *, #198, .F. ) ;
#189 = VERTEX_POINT ( 'NONE', #288 ) ;
#190 = COLOUR_RGB ( '',0.7921568627450980005, 0.8196078431372548767, 0.9333333333333333481 ) ;
#191 = ADVANCED_FACE ( 'NONE', ( #249 ), #268, .T. ) ;
#192 = DIRECTION ( 'NONE',  ( 0.000000000000000000, 0.000000000000000000, -1.000000000000000000 ) ) ;
#193 = DIRECTION ( 'NONE',  ( 1.000000000000000000, 0.000000000000000000, 0.000000000000000000 ) ) ;
#194 = CARTESIAN_POINT ( 'NONE',  ( 3.061616997868383018E-17, 0.000000000000000000, 0.2500000000000000000 ) ) ;
#195 =( NAMED_UNIT ( * ) PLANE_ANGLE_UNIT ( ) SI_UNIT ( $, .RADIAN. ) );
#196 = DIRECTION ( 'NONE',  ( 0.000000000000000000, 0.000000000000000000, -1.000000000000000000 ) ) ;
#197 = CARTESIAN_POINT ( 'NONE',  ( 0.000000000000000000, 1.250000000000000000, 0.000000000000000000 ) ) ;
#198 = EDGE_CURVE ( 'NONE', #91, #232, #224, .T. ) ;
#199 = VECTOR ( 'NONE', #80, 39.37007874015748143 ) ;
#200 = CARTESIAN_POINT ( 'NONE',  ( -6.123233995736772199E-17, 3.000000000000000444, 0.000000000000000000 ) ) ;
#201 = MECHANICAL_DESIGN_GEOMETRIC_PRESENTATION_REPRESENTATION (  '', ( #281 ), #93 ) ;
#202 = CARTESIAN_POINT ( 'NONE',  ( 3.061616997868383018E-17, 1.250000000000000000, 0.2500000000000000000 ) ) ;
#203 = ADVANCED_FACE ( 'NONE', ( #297 ), #291, .T. ) ;
#204 = LINE ( 'NONE', #154, #145 ) ;
#205 = PRESENTATION_LAYER_ASSIGNMENT (  '', '', ( #35 ) ) ;
#206 = EDGE_CURVE ( 'NONE', #235, #232, #138, .T. ) ;
#207 = SURFACE_STYLE_FILL_AREA ( #302 ) ;
#208 = ORIENTED_EDGE ( 'NONE', *, *, #241, .F. ) ;
#209 = VERTEX_POINT ( 'NONE', #202 ) ;
#210 = AXIS2_PLACEMENT_3D ( 'NONE', #197, #103, #196 ) ;
#211 = AXIS2_PLACEMENT_3D ( 'NONE', #85, #60, #156 ) ;
#212 =( CONVERSION_BASED_UNIT ( 'INCH', #305 ) LENGTH_UNIT ( ) NAMED_UNIT ( #17 ) );
#213 = EDGE_LOOP ( 'NONE', ( #46, #185 ) ) ;
#214 = UNCERTAINTY_MEASURE_WITH_UNIT (LENGTH_MEASURE( 1.000000000000000082E-05 ), #1, 'distance_accuracy_value', 'NONE');
#215 =( NAMED_UNIT ( * ) PLANE_ANGLE_UNIT ( ) SI_UNIT ( $, .RADIAN. ) );
#216 = FILL_AREA_STYLE_COLOUR ( '', #190 ) ;
#217 = CARTESIAN_POINT ( 'NONE',  ( -0.2500000000000001110, 3.000000000000000444, 0.000000000000000000 ) ) ;
#218 = AXIS2_PLACEMENT_3D ( 'NONE', #296, #227, #107 ) ;
#219 = CARTESIAN_POINT ( 'NONE',  ( 0.000000000000000000, 0.000000000000000000, 0.000000000000000000 ) ) ;
#220 = APPLICATION_PROTOCOL_DEFINITION ( 'draft international standard', 'automotive_design', 1998, #12 ) ;
#221 = CARTESIAN_POINT ( 'NONE',  ( 0.000000000000000000, 0.000000000000000000, -0.2500000000000000000 ) ) ;
#222 =( NAMED_UNIT ( * ) SI_UNIT ( $, .STERADIAN. ) SOLID_ANGLE_UNIT ( ) );
#223 = PLANE ( 'NONE',  #160 ) ;
#224 = LINE ( 'NONE', #157, #18 ) ;
#225 = DIMENSIONAL_EXPONENTS ( 1.000000000000000000, 0.000000000000000000, 0.000000000000000000, 0.000000000000000000, 0.000000000000000000, 0.000000000000000000, 0.000000000000000000 ) ;
#226 = DIRECTION ( 'NONE',  ( 0.000000000000000000, 1.000000000000000000, 0.000000000000000000 ) ) ;
#227 = DIRECTION ( 'NONE',  ( -3.498990854706726443E-17, 1.000000000000000000, -0.000000000000000000 ) ) ;
#228 = CARTESIAN_POINT ( 'NONE',  ( 0.000000000000000000, 0.000000000000000000, 0.000000000000000000 ) ) ;
#229 = AXIS2_PLACEMENT_3D ( 'NONE', #245, #77, #36 ) ;
#230 = UNCERTAINTY_MEASURE_WITH_UNIT (LENGTH_MEASURE( 1.000000000000000082E-05 ), #172, 'distance_accuracy_value', 'NONE');
#231 = PRESENTATION_STYLE_ASSIGNMENT (( #140 ) ) ;
#232 = VERTEX_POINT ( 'NONE', #178 ) ;
#233 = DIRECTION ( 'NONE',  ( 0.000000000000000000, -1.000000000000000000, -0.000000000000000000 ) ) ;
#234 = ORIENTED_EDGE ( 'NONE', *, *, #289, .F. ) ;
#235 = VERTEX_POINT ( 'NONE', #250 ) ;
#236 = MECHANICAL_DESIGN_GEOMETRIC_PRESENTATION_REPRESENTATION (  '', ( #294 ), #270 ) ;
#237 = EDGE_CURVE ( 'NONE', #114, #161, #81, .T. ) ;
#238 = ORIENTED_EDGE ( 'NONE', *, *, #40, .F. ) ;
#239 = CARTESIAN_POINT ( 'NONE',  ( 0.000000000000000000, 0.000000000000000000, 0.000000000000000000 ) ) ;
#240 = LINE ( 'NONE', #217, #92 ) ;
#241 = EDGE_CURVE ( 'NONE', #258, #161, #298, .T. ) ;
#242 = CIRCLE ( 'NONE', #119, 0.2500000000000000000 ) ;
#243 = PRODUCT_CONTEXT ( 'NONE', #12, 'mechanical' ) ;
#244 =( NAMED_UNIT ( * ) PLANE_ANGLE_UNIT ( ) SI_UNIT ( $, .RADIAN. ) );
#245 = CARTESIAN_POINT ( 'NONE',  ( 1.530367125165163595E-34, 1.250000000000000000, 0.000000000000000000 ) ) ;
#246 =( LENGTH_UNIT ( ) NAMED_UNIT ( * ) SI_UNIT ( $, .METRE. ) );
#247 = EDGE_CURVE ( 'NONE', #209, #114, #204, .T. ) ;
#248 = AXIS2_PLACEMENT_3D ( 'NONE', #75, #31, #52 ) ;
#249 = FACE_OUTER_BOUND ( 'NONE', #213, .T. ) ;
#250 = CARTESIAN_POINT ( 'NONE',  ( -0.2500000000000001110, 3.000000000000000444, 0.000000000000000000 ) ) ;
#251 = AXIS2_PLACEMENT_3D ( 'NONE', #179, #269, #38 ) ;
#252 = ORIENTED_EDGE ( 'NONE', *, *, #40, .T. ) ;
#253 = DIRECTION ( 'NONE',  ( 0.000000000000000000, 0.000000000000000000, -1.000000000000000000 ) ) ;
#254 = ORIENTED_EDGE ( 'NONE', *, *, #149, .F. ) ;
#255 = EDGE_CURVE ( 'NONE', #232, #235, #86, .T. ) ;
#256 = DIRECTION ( 'NONE',  ( 0.000000000000000000, 0.000000000000000000, -1.000000000000000000 ) ) ;
#257 = STYLED_ITEM ( 'NONE', ( #124 ), #62 ) ;
#258 = VERTEX_POINT ( 'NONE', #87 ) ;
#259 = SHAPE_DEFINITION_REPRESENTATION ( #110, #293 ) ;
#260 = CARTESIAN_POINT ( 'NONE',  ( 0.2500000000000000000, 3.000000000000000444, 0.000000000000000000 ) ) ;
#261 = DIRECTION ( 'NONE',  ( -0.000000000000000000, -1.000000000000000000, -0.000000000000000000 ) ) ;
#262 = AXIS2_PLACEMENT_3D ( 'NONE', #228, #27, #253 ) ;
#263 =( CONVERSION_BASED_UNIT ( 'INCH', #33 ) LENGTH_UNIT ( ) NAMED_UNIT ( #84 ) );
#264 = PRODUCT ( '05487', '05487', '', ( #243 ) ) ;
#265 = FILL_AREA_STYLE_COLOUR ( '', #170 ) ;
#266 = ADVANCED_FACE ( 'NONE', ( #42 ), #223, .T. ) ;
#267 = SURFACE_STYLE_USAGE ( .BOTH. , #57 ) ;
#268 = PLANE ( 'NONE',  #102 ) ;
#269 = DIRECTION ( 'NONE',  ( -0.000000000000000000, -1.000000000000000000, -0.000000000000000000 ) ) ;
#270 =( GEOMETRIC_REPRESENTATION_CONTEXT ( 3 ) GLOBAL_UNCERTAINTY_ASSIGNED_CONTEXT ( ( #287 ) ) GLOBAL_UNIT_ASSIGNED_CONTEXT ( ( #212, #215, #137 ) ) REPRESENTATION_CONTEXT ( 'NONE', 'WORKASPACE' ) );
#271 = DIRECTION ( 'NONE',  ( -3.498990854706726443E-17, 1.000000000000000000, -0.000000000000000000 ) ) ;
#272 = ADVANCED_FACE ( 'NONE', ( #113 ), #43, .T. ) ;
#273 = PRODUCT_DEFINITION_CONTEXT ( 'detailed design', #106, 'design' ) ;
#274 = ORIENTED_EDGE ( 'NONE', *, *, #306, .F. ) ;
#275 = DIRECTION ( 'NONE',  ( -3.498990854706726443E-17, 1.000000000000000000, -0.000000000000000000 ) ) ;
#276 = EDGE_LOOP ( 'NONE', ( #303, #184, #254, #208 ) ) ;
#277 = PRESENTATION_LAYER_ASSIGNMENT (  '', '', ( #281 ) ) ;
#278 = SURFACE_SIDE_STYLE ('',( #135 ) ) ;
#279 = SURFACE_STYLE_USAGE ( .BOTH. , #278 ) ;
#280 = DIRECTION ( 'NONE',  ( -0.000000000000000000, -1.000000000000000000, -0.000000000000000000 ) ) ;
#281 = STYLED_ITEM ( 'NONE', ( #231 ), #272 ) ;
#282 =( NAMED_UNIT ( * ) PLANE_ANGLE_UNIT ( ) SI_UNIT ( $, .RADIAN. ) );
#283 = CARTESIAN_POINT ( 'NONE',  ( 0.2500000000000000000, 1.250000000000000000, 3.061616997868383634E-17 ) ) ;
#284 =( NAMED_UNIT ( * ) SI_UNIT ( $, .STERADIAN. ) SOLID_ANGLE_UNIT ( ) );
#285 = FILL_AREA_STYLE ('',( #265 ) ) ;
#286 =( GEOMETRIC_REPRESENTATION_CONTEXT ( 3 ) GLOBAL_UNCERTAINTY_ASSIGNED_CONTEXT ( ( #96 ) ) GLOBAL_UNIT_ASSIGNED_CONTEXT ( ( #116, #282, #284 ) ) REPRESENTATION_CONTEXT ( 'NONE', 'WORKASPACE' ) );
#287 = UNCERTAINTY_MEASURE_WITH_UNIT (LENGTH_MEASURE( 1.000000000000000082E-05 ), #212, 'distance_accuracy_value', 'NONE');
#288 = CARTESIAN_POINT ( 'NONE',  ( -0.2500000000000000000, 1.250000000000000000, 0.000000000000000000 ) ) ;
#289 = EDGE_CURVE ( 'NONE', #91, #189, #125, .T. ) ;
#290 =( NAMED_UNIT ( * ) SI_UNIT ( $, .STERADIAN. ) SOLID_ANGLE_UNIT ( ) );
#291 = CYLINDRICAL_SURFACE ( 'NONE', #8, 0.2500000000000000555 ) ;
#292 = CIRCLE ( 'NONE', #164, 0.2500000000000000000 ) ;
#293 = ADVANCED_BREP_SHAPE_REPRESENTATION ( '05487', ( #166, #62, #139 ), #146 ) ;
#294 = STYLED_ITEM ( 'NONE', ( #128 ), #266 ) ;
#295 = ADVANCED_FACE ( 'NONE', ( #21 ), #187, .T. ) ;
#296 = CARTESIAN_POINT ( 'NONE',  ( -6.123233995736772199E-17, 3.000000000000000444, 0.000000000000000000 ) ) ;
#297 = FACE_OUTER_BOUND ( 'NONE', #143, .T. ) ;
#298 = LINE ( 'NONE', #56, #199 ) ;
#299 = AXIS2_PLACEMENT_3D ( 'NONE', #148, #50, #7 ) ;
#300 = CIRCLE ( 'NONE', #248, 0.2500000000000000000 ) ;
#301 = FILL_AREA_STYLE_COLOUR ( '', #155 ) ;
#302 = FILL_AREA_STYLE ('',( #165 ) ) ;
#303 = ORIENTED_EDGE ( 'NONE', *, *, #10, .T. ) ;
#304 = CIRCLE ( 'NONE', #210, 0.2500000000000000000 ) ;
#305 = LENGTH_MEASURE_WITH_UNIT ( LENGTH_MEASURE( 0.02539999999999999897 ), #97 );
#306 = EDGE_CURVE ( 'NONE', #189, #91, #300, .T. ) ;
#307 = ORIENTED_EDGE ( 'NONE', *, *, #289, .T. ) ;
#308 = COLOUR_RGB ( '',1.000000000000000000, 0.000000000000000000, 0.000000000000000000 ) ;
#309 = EDGE_LOOP ( 'NONE', ( #89, #22 ) ) ;
ENDSEC;
END-ISO-10303-21;
