ISO-10303-21;
HEADER;
FILE_DESCRIPTION (( 'STEP AP214' ),
    '1' );
FILE_NAME ('Micro_SEM-125-04X.STEP',
    '2021-09-02T01:33:57',
    ( '' ),
    ( '' ),
    'SwSTEP 2.0',
    'SolidWorks 2020',
    '' );
FILE_SCHEMA (( 'AUTOMOTIVE_DESIGN' ));
ENDSEC;

DATA;
#1 = ORIENTED_EDGE ( 'NONE', *, *, #34, .T. ) ;
#2 = VERTEX_POINT ( 'NONE', #288 ) ;
#3 = FACE_OUTER_BOUND ( 'NONE', #195, .T. ) ;
#4 = ORIENTED_EDGE ( 'NONE', *, *, #119, .F. ) ;
#5 = CARTESIAN_POINT ( 'NONE',  ( 0.06243750000000004852, 0.0000000000000000000, 0.2500000000000000000 ) ) ;
#6 = ORIENTED_EDGE ( 'NONE', *, *, #266, .T. ) ;
#7 = EDGE_CURVE ( 'NONE', #269, #231, #265, .T. ) ;
#8 = CARTESIAN_POINT ( 'NONE',  ( 0.06250000000000000000, 7.654042494670956004E-18, 1.485000000000000764 ) ) ;
#9 = DIRECTION ( 'NONE',  ( -0.7071067811865456854, 0.0000000000000000000, -0.7071067811865493491 ) ) ;
#10 = DIMENSIONAL_EXPONENTS ( 1.000000000000000000, 0.0000000000000000000, 0.0000000000000000000, 0.0000000000000000000, 0.0000000000000000000, 0.0000000000000000000, 0.0000000000000000000 ) ;
#11 = LINE ( 'NONE', #275, #169 ) ;
#12 = ORIENTED_EDGE ( 'NONE', *, *, #273, .F. ) ;
#13 = CARTESIAN_POINT ( 'NONE',  ( 0.0000000000000000000, 0.0000000000000000000, 1.500000000000000222 ) ) ;
#14 = CARTESIAN_POINT ( 'NONE',  ( -0.06249999999999996531, 0.0000000000000000000, 0.2503544551137260044 ) ) ;
#15 = DIRECTION ( 'NONE',  ( -1.224646799147353454E-16, -0.0000000000000000000, -1.000000000000000000 ) ) ;
#16 = AXIS2_PLACEMENT_3D ( 'NONE', #132, #214, #268 ) ;
#17 = VECTOR ( 'NONE', #9, 39.37007874015748143 ) ;
#18 = SURFACE_STYLE_FILL_AREA ( #85 ) ;
#19 = CYLINDRICAL_SURFACE ( 'NONE', #64, 0.06250000000000000000 ) ;
#20 =( CONVERSION_BASED_UNIT ( 'INCH', #211 ) LENGTH_UNIT ( ) NAMED_UNIT ( #88 ) );
#21 = ORIENTED_EDGE ( 'NONE', *, *, #233, .F. ) ;
#22 = CYLINDRICAL_SURFACE ( 'NONE', #25, 0.06243750000000001382 ) ;
#23 = ORIENTED_EDGE ( 'NONE', *, *, #172, .T. ) ;
#24 = EDGE_CURVE ( 'NONE', #105, #27, #81, .T. ) ;
#25 = AXIS2_PLACEMENT_3D ( 'NONE', #160, #285, #171 ) ;
#26 = DIRECTION ( 'NONE',  ( 1.224646799147353454E-16, 0.0000000000000000000, 1.000000000000000000 ) ) ;
#27 = VERTEX_POINT ( 'NONE', #8 ) ;
#28 = EDGE_CURVE ( 'NONE', #287, #27, #236, .T. ) ;
#29 = ORIENTED_EDGE ( 'NONE', *, *, #189, .T. ) ;
#30 = DIRECTION ( 'NONE',  ( -1.000000000000000000, 0.0000000000000000000, 0.0000000000000000000 ) ) ;
#31 =( CONVERSION_BASED_UNIT ( 'INCH', #179 ) LENGTH_UNIT ( ) NAMED_UNIT ( #10 ) );
#32 = CARTESIAN_POINT ( 'NONE',  ( 9.364125142994977476E-34, 0.0000000000000000000, 7.646388452176288915E-18 ) ) ;
#33 = DIRECTION ( 'NONE',  ( -0.0000000000000000000, -0.0000000000000000000, -1.000000000000000000 ) ) ;
#34 = EDGE_CURVE ( 'NONE', #27, #217, #286, .T. ) ;
#35 = DIRECTION ( 'NONE',  ( 1.000000000000000000, 0.0000000000000000000, -0.0000000000000000000 ) ) ;
#36 = AXIS2_PLACEMENT_3D ( 'NONE', #183, #15, #270 ) ;
#37 = VERTEX_POINT ( 'NONE', #5 ) ;
#38 = FACE_OUTER_BOUND ( 'NONE', #237, .T. ) ;
#39 = DIRECTION ( 'NONE',  ( -1.224646799147353454E-16, -0.0000000000000000000, -1.000000000000000000 ) ) ;
#40 = CARTESIAN_POINT ( 'NONE',  ( -0.06250000000000000000, 0.0000000000000000000, 1.485000000000000764 ) ) ;
#41 = EDGE_CURVE ( 'NONE', #217, #231, #267, .T. ) ;
#42 = STYLED_ITEM ( 'NONE', ( #245 ), #95 ) ;
#43 = PRODUCT_RELATED_PRODUCT_CATEGORY ( 'part', '', ( #290 ) ) ;
#44 = ORIENTED_EDGE ( 'NONE', *, *, #134, .T. ) ;
#45 = MECHANICAL_DESIGN_GEOMETRIC_PRESENTATION_REPRESENTATION (  '', ( #222 ), #257 ) ;
#46 = ORIENTED_EDGE ( 'NONE', *, *, #7, .F. ) ;
#47 = VERTEX_POINT ( 'NONE', #61 ) ;
#48 = PRODUCT_DEFINITION_SHAPE ( 'NONE', 'NONE',  #82 ) ;
#49 = COLOUR_RGB ( '',0.7921568627450980005, 0.8196078431372548767, 0.9333333333333333481 ) ;
#50 = DIRECTION ( 'NONE',  ( -0.0000000000000000000, -0.0000000000000000000, -1.000000000000000000 ) ) ;
#51 = CARTESIAN_POINT ( 'NONE',  ( 0.04750000000000064587, 5.817072295950006528E-18, 1.500000000000000222 ) ) ;
#52 = ORIENTED_EDGE ( 'NONE', *, *, #41, .F. ) ;
#53 = CARTESIAN_POINT ( 'NONE',  ( -0.06243749999999997913, 7.646388452176288915E-18, 0.2500000000000000000 ) ) ;
#54 = ADVANCED_FACE ( 'NONE', ( #241 ), #191, .T. ) ;
#55 = DIRECTION ( 'NONE',  ( 0.0000000000000000000, 0.0000000000000000000, -1.000000000000000000 ) ) ;
#56 = DIRECTION ( 'NONE',  ( 0.7071067811865456854, 8.659560562354911904E-17, -0.7071067811865493491 ) ) ;
#57 = CIRCLE ( 'NONE', #101, 0.04750000000000064587 ) ;
#58 = AXIS2_PLACEMENT_3D ( 'NONE', #73, #50, #220 ) ;
#59 = DIMENSIONAL_EXPONENTS ( 1.000000000000000000, 0.0000000000000000000, 0.0000000000000000000, 0.0000000000000000000, 0.0000000000000000000, 0.0000000000000000000, 0.0000000000000000000 ) ;
#60 = DIRECTION ( 'NONE',  ( 1.000000000000000000, 0.0000000000000000000, 0.0000000000000000000 ) ) ;
#61 = CARTESIAN_POINT ( 'NONE',  ( -0.04750000000000064587, 0.0000000000000000000, 1.500000000000000222 ) ) ;
#62 = CARTESIAN_POINT ( 'NONE',  ( 0.0000000000000000000, 0.0000000000000000000, 0.0000000000000000000 ) ) ;
#63 = DIRECTION ( 'NONE',  ( -0.0000000000000000000, -0.0000000000000000000, -1.000000000000000000 ) ) ;
#64 = AXIS2_PLACEMENT_3D ( 'NONE', #208, #63, #161 ) ;
#65 = DIRECTION ( 'NONE',  ( -1.000000000000000000, 0.0000000000000000000, 0.0000000000000000000 ) ) ;
#66 = DIRECTION ( 'NONE',  ( -1.224646799147353454E-16, -0.0000000000000000000, -1.000000000000000000 ) ) ;
#67 = VECTOR ( 'NONE', #56, 39.37007874015748143 ) ;
#68 = AXIS2_PLACEMENT_3D ( 'NONE', #32, #109, #201 ) ;
#69 = EDGE_CURVE ( 'NONE', #2, #213, #115, .T. ) ;
#70 = VECTOR ( 'NONE', #33, 39.37007874015748143 ) ;
#71 = AXIS2_PLACEMENT_3D ( 'NONE', #225, #163, #92 ) ;
#72 = APPLICATION_PROTOCOL_DEFINITION ( 'draft international standard', 'automotive_design', 1998, #102 ) ;
#73 = CARTESIAN_POINT ( 'NONE',  ( 0.0000000000000000000, 0.0000000000000000000, 1.500000000000000222 ) ) ;
#74 = FILL_AREA_STYLE_COLOUR ( '', #145 ) ;
#75 = ORIENTED_EDGE ( 'NONE', *, *, #24, .T. ) ;
#76 = CIRCLE ( 'NONE', #251, 0.06250000000000000000 ) ;
#77 = ORIENTED_EDGE ( 'NONE', *, *, #34, .F. ) ;
#78 = ORIENTED_EDGE ( 'NONE', *, *, #7, .T. ) ;
#79 = VECTOR ( 'NONE', #263, 39.37007874015747433 ) ;
#80 = FACE_OUTER_BOUND ( 'NONE', #180, .T. ) ;
#81 = LINE ( 'NONE', #51, #67 ) ;
#82 = PRODUCT_DEFINITION ( 'UNKNOWN', '', #133, #123 ) ;
#83 = CIRCLE ( 'NONE', #108, 0.04750000000000064587 ) ;
#84 =( NAMED_UNIT ( * ) SI_UNIT ( $, .STERADIAN. ) SOLID_ANGLE_UNIT ( ) );
#85 = FILL_AREA_STYLE ('',( #186 ) ) ;
#86 = FACE_OUTER_BOUND ( 'NONE', #234, .T. ) ;
#87 = DIRECTION ( 'NONE',  ( 1.000000000000000000, 0.0000000000000000000, 0.0000000000000000000 ) ) ;
#88 = DIMENSIONAL_EXPONENTS ( 1.000000000000000000, 0.0000000000000000000, 0.0000000000000000000, 0.0000000000000000000, 0.0000000000000000000, 0.0000000000000000000, 0.0000000000000000000 ) ;
#89 = CARTESIAN_POINT ( 'NONE',  ( 0.06250000000000002776, 7.654042494670959086E-18, 0.2503544551137260044 ) ) ;
#90 = UNCERTAINTY_MEASURE_WITH_UNIT (LENGTH_MEASURE( 1.000000000000000082E-05 ), #155, 'distance_accuracy_value', 'NONE');
#91 = PRESENTATION_STYLE_ASSIGNMENT (( #296 ) ) ;
#92 = DIRECTION ( 'NONE',  ( 1.000000000000000000, 0.0000000000000000000, -0.0000000000000000000 ) ) ;
#93 = DIRECTION ( 'NONE',  ( 1.000000000000000000, 0.0000000000000000000, 0.0000000000000000000 ) ) ;
#94 =( NAMED_UNIT ( * ) PLANE_ANGLE_UNIT ( ) SI_UNIT ( $, .RADIAN. ) );
#95 = MANIFOLD_SOLID_BREP ( 'Cut-Revolve1', #181 ) ;
#96 = AXIS2_PLACEMENT_3D ( 'NONE', #106, #170, #199 ) ;
#97 = CIRCLE ( 'NONE', #36, 0.06243750000000001382 ) ;
#98 = EDGE_CURVE ( 'NONE', #27, #287, #216, .T. ) ;
#99 = EDGE_LOOP ( 'NONE', ( #100, #29 ) ) ;
#100 = ORIENTED_EDGE ( 'NONE', *, *, #252, .T. ) ;
#101 = AXIS2_PLACEMENT_3D ( 'NONE', #137, #185, #93 ) ;
#102 = APPLICATION_CONTEXT ( 'automotive_design' ) ;
#103 = CARTESIAN_POINT ( 'NONE',  ( 0.0000000000000000000, 0.0000000000000000000, 1.485000000000000764 ) ) ;
#104 = ORIENTED_EDGE ( 'NONE', *, *, #98, .T. ) ;
#105 = VERTEX_POINT ( 'NONE', #230 ) ;
#106 = CARTESIAN_POINT ( 'NONE',  ( 9.364125142994977476E-34, 0.0000000000000000000, 7.646388452176288915E-18 ) ) ;
#107 = AXIS2_PLACEMENT_3D ( 'NONE', #243, #138, #60 ) ;
#108 = AXIS2_PLACEMENT_3D ( 'NONE', #294, #205, #87 ) ;
#109 = DIRECTION ( 'NONE',  ( -1.224646799147353454E-16, -0.0000000000000000000, -1.000000000000000000 ) ) ;
#110 = LENGTH_MEASURE_WITH_UNIT ( LENGTH_MEASURE( 0.02539999999999999897 ), #202 );
#111 = EDGE_LOOP ( 'NONE', ( #77, #104, #127, #52 ) ) ;
#112 = ADVANCED_FACE ( 'NONE', ( #204 ), #22, .T. ) ;
#113 = DIRECTION ( 'NONE',  ( 1.224646799147353454E-16, 0.0000000000000000000, 1.000000000000000000 ) ) ;
#114 = CARTESIAN_POINT ( 'NONE',  ( 3.061616997868383634E-17, 0.0000000000000000000, 0.2500000000000000000 ) ) ;
#115 = CIRCLE ( 'NONE', #96, 0.06243749999999999994 ) ;
#116 = MECHANICAL_DESIGN_GEOMETRIC_PRESENTATION_REPRESENTATION (  '', ( #42 ), #157 ) ;
#117 = DIRECTION ( 'NONE',  ( 1.000000000000000000, 0.0000000000000000000, 0.0000000000000000000 ) ) ;
#118 = EDGE_CURVE ( 'NONE', #37, #2, #158, .T. ) ;
#119 = EDGE_CURVE ( 'NONE', #287, #231, #174, .T. ) ;
#120 = AXIS2_PLACEMENT_3D ( 'NONE', #13, #250, #65 ) ;
#121 = PRODUCT_CONTEXT ( 'NONE', #130, 'mechanical' ) ;
#122 = ADVANCED_FACE ( 'NONE', ( #80 ), #299, .T. ) ;
#123 = PRODUCT_DEFINITION_CONTEXT ( 'detailed design', #102, 'design' ) ;
#124 = EDGE_CURVE ( 'NONE', #47, #287, #244, .T. ) ;
#125 = UNCERTAINTY_MEASURE_WITH_UNIT (LENGTH_MEASURE( 1.000000000000000082E-05 ), #31, 'distance_accuracy_value', 'NONE');
#126 =( GEOMETRIC_REPRESENTATION_CONTEXT ( 3 ) GLOBAL_UNCERTAINTY_ASSIGNED_CONTEXT ( ( #167 ) ) GLOBAL_UNIT_ASSIGNED_CONTEXT ( ( #20, #254, #279 ) ) REPRESENTATION_CONTEXT ( 'NONE', 'WORKASPACE' ) );
#127 = ORIENTED_EDGE ( 'NONE', *, *, #119, .T. ) ;
#128 = ORIENTED_EDGE ( 'NONE', *, *, #273, .T. ) ;
#129 = ADVANCED_FACE ( 'NONE', ( #3 ), #283, .T. ) ;
#130 = APPLICATION_CONTEXT ( 'automotive_design' ) ;
#131 = DIRECTION ( 'NONE',  ( 1.000000000000000000, 0.0000000000000000000, 0.0000000000000000000 ) ) ;
#132 = CARTESIAN_POINT ( 'NONE',  ( 0.0000000000000000000, 0.0000000000000000000, 1.485000000000000764 ) ) ;
#133 = PRODUCT_DEFINITION_FORMATION_WITH_SPECIFIED_SOURCE ( 'ANY', '', #290, .NOT_KNOWN. ) ;
#134 = EDGE_CURVE ( 'NONE', #213, #2, #247, .T. ) ;
#135 = EDGE_LOOP ( 'NONE', ( #128, #151, #284, #235 ) ) ;
#136 =( NAMED_UNIT ( * ) PLANE_ANGLE_UNIT ( ) SI_UNIT ( $, .RADIAN. ) );
#137 = CARTESIAN_POINT ( 'NONE',  ( 0.0000000000000000000, 0.0000000000000000000, 1.500000000000000222 ) ) ;
#138 = DIRECTION ( 'NONE',  ( -1.224646799147353454E-16, -0.0000000000000000000, -1.000000000000000000 ) ) ;
#139 = FACE_OUTER_BOUND ( 'NONE', #260, .T. ) ;
#140 = ORIENTED_EDGE ( 'NONE', *, *, #24, .F. ) ;
#141 = PLANE ( 'NONE',  #178 ) ;
#142 = EDGE_LOOP ( 'NONE', ( #46, #21, #23, #193 ) ) ;
#143 = ORIENTED_EDGE ( 'NONE', *, *, #124, .F. ) ;
#144 = DIRECTION ( 'NONE',  ( 1.000000000000000000, 0.0000000000000000000, 0.0000000000000000000 ) ) ;
#145 = COLOUR_RGB ( '',0.7921568627450980005, 0.8196078431372548767, 0.9333333333333333481 ) ;
#146 = VECTOR ( 'NONE', #293, 39.37007874015748143 ) ;
#147 = FACE_OUTER_BOUND ( 'NONE', #111, .T. ) ;
#148 = EDGE_CURVE ( 'NONE', #269, #213, #11, .T. ) ;
#149 = ADVANCED_FACE ( 'NONE', ( #187 ), #223, .T. ) ;
#150 = ORIENTED_EDGE ( 'NONE', *, *, #233, .T. ) ;
#151 = ORIENTED_EDGE ( 'NONE', *, *, #118, .T. ) ;
#152 = ADVANCED_FACE ( 'NONE', ( #38 ), #141, .F. ) ;
#153 = SURFACE_STYLE_FILL_AREA ( #291 ) ;
#154 = CARTESIAN_POINT ( 'NONE',  ( -0.06250000000000000000, 0.0000000000000000000, 1.500000000000000222 ) ) ;
#155 =( CONVERSION_BASED_UNIT ( 'INCH', #110 ) LENGTH_UNIT ( ) NAMED_UNIT ( #59 ) );
#156 = ADVANCED_FACE ( 'NONE', ( #139 ), #295, .T. ) ;
#157 =( GEOMETRIC_REPRESENTATION_CONTEXT ( 3 ) GLOBAL_UNCERTAINTY_ASSIGNED_CONTEXT ( ( #90 ) ) GLOBAL_UNIT_ASSIGNED_CONTEXT ( ( #155, #136, #84 ) ) REPRESENTATION_CONTEXT ( 'NONE', 'WORKASPACE' ) );
#158 = LINE ( 'NONE', #197, #209 ) ;
#159 = SURFACE_SIDE_STYLE ('',( #153 ) ) ;
#160 = CARTESIAN_POINT ( 'NONE',  ( 0.0000000000000000000, 0.0000000000000000000, 0.0000000000000000000 ) ) ;
#161 = DIRECTION ( 'NONE',  ( -1.000000000000000000, 0.0000000000000000000, 0.0000000000000000000 ) ) ;
#162 = LINE ( 'NONE', #207, #146 ) ;
#163 = DIRECTION ( 'NONE',  ( 0.0000000000000000000, 0.0000000000000000000, 1.000000000000000000 ) ) ;
#164 = CONICAL_SURFACE ( 'NONE', #120, 0.04750000000000064587, 0.7853981633974457255 ) ;
#165 = CARTESIAN_POINT ( 'NONE',  ( 0.0000000000000000000, 0.0000000000000000000, 0.0000000000000000000 ) ) ;
#166 = ADVANCED_FACE ( 'NONE', ( #276 ), #164, .T. ) ;
#167 = UNCERTAINTY_MEASURE_WITH_UNIT (LENGTH_MEASURE( 1.000000000000000082E-05 ), #20, 'distance_accuracy_value', 'NONE');
#168 = ORIENTED_EDGE ( 'NONE', *, *, #252, .F. ) ;
#169 = VECTOR ( 'NONE', #66, 39.37007874015748143 ) ;
#170 = DIRECTION ( 'NONE',  ( -1.224646799147353454E-16, -0.0000000000000000000, -1.000000000000000000 ) ) ;
#171 = DIRECTION ( 'NONE',  ( -1.000000000000000000, 0.0000000000000000000, 1.224646799147353207E-16 ) ) ;
#172 = EDGE_CURVE ( 'NONE', #37, #217, #162, .T. ) ;
#173 = ORIENTED_EDGE ( 'NONE', *, *, #189, .F. ) ;
#174 = LINE ( 'NONE', #154, #232 ) ;
#175 = CARTESIAN_POINT ( 'NONE',  ( 0.06250000000000000000, 7.654042494670956004E-18, 1.500000000000000222 ) ) ;
#176 = ORIENTED_EDGE ( 'NONE', *, *, #28, .T. ) ;
#177 = ORIENTED_EDGE ( 'NONE', *, *, #69, .T. ) ;
#178 = AXIS2_PLACEMENT_3D ( 'NONE', #165, #246, #35 ) ;
#179 = LENGTH_MEASURE_WITH_UNIT ( LENGTH_MEASURE( 0.02539999999999999897 ), #228 );
#180 = EDGE_LOOP ( 'NONE', ( #173, #75, #215, #143 ) ) ;
#181 = CLOSED_SHELL ( 'NONE', ( #112, #192, #122, #129, #292, #149, #166, #54, #156, #152 ) ) ;
#182 = CARTESIAN_POINT ( 'NONE',  ( -0.06243749999999997913, 7.650215473423623230E-18, 0.2500000000000000000 ) ) ;
#183 = CARTESIAN_POINT ( 'NONE',  ( 3.061616997868383634E-17, 0.0000000000000000000, 0.2500000000000000000 ) ) ;
#184 = AXIS2_PLACEMENT_3D ( 'NONE', #255, #210, #253 ) ;
#185 = DIRECTION ( 'NONE',  ( 0.0000000000000000000, 0.0000000000000000000, 1.000000000000000000 ) ) ;
#186 = FILL_AREA_STYLE_COLOUR ( '', #49 ) ;
#187 = FACE_OUTER_BOUND ( 'NONE', #99, .T. ) ;
#188 = CONICAL_SURFACE ( 'NONE', #242, 0.06243750000000001382, 0.1745329251994338637 ) ;
#189 = EDGE_CURVE ( 'NONE', #105, #47, #57, .T. ) ;
#190 =( NAMED_UNIT ( * ) SI_UNIT ( $, .STERADIAN. ) SOLID_ANGLE_UNIT ( ) );
#191 = CONICAL_SURFACE ( 'NONE', #226, 0.06243750000000001382, 0.1745329251994338637 ) ;
#192 = ADVANCED_FACE ( 'NONE', ( #86 ), #188, .T. ) ;
#193 = ORIENTED_EDGE ( 'NONE', *, *, #41, .T. ) ;
#194 = ORIENTED_EDGE ( 'NONE', *, *, #266, .F. ) ;
#195 = EDGE_LOOP ( 'NONE', ( #176, #1, #194, #4 ) ) ;
#196 = ORIENTED_EDGE ( 'NONE', *, *, #69, .F. ) ;
#197 = CARTESIAN_POINT ( 'NONE',  ( 0.06243750000000001382, 7.646388452176288915E-18, -7.646388452176288915E-18 ) ) ;
#198 = DIRECTION ( 'NONE',  ( 1.000000000000000000, 0.0000000000000000000, 0.0000000000000000000 ) ) ;
#199 = DIRECTION ( 'NONE',  ( -1.000000000000000000, 0.0000000000000000000, 1.224646799147353700E-16 ) ) ;
#200 = AXIS2_PLACEMENT_3D ( 'NONE', #240, #55, #30 ) ;
#201 = DIRECTION ( 'NONE',  ( -1.000000000000000000, 0.0000000000000000000, 1.224646799147353700E-16 ) ) ;
#202 =( LENGTH_UNIT ( ) NAMED_UNIT ( * ) SI_UNIT ( $, .METRE. ) );
#203 = DIRECTION ( 'NONE',  ( -1.000000000000000000, 0.0000000000000000000, 0.0000000000000000000 ) ) ;
#204 = FACE_OUTER_BOUND ( 'NONE', #135, .T. ) ;
#205 = DIRECTION ( 'NONE',  ( 0.0000000000000000000, 0.0000000000000000000, 1.000000000000000000 ) ) ;
#206 = SURFACE_SIDE_STYLE ('',( #18 ) ) ;
#207 = CARTESIAN_POINT ( 'NONE',  ( 0.06243750000000004852, 0.0000000000000000000, 0.2500000000000000000 ) ) ;
#208 = CARTESIAN_POINT ( 'NONE',  ( 0.0000000000000000000, 0.0000000000000000000, 1.500000000000000222 ) ) ;
#209 = VECTOR ( 'NONE', #262, 39.37007874015748143 ) ;
#210 = DIRECTION ( 'NONE',  ( 0.0000000000000000000, 0.0000000000000000000, 1.000000000000000000 ) ) ;
#211 = LENGTH_MEASURE_WITH_UNIT ( LENGTH_MEASURE( 0.02539999999999999897 ), #297 );
#212 = AXIS2_PLACEMENT_3D ( 'NONE', #62, #224, #229 ) ;
#213 = VERTEX_POINT ( 'NONE', #248 ) ;
#214 = DIRECTION ( 'NONE',  ( 0.0000000000000000000, 0.0000000000000000000, -1.000000000000000000 ) ) ;
#215 = ORIENTED_EDGE ( 'NONE', *, *, #28, .F. ) ;
#216 = CIRCLE ( 'NONE', #261, 0.06250000000000000000 ) ;
#217 = VERTEX_POINT ( 'NONE', #89 ) ;
#218 = ORIENTED_EDGE ( 'NONE', *, *, #98, .F. ) ;
#219 = CARTESIAN_POINT ( 'NONE',  ( -0.04750000000000064587, 0.0000000000000000000, 1.500000000000000222 ) ) ;
#220 = DIRECTION ( 'NONE',  ( -1.000000000000000000, 0.0000000000000000000, 0.0000000000000000000 ) ) ;
#221 = CARTESIAN_POINT ( 'NONE',  ( 3.061616997868383634E-17, 0.0000000000000000000, 0.2500000000000000000 ) ) ;
#222 = STYLED_ITEM ( 'NONE', ( #91 ), #271 ) ;
#223 = PLANE ( 'NONE',  #71 ) ;
#224 = DIRECTION ( 'NONE',  ( -1.224646799147353454E-16, -0.0000000000000000000, -1.000000000000000000 ) ) ;
#225 = CARTESIAN_POINT ( 'NONE',  ( 0.0000000000000000000, 0.0000000000000000000, 1.500000000000000222 ) ) ;
#226 = AXIS2_PLACEMENT_3D ( 'NONE', #221, #26, #131 ) ;
#227 = CIRCLE ( 'NONE', #280, 0.06243750000000001382 ) ;
#228 =( LENGTH_UNIT ( ) NAMED_UNIT ( * ) SI_UNIT ( $, .METRE. ) );
#229 = DIRECTION ( 'NONE',  ( -1.000000000000000000, 0.0000000000000000000, 1.224646799147353207E-16 ) ) ;
#230 = CARTESIAN_POINT ( 'NONE',  ( 0.04750000000000064587, 6.735557395310482421E-18, 1.500000000000000222 ) ) ;
#231 = VERTEX_POINT ( 'NONE', #14 ) ;
#232 = VECTOR ( 'NONE', #264, 39.37007874015748143 ) ;
#233 = EDGE_CURVE ( 'NONE', #37, #269, #227, .T. ) ;
#234 = EDGE_LOOP ( 'NONE', ( #12, #78, #6, #239 ) ) ;
#235 = ORIENTED_EDGE ( 'NONE', *, *, #148, .F. ) ;
#236 = CIRCLE ( 'NONE', #16, 0.06250000000000000000 ) ;
#237 = EDGE_LOOP ( 'NONE', ( #44, #177 ) ) ;
#238 = SURFACE_STYLE_USAGE ( .BOTH. , #159 ) ;
#239 = ORIENTED_EDGE ( 'NONE', *, *, #172, .F. ) ;
#240 = CARTESIAN_POINT ( 'NONE',  ( 0.0000000000000000000, 0.0000000000000000000, 1.500000000000000222 ) ) ;
#241 = FACE_OUTER_BOUND ( 'NONE', #142, .T. ) ;
#242 = AXIS2_PLACEMENT_3D ( 'NONE', #298, #113, #117 ) ;
#243 = CARTESIAN_POINT ( 'NONE',  ( 3.065957821073043634E-17, 0.0000000000000000000, 0.2503544551137260044 ) ) ;
#244 = LINE ( 'NONE', #219, #17 ) ;
#245 = PRESENTATION_STYLE_ASSIGNMENT (( #238 ) ) ;
#246 = DIRECTION ( 'NONE',  ( 0.0000000000000000000, 0.0000000000000000000, 1.000000000000000000 ) ) ;
#247 = CIRCLE ( 'NONE', #68, 0.06243749999999999994 ) ;
#248 = CARTESIAN_POINT ( 'NONE',  ( -0.06243749999999999994, 0.0000000000000000000, 1.529277690435257783E-17 ) ) ;
#249 = CARTESIAN_POINT ( 'NONE',  ( 3.065957821073043634E-17, 0.0000000000000000000, 0.2503544551137260044 ) ) ;
#250 = DIRECTION ( 'NONE',  ( 0.0000000000000000000, 0.0000000000000000000, -1.000000000000000000 ) ) ;
#251 = AXIS2_PLACEMENT_3D ( 'NONE', #249, #39, #144 ) ;
#252 = EDGE_CURVE ( 'NONE', #47, #105, #83, .T. ) ;
#253 = DIRECTION ( 'NONE',  ( 1.000000000000000000, 0.0000000000000000000, 0.0000000000000000000 ) ) ;
#254 =( NAMED_UNIT ( * ) PLANE_ANGLE_UNIT ( ) SI_UNIT ( $, .RADIAN. ) );
#255 = CARTESIAN_POINT ( 'NONE',  ( 0.0000000000000000000, 0.0000000000000000000, 0.0000000000000000000 ) ) ;
#256 = APPLICATION_PROTOCOL_DEFINITION ( 'draft international standard', 'automotive_design', 1998, #130 ) ;
#257 =( GEOMETRIC_REPRESENTATION_CONTEXT ( 3 ) GLOBAL_UNCERTAINTY_ASSIGNED_CONTEXT ( ( #125 ) ) GLOBAL_UNIT_ASSIGNED_CONTEXT ( ( #31, #94, #190 ) ) REPRESENTATION_CONTEXT ( 'NONE', 'WORKASPACE' ) );
#258 = ORIENTED_EDGE ( 'NONE', *, *, #118, .F. ) ;
#259 = EDGE_LOOP ( 'NONE', ( #140, #168, #281, #218 ) ) ;
#260 = EDGE_LOOP ( 'NONE', ( #258, #150, #282, #196 ) ) ;
#261 = AXIS2_PLACEMENT_3D ( 'NONE', #103, #289, #198 ) ;
#262 = DIRECTION ( 'NONE',  ( -1.224646799147353454E-16, -0.0000000000000000000, -1.000000000000000000 ) ) ;
#263 = DIRECTION ( 'NONE',  ( -0.1736481776669311639, 2.126576849575783008E-17, 0.9848077530122080203 ) ) ;
#264 = DIRECTION ( 'NONE',  ( -0.0000000000000000000, -0.0000000000000000000, -1.000000000000000000 ) ) ;
#265 = LINE ( 'NONE', #53, #79 ) ;
#266 = EDGE_CURVE ( 'NONE', #231, #217, #76, .T. ) ;
#267 = CIRCLE ( 'NONE', #107, 0.06250000000000000000 ) ;
#268 = DIRECTION ( 'NONE',  ( 1.000000000000000000, 0.0000000000000000000, 0.0000000000000000000 ) ) ;
#269 = VERTEX_POINT ( 'NONE', #182 ) ;
#270 = DIRECTION ( 'NONE',  ( -1.000000000000000000, 0.0000000000000000000, 0.0000000000000000000 ) ) ;
#271 = ADVANCED_BREP_SHAPE_REPRESENTATION ( 'Micro_SEM-125-04X', ( #95, #184 ), #126 ) ;
#272 = PRESENTATION_LAYER_ASSIGNMENT (  '', '', ( #222 ) ) ;
#273 = EDGE_CURVE ( 'NONE', #269, #37, #97, .T. ) ;
#274 = DIRECTION ( 'NONE',  ( -1.224646799147353454E-16, -0.0000000000000000000, -1.000000000000000000 ) ) ;
#275 = CARTESIAN_POINT ( 'NONE',  ( -0.06243750000000001382, 0.0000000000000000000, 7.646388452176288915E-18 ) ) ;
#276 = FACE_OUTER_BOUND ( 'NONE', #259, .T. ) ;
#277 = PRESENTATION_LAYER_ASSIGNMENT (  '', '', ( #42 ) ) ;
#278 = SHAPE_DEFINITION_REPRESENTATION ( #48, #271 ) ;
#279 =( NAMED_UNIT ( * ) SI_UNIT ( $, .STERADIAN. ) SOLID_ANGLE_UNIT ( ) );
#280 = AXIS2_PLACEMENT_3D ( 'NONE', #114, #274, #203 ) ;
#281 = ORIENTED_EDGE ( 'NONE', *, *, #124, .T. ) ;
#282 = ORIENTED_EDGE ( 'NONE', *, *, #148, .T. ) ;
#283 = CYLINDRICAL_SURFACE ( 'NONE', #58, 0.06250000000000000000 ) ;
#284 = ORIENTED_EDGE ( 'NONE', *, *, #134, .F. ) ;
#285 = DIRECTION ( 'NONE',  ( -1.224646799147353454E-16, -0.0000000000000000000, -1.000000000000000000 ) ) ;
#286 = LINE ( 'NONE', #175, #70 ) ;
#287 = VERTEX_POINT ( 'NONE', #40 ) ;
#288 = CARTESIAN_POINT ( 'NONE',  ( 0.06243749999999999994, 7.646388452176287375E-18, -9.478001694819074349E-34 ) ) ;
#289 = DIRECTION ( 'NONE',  ( 0.0000000000000000000, 0.0000000000000000000, -1.000000000000000000 ) ) ;
#290 = PRODUCT ( 'Micro_SEM-125-04X', 'Micro_SEM-125-04X', '', ( #121 ) ) ;
#291 = FILL_AREA_STYLE ('',( #74 ) ) ;
#292 = ADVANCED_FACE ( 'NONE', ( #147 ), #19, .T. ) ;
#293 = DIRECTION ( 'NONE',  ( 0.1736481776669313581, 0.0000000000000000000, 0.9848077530122077983 ) ) ;
#294 = CARTESIAN_POINT ( 'NONE',  ( 0.0000000000000000000, 0.0000000000000000000, 1.500000000000000222 ) ) ;
#295 = CYLINDRICAL_SURFACE ( 'NONE', #212, 0.06243750000000001382 ) ;
#296 = SURFACE_STYLE_USAGE ( .BOTH. , #206 ) ;
#297 =( LENGTH_UNIT ( ) NAMED_UNIT ( * ) SI_UNIT ( $, .METRE. ) );
#298 = CARTESIAN_POINT ( 'NONE',  ( 3.061616997868383634E-17, 0.0000000000000000000, 0.2500000000000000000 ) ) ;
#299 = CONICAL_SURFACE ( 'NONE', #200, 0.04750000000000064587, 0.7853981633974457255 ) ;
ENDSEC;
END-ISO-10303-21;
