ISO-10303-21;
HEADER;
FILE_DESCRIPTION (( 'STEP AP214' ),
    '1' );
FILE_NAME ('Micro_SFPM-050-10.STEP',
    '2021-09-02T07:07:51',
    ( '' ),
    ( '' ),
    'SwSTEP 2.0',
    'SolidWorks 2020',
    '' );
FILE_SCHEMA (( 'AUTOMOTIVE_DESIGN' ));
ENDSEC;

DATA;
#1 = ORIENTED_EDGE ( 'NONE', *, *, #160, .T. ) ;
#2 = DIRECTION ( 'NONE',  ( 0.0000000000000000000, 0.0000000000000000000, -1.000000000000000000 ) ) ;
#3 = CARTESIAN_POINT ( 'NONE',  ( 7.714307363656999460E-17, 0.0000000000000000000, 0.6299209999999999532 ) ) ;
#4 = AXIS2_PLACEMENT_3D ( 'NONE', #191, #223, #214 ) ;
#5 = FILL_AREA_STYLE_COLOUR ( '', #100 ) ;
#6 = CARTESIAN_POINT ( 'NONE',  ( 0.08342499999999994365, 1.113510102124730410E-17, 1.968503999999999809 ) ) ;
#7 = DIMENSIONAL_EXPONENTS ( 1.000000000000000000, 0.0000000000000000000, 0.0000000000000000000, 0.0000000000000000000, 0.0000000000000000000, 0.0000000000000000000, 0.0000000000000000000 ) ;
#8 = ORIENTED_EDGE ( 'NONE', *, *, #232, .F. ) ;
#9 = CARTESIAN_POINT ( 'NONE',  ( 0.0000000000000000000, 0.0000000000000000000, 1.968503999999999809 ) ) ;
#10 = EDGE_LOOP ( 'NONE', ( #268, #131, #39, #149 ) ) ;
#11 = VERTEX_POINT ( 'NONE', #6 ) ;
#12 = ADVANCED_FACE ( 'NONE', ( #241 ), #157, .T. ) ;
#13 = CARTESIAN_POINT ( 'NONE',  ( 0.0000000000000000000, 0.0000000000000000000, 1.953503999999999685 ) ) ;
#14 = LENGTH_MEASURE_WITH_UNIT ( LENGTH_MEASURE( 0.02539999999999999897 ), #201 );
#15 = AXIS2_PLACEMENT_3D ( 'NONE', #198, #155, #40 ) ;
#16 = CARTESIAN_POINT ( 'NONE',  ( 7.714307363656999460E-17, 0.0000000000000000000, 0.6299209999999999532 ) ) ;
#17 = PRODUCT_CONTEXT ( 'NONE', #260, 'mechanical' ) ;
#18 = CYLINDRICAL_SURFACE ( 'NONE', #229, 0.09832657500000001327 ) ;
#19 = EDGE_CURVE ( 'NONE', #55, #190, #141, .T. ) ;
#20 = CARTESIAN_POINT ( 'NONE',  ( 0.09832657500000001327, 1.204153253448721666E-17, -1.204153253448721666E-17 ) ) ;
#21 = VECTOR ( 'NONE', #46, 39.37007874015748143 ) ;
#22 = DIRECTION ( 'NONE',  ( -1.224646799147353207E-16, -0.0000000000000000000, -1.000000000000000000 ) ) ;
#23 = STYLED_ITEM ( 'NONE', ( #199 ), #193 ) ;
#24 = EDGE_CURVE ( 'NONE', #190, #31, #263, .T. ) ;
#25 = MECHANICAL_DESIGN_GEOMETRIC_PRESENTATION_REPRESENTATION (  '', ( #73 ), #47 ) ;
#26 = ORIENTED_EDGE ( 'NONE', *, *, #289, .F. ) ;
#27 = VERTEX_POINT ( 'NONE', #30 ) ;
#28 = DIRECTION ( 'NONE',  ( 1.000000000000000000, 0.0000000000000000000, 0.0000000000000000000 ) ) ;
#29 = ADVANCED_FACE ( 'NONE', ( #215 ), #139, .T. ) ;
#30 = CARTESIAN_POINT ( 'NONE',  ( -0.09842499999999991533, 0.0000000000000000000, 0.6304791959130957579 ) ) ;
#31 = VERTEX_POINT ( 'NONE', #117 ) ;
#32 = CARTESIAN_POINT ( 'NONE',  ( 0.0000000000000000000, 0.0000000000000000000, 1.968503999999999809 ) ) ;
#33 = CIRCLE ( 'NONE', #206, 0.09842500000000001248 ) ;
#34 = PLANE ( 'NONE',  #251 ) ;
#35 = ORIENTED_EDGE ( 'NONE', *, *, #48, .F. ) ;
#36 = ADVANCED_FACE ( 'NONE', ( #95 ), #34, .F. ) ;
#37 = ORIENTED_EDGE ( 'NONE', *, *, #59, .T. ) ;
#38 = CARTESIAN_POINT ( 'NONE',  ( -0.08342499999999994365, 0.0000000000000000000, 1.968503999999999809 ) ) ;
#39 = ORIENTED_EDGE ( 'NONE', *, *, #24, .T. ) ;
#40 = DIRECTION ( 'NONE',  ( -1.000000000000000000, 0.0000000000000000000, 0.0000000000000000000 ) ) ;
#41 = CONICAL_SURFACE ( 'NONE', #68, 0.09832657500000001327, 0.1745329251994338360 ) ;
#42 = CIRCLE ( 'NONE', #276, 0.09842500000000001248 ) ;
#43 = CARTESIAN_POINT ( 'NONE',  ( -0.09832657499999993000, 1.204153253448721666E-17, 0.6299209999999999532 ) ) ;
#44 = CARTESIAN_POINT ( 'NONE',  ( 0.08342499999999994365, 1.021661592188678507E-17, 1.968503999999999809 ) ) ;
#45 = DIRECTION ( 'NONE',  ( 1.000000000000000000, 0.0000000000000000000, 0.0000000000000000000 ) ) ;
#46 = DIRECTION ( 'NONE',  ( -0.0000000000000000000, -0.0000000000000000000, -1.000000000000000000 ) ) ;
#47 =( GEOMETRIC_REPRESENTATION_CONTEXT ( 3 ) GLOBAL_UNCERTAINTY_ASSIGNED_CONTEXT ( ( #230 ) ) GLOBAL_UNIT_ASSIGNED_CONTEXT ( ( #237, #168, #98 ) ) REPRESENTATION_CONTEXT ( 'NONE', 'WORKASPACE' ) );
#48 = EDGE_CURVE ( 'NONE', #56, #238, #285, .T. ) ;
#49 = ORIENTED_EDGE ( 'NONE', *, *, #258, .T. ) ;
#50 = SURFACE_STYLE_FILL_AREA ( #101 ) ;
#51 = ORIENTED_EDGE ( 'NONE', *, *, #19, .T. ) ;
#52 = CARTESIAN_POINT ( 'NONE',  ( 0.0000000000000000000, 0.0000000000000000000, 1.968503999999999809 ) ) ;
#53 = ORIENTED_EDGE ( 'NONE', *, *, #194, .T. ) ;
#54 = CARTESIAN_POINT ( 'NONE',  ( -0.09832657499999993000, 1.204755932754752067E-17, 0.6299209999999999532 ) ) ;
#55 = VERTEX_POINT ( 'NONE', #54 ) ;
#56 = VERTEX_POINT ( 'NONE', #129 ) ;
#57 = DIRECTION ( 'NONE',  ( 1.000000000000000000, 0.0000000000000000000, -0.0000000000000000000 ) ) ;
#58 = ORIENTED_EDGE ( 'NONE', *, *, #205, .T. ) ;
#59 = EDGE_CURVE ( 'NONE', #77, #99, #123, .T. ) ;
#60 = AXIS2_PLACEMENT_3D ( 'NONE', #299, #277, #200 ) ;
#61 = CARTESIAN_POINT ( 'NONE',  ( 1.474662427518848307E-33, 0.0000000000000000000, 1.204153253448721512E-17 ) ) ;
#62 =( NAMED_UNIT ( * ) SI_UNIT ( $, .STERADIAN. ) SOLID_ANGLE_UNIT ( ) );
#63 = DIRECTION ( 'NONE',  ( -1.000000000000000000, 0.0000000000000000000, 0.0000000000000000000 ) ) ;
#64 = SURFACE_STYLE_USAGE ( .BOTH. , #297 ) ;
#65 = FACE_OUTER_BOUND ( 'NONE', #122, .T. ) ;
#66 = APPLICATION_PROTOCOL_DEFINITION ( 'draft international standard', 'automotive_design', 1998, #283 ) ;
#67 = CONICAL_SURFACE ( 'NONE', #134, 0.08342499999999994365, 0.7853981633974420618 ) ;
#68 = AXIS2_PLACEMENT_3D ( 'NONE', #176, #296, #133 ) ;
#69 = FACE_OUTER_BOUND ( 'NONE', #161, .T. ) ;
#70 = DIRECTION ( 'NONE',  ( 0.0000000000000000000, 0.0000000000000000000, 1.000000000000000000 ) ) ;
#71 = CARTESIAN_POINT ( 'NONE',  ( -0.09842500000000001248, 0.0000000000000000000, 1.953503999999999685 ) ) ;
#72 = LINE ( 'NONE', #279, #78 ) ;
#73 = STYLED_ITEM ( 'NONE', ( #82 ), #97 ) ;
#74 = ADVANCED_FACE ( 'NONE', ( #143 ), #67, .T. ) ;
#75 = AXIS2_PLACEMENT_3D ( 'NONE', #126, #150, #219 ) ;
#76 = CIRCLE ( 'NONE', #4, 0.09842500000000001248 ) ;
#77 = VERTEX_POINT ( 'NONE', #118 ) ;
#78 = VECTOR ( 'NONE', #107, 39.37007874015748143 ) ;
#79 = SURFACE_STYLE_USAGE ( .BOTH. , #183 ) ;
#80 = ORIENTED_EDGE ( 'NONE', *, *, #152, .F. ) ;
#81 = EDGE_CURVE ( 'NONE', #31, #27, #76, .T. ) ;
#82 = PRESENTATION_STYLE_ASSIGNMENT (( #79 ) ) ;
#83 = LINE ( 'NONE', #20, #182 ) ;
#84 = CARTESIAN_POINT ( 'NONE',  ( 0.09832657500000009654, 0.0000000000000000000, 0.6299209999999999532 ) ) ;
#85 =( GEOMETRIC_REPRESENTATION_CONTEXT ( 3 ) GLOBAL_UNCERTAINTY_ASSIGNED_CONTEXT ( ( #179 ) ) GLOBAL_UNIT_ASSIGNED_CONTEXT ( ( #196, #273, #252 ) ) REPRESENTATION_CONTEXT ( 'NONE', 'WORKASPACE' ) );
#86 = FACE_OUTER_BOUND ( 'NONE', #10, .T. ) ;
#87 = ORIENTED_EDGE ( 'NONE', *, *, #93, .T. ) ;
#88 = CARTESIAN_POINT ( 'NONE',  ( 0.0000000000000000000, 0.0000000000000000000, 0.0000000000000000000 ) ) ;
#89 = AXIS2_PLACEMENT_3D ( 'NONE', #189, #240, #28 ) ;
#90 = DIRECTION ( 'NONE',  ( 0.0000000000000000000, 0.0000000000000000000, 1.000000000000000000 ) ) ;
#91 = CARTESIAN_POINT ( 'NONE',  ( 0.0000000000000000000, 0.0000000000000000000, 0.0000000000000000000 ) ) ;
#92 = CARTESIAN_POINT ( 'NONE',  ( -0.09842500000000001248, 0.0000000000000000000, 1.968503999999999809 ) ) ;
#93 = EDGE_CURVE ( 'NONE', #266, #31, #269, .T. ) ;
#94 = AXIS2_PLACEMENT_3D ( 'NONE', #272, #192, #119 ) ;
#95 = FACE_OUTER_BOUND ( 'NONE', #259, .T. ) ;
#96 = EDGE_CURVE ( 'NONE', #238, #266, #33, .T. ) ;
#97 = MANIFOLD_SOLID_BREP ( 'Cut-Revolve1', #135 ) ;
#98 =( NAMED_UNIT ( * ) SI_UNIT ( $, .STERADIAN. ) SOLID_ANGLE_UNIT ( ) );
#99 = VERTEX_POINT ( 'NONE', #184 ) ;
#100 = COLOUR_RGB ( '',0.7921568627450980005, 0.8196078431372548767, 0.9333333333333333481 ) ;
#101 = FILL_AREA_STYLE ('',( #5 ) ) ;
#102 = ADVANCED_FACE ( 'NONE', ( #287 ), #262, .T. ) ;
#103 = DIRECTION ( 'NONE',  ( -1.000000000000000000, 0.0000000000000000000, 1.224646799147353207E-16 ) ) ;
#104 = ORIENTED_EDGE ( 'NONE', *, *, #93, .F. ) ;
#105 = LENGTH_MEASURE_WITH_UNIT ( LENGTH_MEASURE( 0.02539999999999999897 ), #255 );
#106 = MECHANICAL_DESIGN_GEOMETRIC_PRESENTATION_REPRESENTATION (  '', ( #23 ), #217 ) ;
#107 = DIRECTION ( 'NONE',  ( -1.224646799147353207E-16, -0.0000000000000000000, -1.000000000000000000 ) ) ;
#108 = CYLINDRICAL_SURFACE ( 'NONE', #15, 0.09842500000000001248 ) ;
#109 = DIRECTION ( 'NONE',  ( -1.224646799147353207E-16, -0.0000000000000000000, -1.000000000000000000 ) ) ;
#110 =( CONVERSION_BASED_UNIT ( 'INCH', #14 ) LENGTH_UNIT ( ) NAMED_UNIT ( #286 ) );
#111 = PRODUCT ( 'Micro_SFPM-050-10', 'Micro_SFPM-050-10', '', ( #17 ) ) ;
#112 = UNCERTAINTY_MEASURE_WITH_UNIT (LENGTH_MEASURE( 1.000000000000000082E-05 ), #110, 'distance_accuracy_value', 'NONE');
#113 = DIRECTION ( 'NONE',  ( -1.224646799147353207E-16, -0.0000000000000000000, -1.000000000000000000 ) ) ;
#114 = AXIS2_PLACEMENT_3D ( 'NONE', #16, #22, #63 ) ;
#115 = EDGE_CURVE ( 'NONE', #11, #56, #225, .T. ) ;
#116 = EDGE_CURVE ( 'NONE', #99, #77, #234, .T. ) ;
#117 = CARTESIAN_POINT ( 'NONE',  ( 0.09842500000000009575, 1.205358612060783546E-17, 0.6304791959130957579 ) ) ;
#118 = CARTESIAN_POINT ( 'NONE',  ( 0.09832657499999998552, 1.204153253448721512E-17, -1.895600338963814870E-33 ) ) ;
#119 = DIRECTION ( 'NONE',  ( -1.000000000000000000, 0.0000000000000000000, 0.0000000000000000000 ) ) ;
#120 = ORIENTED_EDGE ( 'NONE', *, *, #132, .T. ) ;
#121 = DIRECTION ( 'NONE',  ( -1.000000000000000000, 0.0000000000000000000, 0.0000000000000000000 ) ) ;
#122 = EDGE_LOOP ( 'NONE', ( #51, #169, #213, #8 ) ) ;
#123 = CIRCLE ( 'NONE', #187, 0.09832657499999998552 ) ;
#124 = DIRECTION ( 'NONE',  ( -0.0000000000000000000, -0.0000000000000000000, -1.000000000000000000 ) ) ;
#125 = EDGE_LOOP ( 'NONE', ( #246, #58, #216, #148 ) ) ;
#126 = CARTESIAN_POINT ( 'NONE',  ( 1.474662427518848307E-33, 0.0000000000000000000, 1.204153253448721512E-17 ) ) ;
#127 = DIRECTION ( 'NONE',  ( -1.224646799147353207E-16, -0.0000000000000000000, -1.000000000000000000 ) ) ;
#128 = EDGE_LOOP ( 'NONE', ( #261, #53, #224, #35 ) ) ;
#129 = CARTESIAN_POINT ( 'NONE',  ( -0.08342499999999994365, 0.0000000000000000000, 1.968503999999999809 ) ) ;
#130 = APPLICATION_PROTOCOL_DEFINITION ( 'draft international standard', 'automotive_design', 1998, #260 ) ;
#131 = ORIENTED_EDGE ( 'NONE', *, *, #258, .F. ) ;
#132 = EDGE_CURVE ( 'NONE', #56, #11, #244, .T. ) ;
#133 = DIRECTION ( 'NONE',  ( 1.000000000000000000, 0.0000000000000000000, 0.0000000000000000000 ) ) ;
#134 = AXIS2_PLACEMENT_3D ( 'NONE', #32, #2, #121 ) ;
#135 = CLOSED_SHELL ( 'NONE', ( #284, #29, #74, #165, #102, #211, #12, #202, #218, #36 ) ) ;
#136 = CARTESIAN_POINT ( 'NONE',  ( 0.09832657500000009654, 0.0000000000000000000, 0.6299209999999999532 ) ) ;
#137 = DIRECTION ( 'NONE',  ( 1.000000000000000000, 0.0000000000000000000, -0.0000000000000000000 ) ) ;
#138 = CYLINDRICAL_SURFACE ( 'NONE', #172, 0.09832657500000001327 ) ;
#139 = CONICAL_SURFACE ( 'NONE', #170, 0.09832657500000001327, 0.1745329251994338360 ) ;
#140 = DIRECTION ( 'NONE',  ( -1.224646799147353207E-16, -0.0000000000000000000, -1.000000000000000000 ) ) ;
#141 = CIRCLE ( 'NONE', #257, 0.09832657500000001327 ) ;
#142 = ORIENTED_EDGE ( 'NONE', *, *, #96, .T. ) ;
#143 = FACE_OUTER_BOUND ( 'NONE', #128, .T. ) ;
#144 = DIRECTION ( 'NONE',  ( -0.7071067811865430208, 0.0000000000000000000, -0.7071067811865517916 ) ) ;
#145 = DIRECTION ( 'NONE',  ( -0.0000000000000000000, -0.0000000000000000000, -1.000000000000000000 ) ) ;
#146 = ORIENTED_EDGE ( 'NONE', *, *, #289, .T. ) ;
#147 =( LENGTH_UNIT ( ) NAMED_UNIT ( * ) SI_UNIT ( $, .METRE. ) );
#148 = ORIENTED_EDGE ( 'NONE', *, *, #24, .F. ) ;
#149 = ORIENTED_EDGE ( 'NONE', *, *, #81, .T. ) ;
#150 = DIRECTION ( 'NONE',  ( -1.224646799147353207E-16, -0.0000000000000000000, -1.000000000000000000 ) ) ;
#151 = ORIENTED_EDGE ( 'NONE', *, *, #194, .F. ) ;
#152 = EDGE_CURVE ( 'NONE', #190, #77, #83, .T. ) ;
#153 = FACE_OUTER_BOUND ( 'NONE', #167, .T. ) ;
#154 = LINE ( 'NONE', #43, #181 ) ;
#155 = DIRECTION ( 'NONE',  ( -0.0000000000000000000, -0.0000000000000000000, -1.000000000000000000 ) ) ;
#156 =( NAMED_UNIT ( * ) PLANE_ANGLE_UNIT ( ) SI_UNIT ( $, .RADIAN. ) );
#157 = CONICAL_SURFACE ( 'NONE', #94, 0.08342499999999994365, 0.7853981633974420618 ) ;
#158 = PRESENTATION_LAYER_ASSIGNMENT (  '', '', ( #23 ) ) ;
#159 = VECTOR ( 'NONE', #124, 39.37007874015748143 ) ;
#160 = EDGE_CURVE ( 'NONE', #238, #27, #249, .T. ) ;
#161 = EDGE_LOOP ( 'NONE', ( #120, #236 ) ) ;
#162 = DIRECTION ( 'NONE',  ( 0.0000000000000000000, 0.0000000000000000000, -1.000000000000000000 ) ) ;
#163 = EDGE_LOOP ( 'NONE', ( #151, #239, #185, #26 ) ) ;
#164 = VECTOR ( 'NONE', #253, 39.37007874015748854 ) ;
#165 = ADVANCED_FACE ( 'NONE', ( #153 ), #108, .T. ) ;
#166 = DIRECTION ( 'NONE',  ( 1.000000000000000000, 0.0000000000000000000, 0.0000000000000000000 ) ) ;
#167 = EDGE_LOOP ( 'NONE', ( #142, #87, #197, #267 ) ) ;
#168 =( NAMED_UNIT ( * ) PLANE_ANGLE_UNIT ( ) SI_UNIT ( $, .RADIAN. ) );
#169 = ORIENTED_EDGE ( 'NONE', *, *, #152, .T. ) ;
#170 = AXIS2_PLACEMENT_3D ( 'NONE', #3, #290, #45 ) ;
#171 = DIRECTION ( 'NONE',  ( -1.224646799147353207E-16, -0.0000000000000000000, -1.000000000000000000 ) ) ;
#172 = AXIS2_PLACEMENT_3D ( 'NONE', #88, #113, #204 ) ;
#173 = DIRECTION ( 'NONE',  ( 0.1736481776669313304, 0.0000000000000000000, 0.9848077530122077983 ) ) ;
#174 = LINE ( 'NONE', #44, #164 ) ;
#175 = PRODUCT_DEFINITION ( 'UNKNOWN', '', #188, #298 ) ;
#176 = CARTESIAN_POINT ( 'NONE',  ( 7.714307363656999460E-17, 0.0000000000000000000, 0.6299209999999999532 ) ) ;
#177 = AXIS2_PLACEMENT_3D ( 'NONE', #281, #90, #137 ) ;
#178 = CARTESIAN_POINT ( 'NONE',  ( 0.0000000000000000000, 0.0000000000000000000, 0.0000000000000000000 ) ) ;
#179 = UNCERTAINTY_MEASURE_WITH_UNIT (LENGTH_MEASURE( 1.000000000000000082E-05 ), #196, 'distance_accuracy_value', 'NONE');
#180 = DIRECTION ( 'NONE',  ( -0.1736481776669311639, 2.126576849575782392E-17, 0.9848077530122080203 ) ) ;
#181 = VECTOR ( 'NONE', #180, 39.37007874015747433 ) ;
#182 = VECTOR ( 'NONE', #109, 39.37007874015748143 ) ;
#183 = SURFACE_SIDE_STYLE ('',( #50 ) ) ;
#184 = CARTESIAN_POINT ( 'NONE',  ( -0.09832657499999998552, 0.0000000000000000000, 2.408306506897443024E-17 ) ) ;
#185 = ORIENTED_EDGE ( 'NONE', *, *, #48, .T. ) ;
#186 = PRODUCT_RELATED_PRODUCT_CATEGORY ( 'part', '', ( #111 ) ) ;
#187 = AXIS2_PLACEMENT_3D ( 'NONE', #61, #171, #103 ) ;
#188 = PRODUCT_DEFINITION_FORMATION_WITH_SPECIFIED_SOURCE ( 'ANY', '', #111, .NOT_KNOWN. ) ;
#189 = CARTESIAN_POINT ( 'NONE',  ( 0.0000000000000000000, 0.0000000000000000000, 1.968503999999999809 ) ) ;
#190 = VERTEX_POINT ( 'NONE', #136 ) ;
#191 = CARTESIAN_POINT ( 'NONE',  ( 7.721143292039698252E-17, 0.0000000000000000000, 0.6304791959130957579 ) ) ;
#192 = DIRECTION ( 'NONE',  ( 0.0000000000000000000, 0.0000000000000000000, -1.000000000000000000 ) ) ;
#193 = ADVANCED_BREP_SHAPE_REPRESENTATION ( 'Micro_SFPM-050-10', ( #97, #233 ), #85 ) ;
#194 = EDGE_CURVE ( 'NONE', #11, #266, #174, .T. ) ;
#195 = DIRECTION ( 'NONE',  ( 1.000000000000000000, 0.0000000000000000000, 0.0000000000000000000 ) ) ;
#196 =( CONVERSION_BASED_UNIT ( 'INCH', #105 ) LENGTH_UNIT ( ) NAMED_UNIT ( #7 ) );
#197 = ORIENTED_EDGE ( 'NONE', *, *, #208, .F. ) ;
#198 = CARTESIAN_POINT ( 'NONE',  ( 0.0000000000000000000, 0.0000000000000000000, 1.968503999999999809 ) ) ;
#199 = PRESENTATION_STYLE_ASSIGNMENT (( #64 ) ) ;
#200 = DIRECTION ( 'NONE',  ( 1.000000000000000000, 0.0000000000000000000, 0.0000000000000000000 ) ) ;
#201 =( LENGTH_UNIT ( ) NAMED_UNIT ( * ) SI_UNIT ( $, .METRE. ) );
#202 = ADVANCED_FACE ( 'NONE', ( #86 ), #41, .T. ) ;
#203 = CARTESIAN_POINT ( 'NONE',  ( 7.721143292039698252E-17, 0.0000000000000000000, 0.6304791959130957579 ) ) ;
#204 = DIRECTION ( 'NONE',  ( -1.000000000000000000, 0.0000000000000000000, 1.224646799147353207E-16 ) ) ;
#205 = EDGE_CURVE ( 'NONE', #55, #27, #154, .T. ) ;
#206 = AXIS2_PLACEMENT_3D ( 'NONE', #13, #162, #166 ) ;
#207 = CIRCLE ( 'NONE', #60, 0.09842500000000001248 ) ;
#208 = EDGE_CURVE ( 'NONE', #27, #31, #42, .T. ) ;
#209 = AXIS2_PLACEMENT_3D ( 'NONE', #52, #145, #293 ) ;
#210 = DIRECTION ( 'NONE',  ( 0.0000000000000000000, 0.0000000000000000000, 1.000000000000000000 ) ) ;
#211 = ADVANCED_FACE ( 'NONE', ( #69 ), #228, .T. ) ;
#212 = CARTESIAN_POINT ( 'NONE',  ( 7.714307363656999460E-17, 0.0000000000000000000, 0.6299209999999999532 ) ) ;
#213 = ORIENTED_EDGE ( 'NONE', *, *, #116, .F. ) ;
#214 = DIRECTION ( 'NONE',  ( 1.000000000000000000, 0.0000000000000000000, 0.0000000000000000000 ) ) ;
#215 = FACE_OUTER_BOUND ( 'NONE', #125, .T. ) ;
#216 = ORIENTED_EDGE ( 'NONE', *, *, #208, .T. ) ;
#217 =( GEOMETRIC_REPRESENTATION_CONTEXT ( 3 ) GLOBAL_UNCERTAINTY_ASSIGNED_CONTEXT ( ( #112 ) ) GLOBAL_UNIT_ASSIGNED_CONTEXT ( ( #110, #156, #62 ) ) REPRESENTATION_CONTEXT ( 'NONE', 'WORKASPACE' ) );
#218 = ADVANCED_FACE ( 'NONE', ( #227 ), #18, .T. ) ;
#219 = DIRECTION ( 'NONE',  ( -1.000000000000000000, 0.0000000000000000000, 1.224646799147353207E-16 ) ) ;
#220 = SHAPE_DEFINITION_REPRESENTATION ( #245, #193 ) ;
#221 = DIRECTION ( 'NONE',  ( -1.000000000000000000, 0.0000000000000000000, 0.0000000000000000000 ) ) ;
#222 = ORIENTED_EDGE ( 'NONE', *, *, #116, .T. ) ;
#223 = DIRECTION ( 'NONE',  ( -1.224646799147353207E-16, -0.0000000000000000000, -1.000000000000000000 ) ) ;
#224 = ORIENTED_EDGE ( 'NONE', *, *, #96, .F. ) ;
#225 = CIRCLE ( 'NONE', #89, 0.08342499999999994365 ) ;
#226 = CARTESIAN_POINT ( 'NONE',  ( 0.09842500000000001248, 1.205358612060782468E-17, 1.953503999999999685 ) ) ;
#227 = FACE_OUTER_BOUND ( 'NONE', #270, .T. ) ;
#228 = PLANE ( 'NONE',  #177 ) ;
#229 = AXIS2_PLACEMENT_3D ( 'NONE', #178, #140, #254 ) ;
#230 = UNCERTAINTY_MEASURE_WITH_UNIT (LENGTH_MEASURE( 1.000000000000000082E-05 ), #237, 'distance_accuracy_value', 'NONE');
#231 = VECTOR ( 'NONE', #173, 39.37007874015748143 ) ;
#232 = EDGE_CURVE ( 'NONE', #55, #99, #72, .T. ) ;
#233 = AXIS2_PLACEMENT_3D ( 'NONE', #91, #70, #280 ) ;
#234 = CIRCLE ( 'NONE', #75, 0.09832657499999998552 ) ;
#235 = CIRCLE ( 'NONE', #114, 0.09832657500000001327 ) ;
#236 = ORIENTED_EDGE ( 'NONE', *, *, #115, .T. ) ;
#237 =( CONVERSION_BASED_UNIT ( 'INCH', #243 ) LENGTH_UNIT ( ) NAMED_UNIT ( #264 ) );
#238 = VERTEX_POINT ( 'NONE', #71 ) ;
#239 = ORIENTED_EDGE ( 'NONE', *, *, #132, .F. ) ;
#240 = DIRECTION ( 'NONE',  ( 0.0000000000000000000, 0.0000000000000000000, 1.000000000000000000 ) ) ;
#241 = FACE_OUTER_BOUND ( 'NONE', #163, .T. ) ;
#242 = ORIENTED_EDGE ( 'NONE', *, *, #81, .F. ) ;
#243 = LENGTH_MEASURE_WITH_UNIT ( LENGTH_MEASURE( 0.02539999999999999897 ), #147 );
#244 = CIRCLE ( 'NONE', #256, 0.08342499999999994365 ) ;
#245 = PRODUCT_DEFINITION_SHAPE ( 'NONE', 'NONE',  #175 ) ;
#246 = ORIENTED_EDGE ( 'NONE', *, *, #19, .F. ) ;
#247 = EDGE_LOOP ( 'NONE', ( #104, #146, #1, #242 ) ) ;
#248 = CARTESIAN_POINT ( 'NONE',  ( 0.0000000000000000000, 0.0000000000000000000, 0.0000000000000000000 ) ) ;
#249 = LINE ( 'NONE', #92, #21 ) ;
#250 = SURFACE_STYLE_FILL_AREA ( #278 ) ;
#251 = AXIS2_PLACEMENT_3D ( 'NONE', #248, #210, #57 ) ;
#252 =( NAMED_UNIT ( * ) SI_UNIT ( $, .STERADIAN. ) SOLID_ANGLE_UNIT ( ) );
#253 = DIRECTION ( 'NONE',  ( 0.7071067811865430208, 8.659560562354874926E-17, -0.7071067811865517916 ) ) ;
#254 = DIRECTION ( 'NONE',  ( -1.000000000000000000, 0.0000000000000000000, 1.224646799147353207E-16 ) ) ;
#255 =( LENGTH_UNIT ( ) NAMED_UNIT ( * ) SI_UNIT ( $, .METRE. ) );
#256 = AXIS2_PLACEMENT_3D ( 'NONE', #9, #265, #195 ) ;
#257 = AXIS2_PLACEMENT_3D ( 'NONE', #212, #127, #221 ) ;
#258 = EDGE_CURVE ( 'NONE', #190, #55, #235, .T. ) ;
#259 = EDGE_LOOP ( 'NONE', ( #222, #37 ) ) ;
#260 = APPLICATION_CONTEXT ( 'automotive_design' ) ;
#261 = ORIENTED_EDGE ( 'NONE', *, *, #115, .F. ) ;
#262 = CYLINDRICAL_SURFACE ( 'NONE', #209, 0.09842500000000001248 ) ;
#263 = LINE ( 'NONE', #84, #231 ) ;
#264 = DIMENSIONAL_EXPONENTS ( 1.000000000000000000, 0.0000000000000000000, 0.0000000000000000000, 0.0000000000000000000, 0.0000000000000000000, 0.0000000000000000000, 0.0000000000000000000 ) ;
#265 = DIRECTION ( 'NONE',  ( 0.0000000000000000000, 0.0000000000000000000, 1.000000000000000000 ) ) ;
#266 = VERTEX_POINT ( 'NONE', #226 ) ;
#267 = ORIENTED_EDGE ( 'NONE', *, *, #160, .F. ) ;
#268 = ORIENTED_EDGE ( 'NONE', *, *, #205, .F. ) ;
#269 = LINE ( 'NONE', #292, #159 ) ;
#270 = EDGE_LOOP ( 'NONE', ( #80, #49, #294, #291 ) ) ;
#271 = DIRECTION ( 'NONE',  ( -1.224646799147353207E-16, -0.0000000000000000000, -1.000000000000000000 ) ) ;
#272 = CARTESIAN_POINT ( 'NONE',  ( 0.0000000000000000000, 0.0000000000000000000, 1.968503999999999809 ) ) ;
#273 =( NAMED_UNIT ( * ) PLANE_ANGLE_UNIT ( ) SI_UNIT ( $, .RADIAN. ) );
#274 = FILL_AREA_STYLE_COLOUR ( '', #282 ) ;
#275 = PRESENTATION_LAYER_ASSIGNMENT (  '', '', ( #73 ) ) ;
#276 = AXIS2_PLACEMENT_3D ( 'NONE', #203, #271, #295 ) ;
#277 = DIRECTION ( 'NONE',  ( 0.0000000000000000000, 0.0000000000000000000, -1.000000000000000000 ) ) ;
#278 = FILL_AREA_STYLE ('',( #274 ) ) ;
#279 = CARTESIAN_POINT ( 'NONE',  ( -0.09832657500000001327, 0.0000000000000000000, 1.204153253448721666E-17 ) ) ;
#280 = DIRECTION ( 'NONE',  ( 1.000000000000000000, 0.0000000000000000000, 0.0000000000000000000 ) ) ;
#281 = CARTESIAN_POINT ( 'NONE',  ( 0.0000000000000000000, 0.0000000000000000000, 1.968503999999999809 ) ) ;
#282 = COLOUR_RGB ( '',0.7921568627450980005, 0.8196078431372548767, 0.9333333333333333481 ) ;
#283 = APPLICATION_CONTEXT ( 'automotive_design' ) ;
#284 = ADVANCED_FACE ( 'NONE', ( #65 ), #138, .T. ) ;
#285 = LINE ( 'NONE', #38, #288 ) ;
#286 = DIMENSIONAL_EXPONENTS ( 1.000000000000000000, 0.0000000000000000000, 0.0000000000000000000, 0.0000000000000000000, 0.0000000000000000000, 0.0000000000000000000, 0.0000000000000000000 ) ;
#287 = FACE_OUTER_BOUND ( 'NONE', #247, .T. ) ;
#288 = VECTOR ( 'NONE', #144, 39.37007874015748854 ) ;
#289 = EDGE_CURVE ( 'NONE', #266, #238, #207, .T. ) ;
#290 = DIRECTION ( 'NONE',  ( 1.224646799147353207E-16, 0.0000000000000000000, 1.000000000000000000 ) ) ;
#291 = ORIENTED_EDGE ( 'NONE', *, *, #59, .F. ) ;
#292 = CARTESIAN_POINT ( 'NONE',  ( 0.09842500000000001248, 1.205358612060782468E-17, 1.968503999999999809 ) ) ;
#293 = DIRECTION ( 'NONE',  ( -1.000000000000000000, 0.0000000000000000000, 0.0000000000000000000 ) ) ;
#294 = ORIENTED_EDGE ( 'NONE', *, *, #232, .T. ) ;
#295 = DIRECTION ( 'NONE',  ( 1.000000000000000000, 0.0000000000000000000, 0.0000000000000000000 ) ) ;
#296 = DIRECTION ( 'NONE',  ( 1.224646799147353207E-16, 0.0000000000000000000, 1.000000000000000000 ) ) ;
#297 = SURFACE_SIDE_STYLE ('',( #250 ) ) ;
#298 = PRODUCT_DEFINITION_CONTEXT ( 'detailed design', #283, 'design' ) ;
#299 = CARTESIAN_POINT ( 'NONE',  ( 0.0000000000000000000, 0.0000000000000000000, 1.953503999999999685 ) ) ;
ENDSEC;
END-ISO-10303-21;
