ISO-10303-21;
HEADER;
FILE_DESCRIPTION (( 'STEP AP214' ),
    '1' );
FILE_NAME ('Micro_RNCM-080-2.STEP',
    '2021-09-03T17:42:40',
    ( '' ),
    ( '' ),
    'SwSTEP 2.0',
    'SolidWorks 2020',
    '' );
FILE_SCHEMA (( 'AUTOMOTIVE_DESIGN' ));
ENDSEC;

DATA;
#1 =( GEOMETRIC_REPRESENTATION_CONTEXT ( 3 ) GLOBAL_UNCERTAINTY_ASSIGNED_CONTEXT ( ( #102 ) ) GLOBAL_UNIT_ASSIGNED_CONTEXT ( ( #232, #53, #150 ) ) REPRESENTATION_CONTEXT ( 'NONE', 'WORKASPACE' ) );
#2 = DIMENSIONAL_EXPONENTS ( 1.000000000000000000, 0.0000000000000000000, 0.0000000000000000000, 0.0000000000000000000, 0.0000000000000000000, 0.0000000000000000000, 0.0000000000000000000 ) ;
#3 =( CONVERSION_BASED_UNIT ( 'INCH', #58 ) LENGTH_UNIT ( ) NAMED_UNIT ( #80 ) );
#4 = ORIENTED_EDGE ( 'NONE', *, *, #194, .F. ) ;
#5 = AXIS2_PLACEMENT_3D ( 'NONE', #175, #49, #189 ) ;
#6 = SURFACE_SIDE_STYLE ('',( #152 ) ) ;
#7 =( NAMED_UNIT ( * ) SI_UNIT ( $, .STERADIAN. ) SOLID_ANGLE_UNIT ( ) );
#8 = LINE ( 'NONE', #66, #193 ) ;
#9 = PRODUCT ( 'Micro_RNCM-080-2', 'Micro_RNCM-080-2', '', ( #148 ) ) ;
#10 =( LENGTH_UNIT ( ) NAMED_UNIT ( * ) SI_UNIT ( $, .METRE. ) );
#11 = CARTESIAN_POINT ( 'NONE',  ( 0.0000000000000000000, 0.0000000000000000000, 2.480315000000000047 ) ) ;
#12 = CARTESIAN_POINT ( 'NONE',  ( 0.0000000000000000000, 0.0000000000000000000, 0.0000000000000000000 ) ) ;
#13 =( LENGTH_UNIT ( ) NAMED_UNIT ( * ) SI_UNIT ( $, .METRE. ) );
#14 = CARTESIAN_POINT ( 'NONE',  ( 0.0000000000000000000, 0.0000000000000000000, 2.480315000000000047 ) ) ;
#15 = DIRECTION ( 'NONE',  ( 0.0000000000000000000, 0.0000000000000000000, 1.000000000000000000 ) ) ;
#16 = EDGE_LOOP ( 'NONE', ( #188, #136, #158, #125 ) ) ;
#17 = PRODUCT_DEFINITION_FORMATION_WITH_SPECIFIED_SOURCE ( 'ANY', '', #9, .NOT_KNOWN. ) ;
#18 = EDGE_CURVE ( 'NONE', #177, #131, #121, .T. ) ;
#19 = ORIENTED_EDGE ( 'NONE', *, *, #18, .T. ) ;
#20 = VECTOR ( 'NONE', #119, 39.37007874015748143 ) ;
#21 = DIRECTION ( 'NONE',  ( 0.0000000000000000000, 0.0000000000000000000, 1.000000000000000000 ) ) ;
#22 = ADVANCED_FACE ( 'NONE', ( #234 ), #172, .T. ) ;
#23 = DIMENSIONAL_EXPONENTS ( 1.000000000000000000, 0.0000000000000000000, 0.0000000000000000000, 0.0000000000000000000, 0.0000000000000000000, 0.0000000000000000000, 0.0000000000000000000 ) ;
#24 = EDGE_CURVE ( 'NONE', #210, #123, #159, .T. ) ;
#25 = PRODUCT_RELATED_PRODUCT_CATEGORY ( 'part', '', ( #9 ) ) ;
#26 = ORIENTED_EDGE ( 'NONE', *, *, #126, .T. ) ;
#27 = ORIENTED_EDGE ( 'NONE', *, *, #63, .T. ) ;
#28 = EDGE_CURVE ( 'NONE', #210, #131, #190, .T. ) ;
#29 = CARTESIAN_POINT ( 'NONE',  ( 0.0000000000000000000, 0.0000000000000000000, 0.0000000000000000000 ) ) ;
#30 = DIRECTION ( 'NONE',  ( 0.0000000000000000000, 0.0000000000000000000, -1.000000000000000000 ) ) ;
#31 = VERTEX_POINT ( 'NONE', #191 ) ;
#32 = CARTESIAN_POINT ( 'NONE',  ( 0.0000000000000000000, 0.0000000000000000000, 0.1535434999999993610 ) ) ;
#33 = CIRCLE ( 'NONE', #198, 0.003936999999999995191 ) ;
#34 = CARTESIAN_POINT ( 'NONE',  ( 0.003936999999999995191, 0.0000000000000000000, 0.0000000000000000000 ) ) ;
#35 = DIRECTION ( 'NONE',  ( -0.0000000000000000000, -0.0000000000000000000, -1.000000000000000000 ) ) ;
#36 = LENGTH_MEASURE_WITH_UNIT ( LENGTH_MEASURE( 0.02539999999999999897 ), #13 );
#37 = ADVANCED_FACE ( 'NONE', ( #221 ), #52, .T. ) ;
#38 = ADVANCED_FACE ( 'NONE', ( #185 ), #203, .T. ) ;
#39 = MECHANICAL_DESIGN_GEOMETRIC_PRESENTATION_REPRESENTATION (  '', ( #246 ), #241 ) ;
#40 = CIRCLE ( 'NONE', #182, 0.003936999999999995191 ) ;
#41 = EDGE_CURVE ( 'NONE', #31, #131, #164, .T. ) ;
#42 = EDGE_LOOP ( 'NONE', ( #115, #202 ) ) ;
#43 = SURFACE_STYLE_USAGE ( .BOTH. , #222 ) ;
#44 = DIRECTION ( 'NONE',  ( -1.000000000000000000, 0.0000000000000000000, 0.0000000000000000000 ) ) ;
#45 = DIRECTION ( 'NONE',  ( 1.000000000000000000, 0.0000000000000000000, 0.0000000000000000000 ) ) ;
#46 = DIRECTION ( 'NONE',  ( 0.7071067811865490160, 0.0000000000000000000, -0.7071067811865460184 ) ) ;
#47 = PRODUCT_DEFINITION_SHAPE ( 'NONE', 'NONE',  #93 ) ;
#48 = ORIENTED_EDGE ( 'NONE', *, *, #144, .F. ) ;
#49 = DIRECTION ( 'NONE',  ( 0.0000000000000000000, 0.0000000000000000000, 1.000000000000000000 ) ) ;
#50 = CARTESIAN_POINT ( 'NONE',  ( 0.0000000000000000000, 0.0000000000000000000, 0.0000000000000000000 ) ) ;
#51 = CARTESIAN_POINT ( 'NONE',  ( 0.0000000000000000000, 0.0000000000000000000, 2.480315000000000047 ) ) ;
#52 = CONICAL_SURFACE ( 'NONE', #81, 0.003936999999999995191, 0.7853981633974503884 ) ;
#53 =( NAMED_UNIT ( * ) PLANE_ANGLE_UNIT ( ) SI_UNIT ( $, .RADIAN. ) );
#54 = DIRECTION ( 'NONE',  ( -0.0000000000000000000, -0.0000000000000000000, -1.000000000000000000 ) ) ;
#55 = ORIENTED_EDGE ( 'NONE', *, *, #24, .F. ) ;
#56 = ORIENTED_EDGE ( 'NONE', *, *, #85, .F. ) ;
#57 = EDGE_LOOP ( 'NONE', ( #176, #19, #168, #99 ) ) ;
#58 = LENGTH_MEASURE_WITH_UNIT ( LENGTH_MEASURE( 0.02539999999999999897 ), #10 );
#59 = COLOUR_RGB ( '',0.7921568627450980005, 0.8196078431372548767, 0.9333333333333333481 ) ;
#60 = DIRECTION ( 'NONE',  ( -0.0000000000000000000, -0.0000000000000000000, -1.000000000000000000 ) ) ;
#61 = FACE_OUTER_BOUND ( 'NONE', #57, .T. ) ;
#62 = EDGE_LOOP ( 'NONE', ( #242, #86, #153, #56 ) ) ;
#63 = EDGE_CURVE ( 'NONE', #138, #84, #145, .T. ) ;
#64 = AXIS2_PLACEMENT_3D ( 'NONE', #29, #110, #247 ) ;
#65 = AXIS2_PLACEMENT_3D ( 'NONE', #89, #60, #83 ) ;
#66 = CARTESIAN_POINT ( 'NONE',  ( -0.003936999999999995191, 4.821434448243123477E-19, 0.0000000000000000000 ) ) ;
#67 = APPLICATION_PROTOCOL_DEFINITION ( 'draft international standard', 'automotive_design', 1998, #208 ) ;
#68 = STYLED_ITEM ( 'NONE', ( #196 ), #216 ) ;
#69 = DIRECTION ( 'NONE',  ( 0.0000000000000000000, 0.0000000000000000000, -1.000000000000000000 ) ) ;
#70 = CARTESIAN_POINT ( 'NONE',  ( 0.0000000000000000000, 0.0000000000000000000, 0.0000000000000000000 ) ) ;
#71 = LENGTH_MEASURE_WITH_UNIT ( LENGTH_MEASURE( 0.02539999999999999897 ), #249 );
#72 = DIRECTION ( 'NONE',  ( -0.0000000000000000000, -0.0000000000000000000, -1.000000000000000000 ) ) ;
#73 = FILL_AREA_STYLE ('',( #92 ) ) ;
#74 = DIRECTION ( 'NONE',  ( -1.000000000000000000, 0.0000000000000000000, 0.0000000000000000000 ) ) ;
#75 = FILL_AREA_STYLE_COLOUR ( '', #59 ) ;
#76 = VECTOR ( 'NONE', #46, 39.37007874015748143 ) ;
#77 = UNCERTAINTY_MEASURE_WITH_UNIT (LENGTH_MEASURE( 1.000000000000000082E-05 ), #3, 'distance_accuracy_value', 'NONE');
#78 = ORIENTED_EDGE ( 'NONE', *, *, #28, .F. ) ;
#79 = ORIENTED_EDGE ( 'NONE', *, *, #28, .T. ) ;
#80 = DIMENSIONAL_EXPONENTS ( 1.000000000000000000, 0.0000000000000000000, 0.0000000000000000000, 0.0000000000000000000, 0.0000000000000000000, 0.0000000000000000000, 0.0000000000000000000 ) ;
#81 = AXIS2_PLACEMENT_3D ( 'NONE', #51, #112, #244 ) ;
#82 = AXIS2_PLACEMENT_3D ( 'NONE', #237, #21, #219 ) ;
#83 = DIRECTION ( 'NONE',  ( -1.000000000000000000, 0.0000000000000000000, 0.0000000000000000000 ) ) ;
#84 = VERTEX_POINT ( 'NONE', #199 ) ;
#85 = EDGE_CURVE ( 'NONE', #131, #31, #88, .T. ) ;
#86 = ORIENTED_EDGE ( 'NONE', *, *, #144, .T. ) ;
#87 = ORIENTED_EDGE ( 'NONE', *, *, #24, .T. ) ;
#88 = CIRCLE ( 'NONE', #233, 0.1574804999999999955 ) ;
#89 = CARTESIAN_POINT ( 'NONE',  ( 0.0000000000000000000, 0.0000000000000000000, 2.480315000000000047 ) ) ;
#90 = ADVANCED_FACE ( 'NONE', ( #243 ), #197, .T. ) ;
#91 = DIRECTION ( 'NONE',  ( 1.000000000000000000, 0.0000000000000000000, 0.0000000000000000000 ) ) ;
#92 = FILL_AREA_STYLE_COLOUR ( '', #142 ) ;
#93 = PRODUCT_DEFINITION ( 'UNKNOWN', '', #17, #236 ) ;
#94 = ORIENTED_EDGE ( 'NONE', *, *, #186, .T. ) ;
#95 = VECTOR ( 'NONE', #101, 39.37007874015748143 ) ;
#96 = CARTESIAN_POINT ( 'NONE',  ( 0.0000000000000000000, 0.0000000000000000000, 2.326771500000000881 ) ) ;
#97 = ORIENTED_EDGE ( 'NONE', *, *, #126, .F. ) ;
#98 = DIRECTION ( 'NONE',  ( -1.000000000000000000, 0.0000000000000000000, 0.0000000000000000000 ) ) ;
#99 = ORIENTED_EDGE ( 'NONE', *, *, #235, .F. ) ;
#100 = AXIS2_PLACEMENT_3D ( 'NONE', #12, #184, #45 ) ;
#101 = DIRECTION ( 'NONE',  ( -0.0000000000000000000, -0.0000000000000000000, -1.000000000000000000 ) ) ;
#102 = UNCERTAINTY_MEASURE_WITH_UNIT (LENGTH_MEASURE( 1.000000000000000082E-05 ), #232, 'distance_accuracy_value', 'NONE');
#103 =( GEOMETRIC_REPRESENTATION_CONTEXT ( 3 ) GLOBAL_UNCERTAINTY_ASSIGNED_CONTEXT ( ( #77 ) ) GLOBAL_UNIT_ASSIGNED_CONTEXT ( ( #3, #155, #7 ) ) REPRESENTATION_CONTEXT ( 'NONE', 'WORKASPACE' ) );
#104 = ADVANCED_FACE ( 'NONE', ( #169 ), #205, .F. ) ;
#105 = APPLICATION_CONTEXT ( 'automotive_design' ) ;
#106 = CYLINDRICAL_SURFACE ( 'NONE', #65, 0.1574804999999999955 ) ;
#107 = CONICAL_SURFACE ( 'NONE', #82, 0.003936999999999995191, 0.7853981633974503884 ) ;
#108 = AXIS2_PLACEMENT_3D ( 'NONE', #14, #15, #211 ) ;
#109 = PRESENTATION_LAYER_ASSIGNMENT (  '', '', ( #68 ) ) ;
#110 = DIRECTION ( 'NONE',  ( 0.0000000000000000000, 0.0000000000000000000, 1.000000000000000000 ) ) ;
#111 = EDGE_LOOP ( 'NONE', ( #87, #26 ) ) ;
#112 = DIRECTION ( 'NONE',  ( 0.0000000000000000000, 0.0000000000000000000, -1.000000000000000000 ) ) ;
#113 = FACE_OUTER_BOUND ( 'NONE', #195, .T. ) ;
#114 = LINE ( 'NONE', #226, #149 ) ;
#115 = ORIENTED_EDGE ( 'NONE', *, *, #63, .F. ) ;
#116 = CARTESIAN_POINT ( 'NONE',  ( 0.0000000000000000000, 0.0000000000000000000, 0.1535434999999993610 ) ) ;
#117 = AXIS2_PLACEMENT_3D ( 'NONE', #154, #120, #98 ) ;
#118 = CARTESIAN_POINT ( 'NONE',  ( 0.1574804999999999955, 1.928579902531247412E-17, 2.326771500000000881 ) ) ;
#119 = DIRECTION ( 'NONE',  ( 0.7071067811865490160, 0.0000000000000000000, 0.7071067811865460184 ) ) ;
#120 = DIRECTION ( 'NONE',  ( -0.0000000000000000000, -0.0000000000000000000, -1.000000000000000000 ) ) ;
#121 = LINE ( 'NONE', #231, #95 ) ;
#122 = DIRECTION ( 'NONE',  ( -0.0000000000000000000, -0.0000000000000000000, -1.000000000000000000 ) ) ;
#123 = VERTEX_POINT ( 'NONE', #183 ) ;
#124 = AXIS2_PLACEMENT_3D ( 'NONE', #143, #180, #212 ) ;
#125 = ORIENTED_EDGE ( 'NONE', *, *, #213, .F. ) ;
#126 = EDGE_CURVE ( 'NONE', #123, #210, #40, .T. ) ;
#127 = FACE_OUTER_BOUND ( 'NONE', #163, .T. ) ;
#128 = UNCERTAINTY_MEASURE_WITH_UNIT (LENGTH_MEASURE( 1.000000000000000082E-05 ), #171, 'distance_accuracy_value', 'NONE');
#129 = CARTESIAN_POINT ( 'NONE',  ( 0.003936999999999995191, 0.0000000000000000000, 2.480315000000000047 ) ) ;
#130 = VERTEX_POINT ( 'NONE', #228 ) ;
#131 = VERTEX_POINT ( 'NONE', #161 ) ;
#132 = ORIENTED_EDGE ( 'NONE', *, *, #41, .T. ) ;
#133 = EDGE_LOOP ( 'NONE', ( #27, #94, #48, #4 ) ) ;
#134 = CARTESIAN_POINT ( 'NONE',  ( 0.0000000000000000000, 0.0000000000000000000, 2.480315000000000047 ) ) ;
#135 = DIRECTION ( 'NONE',  ( 0.0000000000000000000, 0.0000000000000000000, -1.000000000000000000 ) ) ;
#136 = ORIENTED_EDGE ( 'NONE', *, *, #181, .T. ) ;
#137 = LINE ( 'NONE', #206, #224 ) ;
#138 = VERTEX_POINT ( 'NONE', #129 ) ;
#139 = AXIS2_PLACEMENT_3D ( 'NONE', #50, #54, #209 ) ;
#140 = CIRCLE ( 'NONE', #146, 0.1574804999999999955 ) ;
#141 = ADVANCED_FACE ( 'NONE', ( #61 ), #106, .T. ) ;
#142 = COLOUR_RGB ( '',0.7921568627450980005, 0.8196078431372548767, 0.9333333333333333481 ) ;
#143 = CARTESIAN_POINT ( 'NONE',  ( 0.0000000000000000000, 0.0000000000000000000, 2.326771500000000881 ) ) ;
#144 = EDGE_CURVE ( 'NONE', #177, #130, #160, .T. ) ;
#145 = CIRCLE ( 'NONE', #192, 0.003936999999999995191 ) ;
#146 = AXIS2_PLACEMENT_3D ( 'NONE', #96, #135, #200 ) ;
#147 = DIRECTION ( 'NONE',  ( -0.7071067811865490160, 8.659560562354951347E-17, 0.7071067811865460184 ) ) ;
#148 = PRODUCT_CONTEXT ( 'NONE', #208, 'mechanical' ) ;
#149 = VECTOR ( 'NONE', #122, 39.37007874015748143 ) ;
#150 =( NAMED_UNIT ( * ) SI_UNIT ( $, .STERADIAN. ) SOLID_ANGLE_UNIT ( ) );
#151 = DIRECTION ( 'NONE',  ( -1.000000000000000000, 0.0000000000000000000, 0.0000000000000000000 ) ) ;
#152 = SURFACE_STYLE_FILL_AREA ( #73 ) ;
#153 = ORIENTED_EDGE ( 'NONE', *, *, #235, .T. ) ;
#154 = CARTESIAN_POINT ( 'NONE',  ( 0.0000000000000000000, 0.0000000000000000000, 2.480315000000000047 ) ) ;
#155 =( NAMED_UNIT ( * ) PLANE_ANGLE_UNIT ( ) SI_UNIT ( $, .RADIAN. ) );
#156 = ORIENTED_EDGE ( 'NONE', *, *, #85, .T. ) ;
#157 = ADVANCED_FACE ( 'NONE', ( #127 ), #107, .T. ) ;
#158 = ORIENTED_EDGE ( 'NONE', *, *, #194, .T. ) ;
#159 = CIRCLE ( 'NONE', #139, 0.003936999999999995191 ) ;
#160 = CIRCLE ( 'NONE', #124, 0.1574804999999999955 ) ;
#161 = CARTESIAN_POINT ( 'NONE',  ( 0.1574804999999999955, 1.928579902531247412E-17, 0.1535434999999993610 ) ) ;
#162 = EDGE_CURVE ( 'NONE', #123, #31, #8, .T. ) ;
#163 = EDGE_LOOP ( 'NONE', ( #97, #220, #132, #78 ) ) ;
#164 = CIRCLE ( 'NONE', #217, 0.1574804999999999955 ) ;
#165 = SURFACE_STYLE_USAGE ( .BOTH. , #6 ) ;
#166 = DIRECTION ( 'NONE',  ( -0.0000000000000000000, -0.0000000000000000000, -1.000000000000000000 ) ) ;
#167 = DIRECTION ( 'NONE',  ( -0.7071067811865490160, -8.659560562354951347E-17, -0.7071067811865460184 ) ) ;
#168 = ORIENTED_EDGE ( 'NONE', *, *, #41, .F. ) ;
#169 = FACE_OUTER_BOUND ( 'NONE', #111, .T. ) ;
#170 = FILL_AREA_STYLE ('',( #75 ) ) ;
#171 =( CONVERSION_BASED_UNIT ( 'INCH', #71 ) LENGTH_UNIT ( ) NAMED_UNIT ( #23 ) );
#172 = PLANE ( 'NONE',  #108 ) ;
#173 = DIRECTION ( 'NONE',  ( -1.000000000000000000, 0.0000000000000000000, 0.0000000000000000000 ) ) ;
#174 = SURFACE_STYLE_FILL_AREA ( #170 ) ;
#175 = CARTESIAN_POINT ( 'NONE',  ( 0.0000000000000000000, 0.0000000000000000000, 0.0000000000000000000 ) ) ;
#176 = ORIENTED_EDGE ( 'NONE', *, *, #213, .T. ) ;
#177 = VERTEX_POINT ( 'NONE', #118 ) ;
#178 = ADVANCED_BREP_SHAPE_REPRESENTATION ( 'Micro_RNCM-080-2', ( #216, #5 ), #103 ) ;
#179 = CONICAL_SURFACE ( 'NONE', #100, 0.003936999999999995191, 0.7853981633974503884 ) ;
#180 = DIRECTION ( 'NONE',  ( 0.0000000000000000000, 0.0000000000000000000, -1.000000000000000000 ) ) ;
#181 = EDGE_CURVE ( 'NONE', #84, #138, #33, .T. ) ;
#182 = AXIS2_PLACEMENT_3D ( 'NONE', #70, #72, #151 ) ;
#183 = CARTESIAN_POINT ( 'NONE',  ( -0.003936999999999995191, 9.883971235068392752E-18, 0.0000000000000000000 ) ) ;
#184 = DIRECTION ( 'NONE',  ( 0.0000000000000000000, 0.0000000000000000000, 1.000000000000000000 ) ) ;
#185 = FACE_OUTER_BOUND ( 'NONE', #62, .T. ) ;
#186 = EDGE_CURVE ( 'NONE', #84, #130, #137, .T. ) ;
#187 =( NAMED_UNIT ( * ) PLANE_ANGLE_UNIT ( ) SI_UNIT ( $, .RADIAN. ) );
#188 = ORIENTED_EDGE ( 'NONE', *, *, #186, .F. ) ;
#189 = DIRECTION ( 'NONE',  ( 1.000000000000000000, 0.0000000000000000000, 0.0000000000000000000 ) ) ;
#190 = LINE ( 'NONE', #34, #20 ) ;
#191 = CARTESIAN_POINT ( 'NONE',  ( -0.1574804999999999955, 0.0000000000000000000, 0.1535434999999993610 ) ) ;
#192 = AXIS2_PLACEMENT_3D ( 'NONE', #134, #207, #44 ) ;
#193 = VECTOR ( 'NONE', #147, 39.37007874015748143 ) ;
#194 = EDGE_CURVE ( 'NONE', #138, #177, #223, .T. ) ;
#195 = EDGE_LOOP ( 'NONE', ( #248, #55, #79, #156 ) ) ;
#196 = PRESENTATION_STYLE_ASSIGNMENT (( #165 ) ) ;
#197 = CONICAL_SURFACE ( 'NONE', #238, 0.003936999999999995191, 0.7853981633974503884 ) ;
#198 = AXIS2_PLACEMENT_3D ( 'NONE', #204, #30, #230 ) ;
#199 = CARTESIAN_POINT ( 'NONE',  ( -0.003936999999999995191, -9.883971235068392752E-18, 2.480315000000000047 ) ) ;
#200 = DIRECTION ( 'NONE',  ( -1.000000000000000000, 0.0000000000000000000, 0.0000000000000000000 ) ) ;
#201 = ADVANCED_FACE ( 'NONE', ( #113 ), #179, .T. ) ;
#202 = ORIENTED_EDGE ( 'NONE', *, *, #181, .F. ) ;
#203 = CYLINDRICAL_SURFACE ( 'NONE', #117, 0.1574804999999999955 ) ;
#204 = CARTESIAN_POINT ( 'NONE',  ( 0.0000000000000000000, 0.0000000000000000000, 2.480315000000000047 ) ) ;
#205 = PLANE ( 'NONE',  #64 ) ;
#206 = CARTESIAN_POINT ( 'NONE',  ( -0.003936999999999995191, -4.821434448243123477E-19, 2.480315000000000047 ) ) ;
#207 = DIRECTION ( 'NONE',  ( 0.0000000000000000000, 0.0000000000000000000, -1.000000000000000000 ) ) ;
#208 = APPLICATION_CONTEXT ( 'automotive_design' ) ;
#209 = DIRECTION ( 'NONE',  ( -1.000000000000000000, 0.0000000000000000000, 0.0000000000000000000 ) ) ;
#210 = VERTEX_POINT ( 'NONE', #245 ) ;
#211 = DIRECTION ( 'NONE',  ( 1.000000000000000000, 0.0000000000000000000, -0.0000000000000000000 ) ) ;
#212 = DIRECTION ( 'NONE',  ( -1.000000000000000000, 0.0000000000000000000, 0.0000000000000000000 ) ) ;
#213 = EDGE_CURVE ( 'NONE', #130, #177, #140, .T. ) ;
#214 = APPLICATION_PROTOCOL_DEFINITION ( 'draft international standard', 'automotive_design', 1998, #105 ) ;
#215 = MECHANICAL_DESIGN_GEOMETRIC_PRESENTATION_REPRESENTATION (  '', ( #68 ), #1 ) ;
#216 = MANIFOLD_SOLID_BREP ( 'Mirror1', #240 ) ;
#217 = AXIS2_PLACEMENT_3D ( 'NONE', #32, #35, #173 ) ;
#218 = PRESENTATION_LAYER_ASSIGNMENT (  '', '', ( #246 ) ) ;
#219 = DIRECTION ( 'NONE',  ( 1.000000000000000000, 0.0000000000000000000, 0.0000000000000000000 ) ) ;
#220 = ORIENTED_EDGE ( 'NONE', *, *, #162, .T. ) ;
#221 = FACE_OUTER_BOUND ( 'NONE', #16, .T. ) ;
#222 = SURFACE_SIDE_STYLE ('',( #174 ) ) ;
#223 = LINE ( 'NONE', #225, #76 ) ;
#224 = VECTOR ( 'NONE', #167, 39.37007874015748143 ) ;
#225 = CARTESIAN_POINT ( 'NONE',  ( 0.003936999999999995191, 0.0000000000000000000, 2.480315000000000047 ) ) ;
#226 = CARTESIAN_POINT ( 'NONE',  ( -0.1574804999999999955, 0.0000000000000000000, 2.480315000000000047 ) ) ;
#227 =( NAMED_UNIT ( * ) SI_UNIT ( $, .STERADIAN. ) SOLID_ANGLE_UNIT ( ) );
#228 = CARTESIAN_POINT ( 'NONE',  ( -0.1574804999999999955, 0.0000000000000000000, 2.326771500000000881 ) ) ;
#229 = PRESENTATION_STYLE_ASSIGNMENT (( #43 ) ) ;
#230 = DIRECTION ( 'NONE',  ( -1.000000000000000000, 0.0000000000000000000, 0.0000000000000000000 ) ) ;
#231 = CARTESIAN_POINT ( 'NONE',  ( 0.1574804999999999955, 1.928579902531247412E-17, 2.480315000000000047 ) ) ;
#232 =( CONVERSION_BASED_UNIT ( 'INCH', #36 ) LENGTH_UNIT ( ) NAMED_UNIT ( #2 ) );
#233 = AXIS2_PLACEMENT_3D ( 'NONE', #116, #166, #74 ) ;
#234 = FACE_OUTER_BOUND ( 'NONE', #42, .T. ) ;
#235 = EDGE_CURVE ( 'NONE', #130, #31, #114, .T. ) ;
#236 = PRODUCT_DEFINITION_CONTEXT ( 'detailed design', #105, 'design' ) ;
#237 = CARTESIAN_POINT ( 'NONE',  ( 0.0000000000000000000, 0.0000000000000000000, 0.0000000000000000000 ) ) ;
#238 = AXIS2_PLACEMENT_3D ( 'NONE', #11, #69, #91 ) ;
#239 = SHAPE_DEFINITION_REPRESENTATION ( #47, #178 ) ;
#240 = CLOSED_SHELL ( 'NONE', ( #90, #157, #141, #38, #201, #104, #37, #22 ) ) ;
#241 =( GEOMETRIC_REPRESENTATION_CONTEXT ( 3 ) GLOBAL_UNCERTAINTY_ASSIGNED_CONTEXT ( ( #128 ) ) GLOBAL_UNIT_ASSIGNED_CONTEXT ( ( #171, #187, #227 ) ) REPRESENTATION_CONTEXT ( 'NONE', 'WORKASPACE' ) );
#242 = ORIENTED_EDGE ( 'NONE', *, *, #18, .F. ) ;
#243 = FACE_OUTER_BOUND ( 'NONE', #133, .T. ) ;
#244 = DIRECTION ( 'NONE',  ( 1.000000000000000000, 0.0000000000000000000, 0.0000000000000000000 ) ) ;
#245 = CARTESIAN_POINT ( 'NONE',  ( 0.003936999999999995191, 0.0000000000000000000, 0.0000000000000000000 ) ) ;
#246 = STYLED_ITEM ( 'NONE', ( #229 ), #178 ) ;
#247 = DIRECTION ( 'NONE',  ( 1.000000000000000000, 0.0000000000000000000, -0.0000000000000000000 ) ) ;
#248 = ORIENTED_EDGE ( 'NONE', *, *, #162, .F. ) ;
#249 =( LENGTH_UNIT ( ) NAMED_UNIT ( * ) SI_UNIT ( $, .METRE. ) );
ENDSEC;
END-ISO-10303-21;
