ISO-10303-21;
HEADER;
FILE_DESCRIPTION (( 'STEP AP214' ),
    '1' );
FILE_NAME ('56587.STEP',
    '2023-06-30T22:10:56',
    ( '' ),
    ( '' ),
    'SwSTEP 2.0',
    'SolidWorks 2023',
    '' );
FILE_SCHEMA (( 'AUTOMOTIVE_DESIGN' ));
ENDSEC;

DATA;
#1 = CYLINDRICAL_SURFACE ( 'NONE', #83, 0.3124999999999997224 ) ;
#2 =( NAMED_UNIT ( * ) PLANE_ANGLE_UNIT ( ) SI_UNIT ( $, .RADIAN. ) );
#3 =( CONVERSION_BASED_UNIT ( 'INCH', #31 ) LENGTH_UNIT ( ) NAMED_UNIT ( #244 ) );
#4 = EDGE_LOOP ( 'NONE', ( #54, #228, #324, #194 ) ) ;
#5 = CIRCLE ( 'NONE', #225, 0.3124999999999996114 ) ;
#6 =( LENGTH_UNIT ( ) NAMED_UNIT ( * ) SI_UNIT ( $, .METRE. ) );
#7 = CARTESIAN_POINT ( 'NONE',  ( -6.123233995736758640E-17, 3.500000000000000000, 0.000000000000000000 ) ) ;
#8 = CARTESIAN_POINT ( 'NONE',  ( -6.123233995736759873E-17, 3.500000000000000000, 0.000000000000000000 ) ) ;
#9 = CARTESIAN_POINT ( 'NONE',  ( 2.296212748401286986E-16, 1.625000000000000000, 0.000000000000000000 ) ) ;
#10 = DIRECTION ( 'NONE',  ( -1.551219278919980663E-16, 1.000000000000000000, -0.000000000000000000 ) ) ;
#11 =( CONVERSION_BASED_UNIT ( 'INCH', #356 ) LENGTH_UNIT ( ) NAMED_UNIT ( #160 ) );
#12 = DIRECTION ( 'NONE',  ( -1.551219278919980663E-16, 1.000000000000000000, -0.000000000000000000 ) ) ;
#13 = SURFACE_SIDE_STYLE ('',( #354 ) ) ;
#14 = SURFACE_STYLE_USAGE ( .BOTH. , #215 ) ;
#15 = PRESENTATION_STYLE_ASSIGNMENT (( #47 ) ) ;
#16 =( CONVERSION_BASED_UNIT ( 'INCH', #270 ) LENGTH_UNIT ( ) NAMED_UNIT ( #361 ) );
#17 = COLOUR_RGB ( '',1.000000000000000000, 0.000000000000000000, 0.000000000000000000 ) ;
#18 = EDGE_CURVE ( 'NONE', #369, #162, #155, .T. ) ;
#19 = UNCERTAINTY_MEASURE_WITH_UNIT (LENGTH_MEASURE( 1.000000000000000082E-05 ), #29, 'distance_accuracy_value', 'NONE');
#20 = DIMENSIONAL_EXPONENTS ( 1.000000000000000000, 0.000000000000000000, 0.000000000000000000, 0.000000000000000000, 0.000000000000000000, 0.000000000000000000, 0.000000000000000000 ) ;
#21 =( CONVERSION_BASED_UNIT ( 'INCH', #367 ) LENGTH_UNIT ( ) NAMED_UNIT ( #189 ) );
#22 = VERTEX_POINT ( 'NONE', #204 ) ;
#23 = SURFACE_STYLE_USAGE ( .BOTH. , #302 ) ;
#24 = ORIENTED_EDGE ( 'NONE', *, *, #114, .F. ) ;
#25 =( GEOMETRIC_REPRESENTATION_CONTEXT ( 3 ) GLOBAL_UNCERTAINTY_ASSIGNED_CONTEXT ( ( #19 ) ) GLOBAL_UNIT_ASSIGNED_CONTEXT ( ( #29, #2, #198 ) ) REPRESENTATION_CONTEXT ( 'NONE', 'WORKASPACE' ) );
#26 = ORIENTED_EDGE ( 'NONE', *, *, #49, .F. ) ;
#27 = LENGTH_MEASURE_WITH_UNIT ( LENGTH_MEASURE( 0.02539999999999999897 ), #223 );
#28 = CIRCLE ( 'NONE', #104, 0.3124999999999998335 ) ;
#29 =( CONVERSION_BASED_UNIT ( 'INCH', #27 ) LENGTH_UNIT ( ) NAMED_UNIT ( #80 ) );
#30 = DIRECTION ( 'NONE',  ( -1.000000000000000000, 0.000000000000000000, 0.000000000000000000 ) ) ;
#31 = LENGTH_MEASURE_WITH_UNIT ( LENGTH_MEASURE( 0.02539999999999999897 ), #6 );
#32 = CARTESIAN_POINT ( 'NONE',  ( 0.000000000000000000, 1.625000000000000000, 0.000000000000000000 ) ) ;
#33 = CARTESIAN_POINT ( 'NONE',  ( -0.3124999999999993894, 1.625000000000000000, 0.000000000000000000 ) ) ;
#34 = CIRCLE ( 'NONE', #112, 0.3124999999999999445 ) ;
#35 = CARTESIAN_POINT ( 'NONE',  ( 3.827021247335477078E-17, 0.000000000000000000, 0.3124999999999998890 ) ) ;
#36 = CARTESIAN_POINT ( 'NONE',  ( -1.913510623667739463E-17, 0.000000000000000000, 0.000000000000000000 ) ) ;
#37 = CARTESIAN_POINT ( 'NONE',  ( 0.3124999999999996669, 3.500000000000000000, 3.827021247335475845E-17 ) ) ;
#38 = STYLED_ITEM ( 'NONE', ( #15 ), #294 ) ;
#39 = CARTESIAN_POINT ( 'NONE',  ( 0.000000000000000000, 0.3125000000000000555, 0.000000000000000000 ) ) ;
#40 = FACE_OUTER_BOUND ( 'NONE', #318, .T. ) ;
#41 = DIRECTION ( 'NONE',  ( -0.000000000000000000, -1.000000000000000000, -0.000000000000000000 ) ) ;
#42 = EDGE_LOOP ( 'NONE', ( #171, #140 ) ) ;
#43 = EDGE_CURVE ( 'NONE', #287, #280, #217, .T. ) ;
#44 = CARTESIAN_POINT ( 'NONE',  ( 0.000000000000000000, 0.3125000000000000555, 0.000000000000000000 ) ) ;
#45 = FILL_AREA_STYLE ('',( #156 ) ) ;
#46 = AXIS2_PLACEMENT_3D ( 'NONE', #314, #310, #51 ) ;
#47 = SURFACE_STYLE_USAGE ( .BOTH. , #362 ) ;
#48 =( NAMED_UNIT ( * ) PLANE_ANGLE_UNIT ( ) SI_UNIT ( $, .RADIAN. ) );
#49 = EDGE_CURVE ( 'NONE', #162, #109, #34, .T. ) ;
#50 = ORIENTED_EDGE ( 'NONE', *, *, #242, .T. ) ;
#51 = DIRECTION ( 'NONE',  ( 1.000000000000000000, 0.000000000000000000, 0.000000000000000000 ) ) ;
#52 = ORIENTED_EDGE ( 'NONE', *, *, #136, .T. ) ;
#53 = AXIS2_PLACEMENT_3D ( 'NONE', #98, #205, #292 ) ;
#54 = ORIENTED_EDGE ( 'NONE', *, *, #114, .T. ) ;
#55 = ADVANCED_FACE ( 'NONE', ( #129 ), #230, .T. ) ;
#56 = FILL_AREA_STYLE ('',( #283 ) ) ;
#57 = PRESENTATION_STYLE_ASSIGNMENT (( #119 ) ) ;
#58 = SURFACE_STYLE_USAGE ( .BOTH. , #117 ) ;
#59 = DIRECTION ( 'NONE',  ( 0.000000000000000000, 0.000000000000000000, -1.000000000000000000 ) ) ;
#60 = DIRECTION ( 'NONE',  ( 1.000000000000000000, 0.000000000000000000, 0.000000000000000000 ) ) ;
#61 = COLOUR_RGB ( '',1.000000000000000000, 0.000000000000000000, 0.000000000000000000 ) ;
#62 = CARTESIAN_POINT ( 'NONE',  ( 0.3124999999999998890, 3.500000000000000000, 3.827021247335477078E-17 ) ) ;
#63 = PLANE ( 'NONE',  #312 ) ;
#64 = DIRECTION ( 'NONE',  ( -1.000000000000000000, 0.000000000000000000, 0.000000000000000000 ) ) ;
#65 = EDGE_CURVE ( 'NONE', #369, #77, #5, .T. ) ;
#66 = SURFACE_STYLE_FILL_AREA ( #152 ) ;
#67 = EDGE_LOOP ( 'NONE', ( #248, #344, #81, #143 ) ) ;
#68 = STYLED_ITEM ( 'NONE', ( #213 ), #55 ) ;
#69 = SPHERICAL_SURFACE ( 'NONE', #90, 0.3125000000000000000 ) ;
#70 =( NAMED_UNIT ( * ) PLANE_ANGLE_UNIT ( ) SI_UNIT ( $, .RADIAN. ) );
#71 =( LENGTH_UNIT ( ) NAMED_UNIT ( * ) SI_UNIT ( $, .METRE. ) );
#72 = DIRECTION ( 'NONE',  ( 1.000000000000000000, 0.000000000000000000, 0.000000000000000000 ) ) ;
#73 = AXIS2_PLACEMENT_3D ( 'NONE', #32, #142, #195 ) ;
#74 =( LENGTH_UNIT ( ) NAMED_UNIT ( * ) SI_UNIT ( $, .METRE. ) );
#75 = PRODUCT_RELATED_PRODUCT_CATEGORY ( 'part', '', ( #277 ) ) ;
#76 = DIRECTION ( 'NONE',  ( -0.000000000000000000, -1.000000000000000000, -0.000000000000000000 ) ) ;
#77 = VERTEX_POINT ( 'NONE', #33 ) ;
#78 = AXIS2_PLACEMENT_3D ( 'NONE', #39, #206, #150 ) ;
#79 = ORIENTED_EDGE ( 'NONE', *, *, #49, .T. ) ;
#80 = DIMENSIONAL_EXPONENTS ( 1.000000000000000000, 0.000000000000000000, 0.000000000000000000, 0.000000000000000000, 0.000000000000000000, 0.000000000000000000, 0.000000000000000000 ) ;
#81 = ORIENTED_EDGE ( 'NONE', *, *, #242, .F. ) ;
#82 = ORIENTED_EDGE ( 'NONE', *, *, #166, .F. ) ;
#83 = AXIS2_PLACEMENT_3D ( 'NONE', #173, #284, #30 ) ;
#84 = DIRECTION ( 'NONE',  ( -1.000000000000000000, 0.000000000000000000, 0.000000000000000000 ) ) ;
#85 = STYLED_ITEM ( 'NONE', ( #210 ), #282 ) ;
#86 = SURFACE_STYLE_FILL_AREA ( #251 ) ;
#87 = EDGE_CURVE ( 'NONE', #295, #252, #125, .T. ) ;
#88 = SURFACE_STYLE_FILL_AREA ( #56 ) ;
#89 =( GEOMETRIC_REPRESENTATION_CONTEXT ( 3 ) GLOBAL_UNCERTAINTY_ASSIGNED_CONTEXT ( ( #219 ) ) GLOBAL_UNIT_ASSIGNED_CONTEXT ( ( #3, #327, #323 ) ) REPRESENTATION_CONTEXT ( 'NONE', 'WORKASPACE' ) );
#90 = AXIS2_PLACEMENT_3D ( 'NONE', #163, #182, #72 ) ;
#91 = VECTOR ( 'NONE', #340, 39.37007874015748143 ) ;
#92 = CARTESIAN_POINT ( 'NONE',  ( 0.000000000000000000, 0.000000000000000000, 0.000000000000000000 ) ) ;
#93 = ORIENTED_EDGE ( 'NONE', *, *, #328, .T. ) ;
#94 = DIRECTION ( 'NONE',  ( -1.000000000000000000, 0.000000000000000000, 0.000000000000000000 ) ) ;
#95 = SPHERICAL_SURFACE ( 'NONE', #168, 0.3125000000000000000 ) ;
#96 = ORIENTED_EDGE ( 'NONE', *, *, #65, .F. ) ;
#97 = EDGE_CURVE ( 'NONE', #295, #106, #116, .T. ) ;
#98 = CARTESIAN_POINT ( 'NONE',  ( -3.827021247335478926E-17, 0.3125000000000000000, 0.000000000000000000 ) ) ;
#99 = CARTESIAN_POINT ( 'NONE',  ( 2.296212748401287479E-16, 1.625000000000000000, 0.000000000000000000 ) ) ;
#100 = MECHANICAL_DESIGN_GEOMETRIC_PRESENTATION_REPRESENTATION (  '', ( #38 ), #174 ) ;
#101 = PRESENTATION_LAYER_ASSIGNMENT (  '', '', ( #370 ) ) ;
#102 = ORIENTED_EDGE ( 'NONE', *, *, #97, .F. ) ;
#103 = CARTESIAN_POINT ( 'NONE',  ( -0.3125000000000000000, 0.3125000000000000555, 3.827021247335477694E-17 ) ) ;
#104 = AXIS2_PLACEMENT_3D ( 'NONE', #165, #363, #326 ) ;
#105 = DIMENSIONAL_EXPONENTS ( 1.000000000000000000, 0.000000000000000000, 0.000000000000000000, 0.000000000000000000, 0.000000000000000000, 0.000000000000000000, 0.000000000000000000 ) ;
#106 = VERTEX_POINT ( 'NONE', #36 ) ;
#107 = LENGTH_MEASURE_WITH_UNIT ( LENGTH_MEASURE( 0.02539999999999999897 ), #74 );
#108 = CARTESIAN_POINT ( 'NONE',  ( 0.000000000000000000, 0.000000000000000000, -0.3124999999999998890 ) ) ;
#109 = VERTEX_POINT ( 'NONE', #291 ) ;
#110 = PRODUCT_DEFINITION_FORMATION_WITH_SPECIFIED_SOURCE ( 'ANY', '', #277, .NOT_KNOWN. ) ;
#111 = PRODUCT_DEFINITION_SHAPE ( 'NONE', 'NONE',  #222 ) ;
#112 = AXIS2_PLACEMENT_3D ( 'NONE', #7, #10, #120 ) ;
#113 = AXIS2_PLACEMENT_3D ( 'NONE', #92, #145, #59 ) ;
#114 = EDGE_CURVE ( 'NONE', #77, #369, #265, .T. ) ;
#115 =( GEOMETRIC_REPRESENTATION_CONTEXT ( 3 ) GLOBAL_UNCERTAINTY_ASSIGNED_CONTEXT ( ( #241 ) ) GLOBAL_UNIT_ASSIGNED_CONTEXT ( ( #238, #208, #243 ) ) REPRESENTATION_CONTEXT ( 'NONE', 'WORKASPACE' ) );
#116 = CIRCLE ( 'NONE', #351, 0.3125000000000000000 ) ;
#117 = SURFACE_SIDE_STYLE ('',( #86 ) ) ;
#118 = PRESENTATION_LAYER_ASSIGNMENT (  '', '', ( #38 ) ) ;
#119 = SURFACE_STYLE_USAGE ( .BOTH. , #263 ) ;
#120 = DIRECTION ( 'NONE',  ( -1.000000000000000000, 0.000000000000000000, 0.000000000000000000 ) ) ;
#121 = EDGE_CURVE ( 'NONE', #157, #22, #170, .T. ) ;
#122 = DIRECTION ( 'NONE',  ( -0.000000000000000000, -1.000000000000000000, -0.000000000000000000 ) ) ;
#123 = CARTESIAN_POINT ( 'NONE',  ( 2.296212748401287479E-16, 1.625000000000000000, 0.000000000000000000 ) ) ;
#124 = CARTESIAN_POINT ( 'NONE',  ( -3.827021247335478926E-17, 0.3125000000000000000, 0.000000000000000000 ) ) ;
#125 = CIRCLE ( 'NONE', #221, 0.3125000000000000000 ) ;
#126 = CARTESIAN_POINT ( 'NONE',  ( 0.3124999999999998890, 3.500000000000000000, 0.000000000000000000 ) ) ;
#127 = EDGE_CURVE ( 'NONE', #22, #295, #320, .T. ) ;
#128 = ADVANCED_BREP_SHAPE_REPRESENTATION ( '56587', ( #269, #260, #46 ), #335 ) ;
#129 = FACE_OUTER_BOUND ( 'NONE', #192, .T. ) ;
#130 =( NAMED_UNIT ( * ) PLANE_ANGLE_UNIT ( ) SI_UNIT ( $, .RADIAN. ) );
#131 =( LENGTH_UNIT ( ) NAMED_UNIT ( * ) SI_UNIT ( $, .METRE. ) );
#132 = FILL_AREA_STYLE ('',( #235 ) ) ;
#133 = AXIS2_PLACEMENT_3D ( 'NONE', #271, #268, #258 ) ;
#134 = SHAPE_DEFINITION_REPRESENTATION ( #111, #128 ) ;
#135 =( NAMED_UNIT ( * ) SI_UNIT ( $, .STERADIAN. ) SOLID_ANGLE_UNIT ( ) );
#136 = EDGE_CURVE ( 'NONE', #280, #287, #28, .T. ) ;
#137 = AXIS2_PLACEMENT_3D ( 'NONE', #9, #185, #207 ) ;
#138 = DIRECTION ( 'NONE',  ( 1.551219278919980663E-16, -1.000000000000000000, 0.000000000000000000 ) ) ;
#139 = UNCERTAINTY_MEASURE_WITH_UNIT (LENGTH_MEASURE( 1.000000000000000082E-05 ), #21, 'distance_accuracy_value', 'NONE');
#140 = ORIENTED_EDGE ( 'NONE', *, *, #43, .F. ) ;
#141 = DIRECTION ( 'NONE',  ( -1.551219278919980663E-16, 1.000000000000000000, -0.000000000000000000 ) ) ;
#142 = DIRECTION ( 'NONE',  ( 0.000000000000000000, 1.000000000000000000, 0.000000000000000000 ) ) ;
#143 = ORIENTED_EDGE ( 'NONE', *, *, #121, .T. ) ;
#144 = AXIS2_PLACEMENT_3D ( 'NONE', #44, #300, #336 ) ;
#145 = DIRECTION ( 'NONE',  ( -0.000000000000000000, -1.000000000000000000, -0.000000000000000000 ) ) ;
#146 = DIRECTION ( 'NONE',  ( -1.551219278919980663E-16, 1.000000000000000000, -0.000000000000000000 ) ) ;
#147 = DIRECTION ( 'NONE',  ( -1.551219278919980663E-16, 1.000000000000000000, -0.000000000000000000 ) ) ;
#148 = VECTOR ( 'NONE', #76, 39.37007874015748143 ) ;
#149 = LENGTH_MEASURE_WITH_UNIT ( LENGTH_MEASURE( 0.02539999999999999897 ), #71 );
#150 = DIRECTION ( 'NONE',  ( 0.000000000000000000, 0.000000000000000000, -1.000000000000000000 ) ) ;
#151 = EDGE_CURVE ( 'NONE', #109, #162, #154, .T. ) ;
#152 = FILL_AREA_STYLE ('',( #301 ) ) ;
#153 = CARTESIAN_POINT ( 'NONE',  ( -6.123233995736758640E-17, 3.500000000000000000, 0.000000000000000000 ) ) ;
#154 = CIRCLE ( 'NONE', #209, 0.3124999999999999445 ) ;
#155 = LINE ( 'NONE', #37, #365 ) ;
#156 = FILL_AREA_STYLE_COLOUR ( '', #254 ) ;
#157 = VERTEX_POINT ( 'NONE', #227 ) ;
#158 = CARTESIAN_POINT ( 'NONE',  ( 0.000000000000000000, 0.000000000000000000, 0.000000000000000000 ) ) ;
#159 = FACE_OUTER_BOUND ( 'NONE', #317, .T. ) ;
#160 = DIMENSIONAL_EXPONENTS ( 1.000000000000000000, 0.000000000000000000, 0.000000000000000000, 0.000000000000000000, 0.000000000000000000, 0.000000000000000000, 0.000000000000000000 ) ;
#161 = PRESENTATION_LAYER_ASSIGNMENT (  '', '', ( #347 ) ) ;
#162 = VERTEX_POINT ( 'NONE', #62 ) ;
#163 = CARTESIAN_POINT ( 'NONE',  ( -3.827021247335478926E-17, 0.3125000000000000000, 0.000000000000000000 ) ) ;
#164 = SURFACE_SIDE_STYLE ('',( #308 ) ) ;
#165 = CARTESIAN_POINT ( 'NONE',  ( 0.000000000000000000, 1.625000000000000000, 0.000000000000000000 ) ) ;
#166 = EDGE_CURVE ( 'NONE', #287, #22, #199, .T. ) ;
#167 = EDGE_LOOP ( 'NONE', ( #237, #278, #93, #26 ) ) ;
#168 = AXIS2_PLACEMENT_3D ( 'NONE', #124, #180, #60 ) ;
#169 = ORIENTED_EDGE ( 'NONE', *, *, #346, .T. ) ;
#170 = CIRCLE ( 'NONE', #78, 0.3125000000000000000 ) ;
#171 = ORIENTED_EDGE ( 'NONE', *, *, #136, .F. ) ;
#172 = STYLED_ITEM ( 'NONE', ( #57 ), #234 ) ;
#173 = CARTESIAN_POINT ( 'NONE',  ( -6.123233995736759873E-17, 3.500000000000000000, 0.000000000000000000 ) ) ;
#174 =( GEOMETRIC_REPRESENTATION_CONTEXT ( 3 ) GLOBAL_UNCERTAINTY_ASSIGNED_CONTEXT ( ( #216 ) ) GLOBAL_UNIT_ASSIGNED_CONTEXT ( ( #16, #130, #264 ) ) REPRESENTATION_CONTEXT ( 'NONE', 'WORKASPACE' ) );
#175 = DIRECTION ( 'NONE',  ( 1.224646799147353207E-16, -0.000000000000000000, 1.000000000000000000 ) ) ;
#176 = ADVANCED_FACE ( 'NONE', ( #259 ), #256, .T. ) ;
#177 = DIRECTION ( 'NONE',  ( 0.000000000000000000, 0.000000000000000000, -1.000000000000000000 ) ) ;
#178 = DIRECTION ( 'NONE',  ( 1.000000000000000000, 0.000000000000000000, -1.224646799147353207E-16 ) ) ;
#179 = CLOSED_SHELL ( 'NONE', ( #282, #55, #364, #234, #294 ) ) ;
#180 = DIRECTION ( 'NONE',  ( 0.000000000000000000, 0.000000000000000000, 1.000000000000000000 ) ) ;
#181 = MECHANICAL_DESIGN_GEOMETRIC_PRESENTATION_REPRESENTATION (  '', ( #347 ), #274 ) ;
#182 = DIRECTION ( 'NONE',  ( 0.000000000000000000, 0.000000000000000000, 1.000000000000000000 ) ) ;
#183 =( NAMED_UNIT ( * ) PLANE_ANGLE_UNIT ( ) SI_UNIT ( $, .RADIAN. ) );
#184 = SURFACE_STYLE_FILL_AREA ( #296 ) ;
#185 = DIRECTION ( 'NONE',  ( -1.551219278919980663E-16, 1.000000000000000000, 0.000000000000000000 ) ) ;
#186 = DIMENSIONAL_EXPONENTS ( 1.000000000000000000, 0.000000000000000000, 0.000000000000000000, 0.000000000000000000, 0.000000000000000000, 0.000000000000000000, 0.000000000000000000 ) ;
#187 = SURFACE_STYLE_FILL_AREA ( #332 ) ;
#188 = ORIENTED_EDGE ( 'NONE', *, *, #262, .T. ) ;
#189 = DIMENSIONAL_EXPONENTS ( 1.000000000000000000, 0.000000000000000000, 0.000000000000000000, 0.000000000000000000, 0.000000000000000000, 0.000000000000000000, 0.000000000000000000 ) ;
#190 = ADVANCED_FACE ( 'NONE', ( #321 ), #1, .T. ) ;
#191 = ORIENTED_EDGE ( 'NONE', *, *, #43, .T. ) ;
#192 = EDGE_LOOP ( 'NONE', ( #52, #341, #202, #373, #331 ) ) ;
#193 = PRESENTATION_LAYER_ASSIGNMENT (  '', '', ( #358 ) ) ;
#194 = ORIENTED_EDGE ( 'NONE', *, *, #328, .F. ) ;
#195 = DIRECTION ( 'NONE',  ( 0.000000000000000000, -0.000000000000000000, 1.000000000000000000 ) ) ;
#196 = FILL_AREA_STYLE_COLOUR ( '', #220 ) ;
#197 = PRESENTATION_LAYER_ASSIGNMENT (  '', '', ( #68 ) ) ;
#198 =( NAMED_UNIT ( * ) SI_UNIT ( $, .STERADIAN. ) SOLID_ANGLE_UNIT ( ) );
#199 = LINE ( 'NONE', #35, #342 ) ;
#200 = CARTESIAN_POINT ( 'NONE',  ( 0.000000000000000000, 0.3125000000000000555, 0.000000000000000000 ) ) ;
#201 = LENGTH_MEASURE_WITH_UNIT ( LENGTH_MEASURE( 0.02539999999999999897 ), #348 );
#202 = ORIENTED_EDGE ( 'NONE', *, *, #121, .F. ) ;
#203 = MECHANICAL_DESIGN_GEOMETRIC_PRESENTATION_REPRESENTATION (  '', ( #172 ), #246 ) ;
#204 = CARTESIAN_POINT ( 'NONE',  ( 3.827021247335478926E-17, 0.3125000000000000555, 0.3125000000000000000 ) ) ;
#205 = DIRECTION ( 'NONE',  ( 0.000000000000000000, 0.000000000000000000, -1.000000000000000000 ) ) ;
#206 = DIRECTION ( 'NONE',  ( -0.000000000000000000, -1.000000000000000000, -0.000000000000000000 ) ) ;
#207 = DIRECTION ( 'NONE',  ( -1.000000000000000000, -1.551219278919980663E-16, 0.000000000000000000 ) ) ;
#208 =( NAMED_UNIT ( * ) PLANE_ANGLE_UNIT ( ) SI_UNIT ( $, .RADIAN. ) );
#209 = AXIS2_PLACEMENT_3D ( 'NONE', #153, #368, #84 ) ;
#210 = PRESENTATION_STYLE_ASSIGNMENT (( #14 ) ) ;
#211 = FILL_AREA_STYLE_COLOUR ( '', #249 ) ;
#212 = COLOUR_RGB ( '',1.000000000000000000, 0.000000000000000000, 0.000000000000000000 ) ;
#213 = PRESENTATION_STYLE_ASSIGNMENT (( #313 ) ) ;
#214 = DIRECTION ( 'NONE',  ( 1.000000000000000000, 1.551219278919980663E-16, 0.000000000000000000 ) ) ;
#215 = SURFACE_SIDE_STYLE ('',( #88 ) ) ;
#216 = UNCERTAINTY_MEASURE_WITH_UNIT (LENGTH_MEASURE( 1.000000000000000082E-05 ), #16, 'distance_accuracy_value', 'NONE');
#217 = CIRCLE ( 'NONE', #133, 0.3124999999999998335 ) ;
#218 = PLANE ( 'NONE',  #73 ) ;
#219 = UNCERTAINTY_MEASURE_WITH_UNIT (LENGTH_MEASURE( 1.000000000000000082E-05 ), #3, 'distance_accuracy_value', 'NONE');
#220 = COLOUR_RGB ( '',1.000000000000000000, 0.000000000000000000, 0.000000000000000000 ) ;
#221 = AXIS2_PLACEMENT_3D ( 'NONE', #200, #257, #177 ) ;
#222 = PRODUCT_DEFINITION ( 'UNKNOWN', '', #110, #245 ) ;
#223 =( LENGTH_UNIT ( ) NAMED_UNIT ( * ) SI_UNIT ( $, .METRE. ) );
#224 = FACE_OUTER_BOUND ( 'NONE', #355, .T. ) ;
#225 = AXIS2_PLACEMENT_3D ( 'NONE', #123, #12, #286 ) ;
#226 = PRESENTATION_STYLE_ASSIGNMENT (( #58 ) ) ;
#227 = CARTESIAN_POINT ( 'NONE',  ( 0.3125000000000000000, 0.3125000000000000555, 0.000000000000000000 ) ) ;
#228 = ORIENTED_EDGE ( 'NONE', *, *, #18, .T. ) ;
#229 =( NAMED_UNIT ( * ) PLANE_ANGLE_UNIT ( ) SI_UNIT ( $, .RADIAN. ) );
#230 = CYLINDRICAL_SURFACE ( 'NONE', #113, 0.3124999999999998890 ) ;
#231 = AXIS2_PLACEMENT_3D ( 'NONE', #293, #41, #267 ) ;
#232 =( CONVERSION_BASED_UNIT ( 'INCH', #149 ) LENGTH_UNIT ( ) NAMED_UNIT ( #20 ) );
#233 = FILL_AREA_STYLE_COLOUR ( '', #17 ) ;
#234 = ADVANCED_FACE ( 'NONE', ( #224 ), #359, .T. ) ;
#235 = FILL_AREA_STYLE_COLOUR ( '', #61 ) ;
#236 = MECHANICAL_DESIGN_GEOMETRIC_PRESENTATION_REPRESENTATION (  '', ( #370 ), #25 ) ;
#237 = ORIENTED_EDGE ( 'NONE', *, *, #18, .F. ) ;
#238 =( CONVERSION_BASED_UNIT ( 'INCH', #107 ) LENGTH_UNIT ( ) NAMED_UNIT ( #105 ) );
#239 = SURFACE_STYLE_USAGE ( .BOTH. , #164 ) ;
#240 = AXIS2_PLACEMENT_3D ( 'NONE', #8, #141, #64 ) ;
#241 = UNCERTAINTY_MEASURE_WITH_UNIT (LENGTH_MEASURE( 1.000000000000000082E-05 ), #238, 'distance_accuracy_value', 'NONE');
#242 = EDGE_CURVE ( 'NONE', #157, #106, #297, .T. ) ;
#243 =( NAMED_UNIT ( * ) SI_UNIT ( $, .STERADIAN. ) SOLID_ANGLE_UNIT ( ) );
#244 = DIMENSIONAL_EXPONENTS ( 1.000000000000000000, 0.000000000000000000, 0.000000000000000000, 0.000000000000000000, 0.000000000000000000, 0.000000000000000000, 0.000000000000000000 ) ;
#245 = PRODUCT_DEFINITION_CONTEXT ( 'detailed design', #366, 'design' ) ;
#246 =( GEOMETRIC_REPRESENTATION_CONTEXT ( 3 ) GLOBAL_UNCERTAINTY_ASSIGNED_CONTEXT ( ( #307 ) ) GLOBAL_UNIT_ASSIGNED_CONTEXT ( ( #232, #183, #299 ) ) REPRESENTATION_CONTEXT ( 'NONE', 'WORKASPACE' ) );
#247 = APPLICATION_PROTOCOL_DEFINITION ( 'draft international standard', 'automotive_design', 1998, #366 ) ;
#248 = ORIENTED_EDGE ( 'NONE', *, *, #127, .T. ) ;
#249 = COLOUR_RGB ( '',0.7921568627450980005, 0.8196078431372548767, 0.9333333333333333481 ) ;
#250 = ADVANCED_FACE ( 'NONE', ( #40 ), #266, .F. ) ;
#251 = FILL_AREA_STYLE ('',( #196 ) ) ;
#252 = VERTEX_POINT ( 'NONE', #272 ) ;
#253 = CARTESIAN_POINT ( 'NONE',  ( 0.3124999999999998335, 1.625000000000000000, 3.827021247335476461E-17 ) ) ;
#254 = COLOUR_RGB ( '',0.7921568627450980005, 0.8196078431372548767, 0.9333333333333333481 ) ;
#255 =( CONVERSION_BASED_UNIT ( 'INCH', #201 ) LENGTH_UNIT ( ) NAMED_UNIT ( #186 ) );
#256 = CYLINDRICAL_SURFACE ( 'NONE', #240, 0.3124999999999997224 ) ;
#257 = DIRECTION ( 'NONE',  ( -0.000000000000000000, -1.000000000000000000, -0.000000000000000000 ) ) ;
#258 = DIRECTION ( 'NONE',  ( 0.000000000000000000, 0.000000000000000000, -1.000000000000000000 ) ) ;
#259 = FACE_OUTER_BOUND ( 'NONE', #4, .T. ) ;
#260 = MANIFOLD_SOLID_BREP ( 'Revolve - Tool Body (Straight Shanked)', #345 ) ;
#261 = CARTESIAN_POINT ( 'NONE',  ( 3.827021247335476461E-17, 1.625000000000000000, 0.3124999999999998335 ) ) ;
#262 = EDGE_CURVE ( 'NONE', #252, #157, #325, .T. ) ;
#263 = SURFACE_SIDE_STYLE ('',( #66 ) ) ;
#264 =( NAMED_UNIT ( * ) SI_UNIT ( $, .STERADIAN. ) SOLID_ANGLE_UNIT ( ) );
#265 = CIRCLE ( 'NONE', #372, 0.3124999999999996114 ) ;
#266 = PLANE ( 'NONE',  #137 ) ;
#267 = DIRECTION ( 'NONE',  ( 0.000000000000000000, 0.000000000000000000, -1.000000000000000000 ) ) ;
#268 = DIRECTION ( 'NONE',  ( -0.000000000000000000, -1.000000000000000000, -0.000000000000000000 ) ) ;
#269 = MANIFOLD_SOLID_BREP ( 'Revolve - Cutting Edge', #179 ) ;
#270 = LENGTH_MEASURE_WITH_UNIT ( LENGTH_MEASURE( 0.02539999999999999897 ), #334 );
#271 = CARTESIAN_POINT ( 'NONE',  ( 0.000000000000000000, 1.625000000000000000, 0.000000000000000000 ) ) ;
#272 = CARTESIAN_POINT ( 'NONE',  ( 0.000000000000000000, 0.3125000000000000555, -0.3125000000000000000 ) ) ;
#273 = CARTESIAN_POINT ( 'NONE',  ( -0.3124999999999998335, 3.500000000000000000, 0.000000000000000000 ) ) ;
#274 =( GEOMETRIC_REPRESENTATION_CONTEXT ( 3 ) GLOBAL_UNCERTAINTY_ASSIGNED_CONTEXT ( ( #285 ) ) GLOBAL_UNIT_ASSIGNED_CONTEXT ( ( #11, #70, #135 ) ) REPRESENTATION_CONTEXT ( 'NONE', 'WORKASPACE' ) );
#275 = PRESENTATION_LAYER_ASSIGNMENT (  '', '', ( #172 ) ) ;
#276 = PRODUCT_CONTEXT ( 'NONE', #329, 'mechanical' ) ;
#277 = PRODUCT ( '56587', '56587', '', ( #276 ) ) ;
#278 = ORIENTED_EDGE ( 'NONE', *, *, #65, .T. ) ;
#279 =( GEOMETRIC_REPRESENTATION_CONTEXT ( 3 ) GLOBAL_UNCERTAINTY_ASSIGNED_CONTEXT ( ( #139 ) ) GLOBAL_UNIT_ASSIGNED_CONTEXT ( ( #21, #48, #337 ) ) REPRESENTATION_CONTEXT ( 'NONE', 'WORKASPACE' ) );
#280 = VERTEX_POINT ( 'NONE', #352 ) ;
#281 =( NAMED_UNIT ( * ) SI_UNIT ( $, .STERADIAN. ) SOLID_ANGLE_UNIT ( ) );
#282 = ADVANCED_FACE ( 'NONE', ( #289 ), #69, .T. ) ;
#283 = FILL_AREA_STYLE_COLOUR ( '', #212 ) ;
#284 = DIRECTION ( 'NONE',  ( -1.551219278919980663E-16, 1.000000000000000000, -0.000000000000000000 ) ) ;
#285 = UNCERTAINTY_MEASURE_WITH_UNIT (LENGTH_MEASURE( 1.000000000000000082E-05 ), #11, 'distance_accuracy_value', 'NONE');
#286 = DIRECTION ( 'NONE',  ( -1.000000000000000000, 0.000000000000000000, 0.000000000000000000 ) ) ;
#287 = VERTEX_POINT ( 'NONE', #261 ) ;
#288 = DIRECTION ( 'NONE',  ( -0.000000000000000000, -1.000000000000000000, -0.000000000000000000 ) ) ;
#289 = FACE_OUTER_BOUND ( 'NONE', #67, .T. ) ;
#290 = PRESENTATION_LAYER_ASSIGNMENT (  '', '', ( #85 ) ) ;
#291 = CARTESIAN_POINT ( 'NONE',  ( -0.3125000000000000000, 3.500000000000000000, 0.000000000000000000 ) ) ;
#292 = DIRECTION ( 'NONE',  ( -1.000000000000000000, 0.000000000000000000, 0.000000000000000000 ) ) ;
#293 = CARTESIAN_POINT ( 'NONE',  ( 0.000000000000000000, 0.3125000000000000555, 0.000000000000000000 ) ) ;
#294 = ADVANCED_FACE ( 'NONE', ( #159 ), #95, .T. ) ;
#295 = VERTEX_POINT ( 'NONE', #103 ) ;
#296 = FILL_AREA_STYLE ('',( #233 ) ) ;
#297 = CIRCLE ( 'NONE', #53, 0.3125000000000000000 ) ;
#298 = ORIENTED_EDGE ( 'NONE', *, *, #87, .F. ) ;
#299 =( NAMED_UNIT ( * ) SI_UNIT ( $, .STERADIAN. ) SOLID_ANGLE_UNIT ( ) );
#300 = DIRECTION ( 'NONE',  ( -0.000000000000000000, -1.000000000000000000, -0.000000000000000000 ) ) ;
#301 = FILL_AREA_STYLE_COLOUR ( '', #338 ) ;
#302 = SURFACE_SIDE_STYLE ('',( #187 ) ) ;
#303 = MECHANICAL_DESIGN_GEOMETRIC_PRESENTATION_REPRESENTATION (  '', ( #358 ), #89 ) ;
#304 = FACE_OUTER_BOUND ( 'NONE', #349, .T. ) ;
#305 = ORIENTED_EDGE ( 'NONE', *, *, #87, .T. ) ;
#306 = FACE_OUTER_BOUND ( 'NONE', #42, .T. ) ;
#307 = UNCERTAINTY_MEASURE_WITH_UNIT (LENGTH_MEASURE( 1.000000000000000082E-05 ), #232, 'distance_accuracy_value', 'NONE');
#308 = SURFACE_STYLE_FILL_AREA ( #45 ) ;
#309 =( LENGTH_UNIT ( ) NAMED_UNIT ( * ) SI_UNIT ( $, .METRE. ) );
#310 = DIRECTION ( 'NONE',  ( 0.000000000000000000, 0.000000000000000000, 1.000000000000000000 ) ) ;
#311 = ORIENTED_EDGE ( 'NONE', *, *, #127, .F. ) ;
#312 = AXIS2_PLACEMENT_3D ( 'NONE', #126, #138, #214 ) ;
#313 = SURFACE_STYLE_USAGE ( .BOTH. , #13 ) ;
#314 = CARTESIAN_POINT ( 'NONE',  ( 0.000000000000000000, 0.000000000000000000, 0.000000000000000000 ) ) ;
#315 = UNCERTAINTY_MEASURE_WITH_UNIT (LENGTH_MEASURE( 1.000000000000000082E-05 ), #255, 'distance_accuracy_value', 'NONE');
#316 = AXIS2_PLACEMENT_3D ( 'NONE', #158, #122, #353 ) ;
#317 = EDGE_LOOP ( 'NONE', ( #102, #305, #188, #50 ) ) ;
#318 = EDGE_LOOP ( 'NONE', ( #24, #96 ) ) ;
#319 = PRESENTATION_STYLE_ASSIGNMENT (( #23 ) ) ;
#320 = CIRCLE ( 'NONE', #231, 0.3125000000000000000 ) ;
#321 = FACE_OUTER_BOUND ( 'NONE', #167, .T. ) ;
#322 = CARTESIAN_POINT ( 'NONE',  ( -3.827021247335478926E-17, 0.3125000000000000000, 0.000000000000000000 ) ) ;
#323 =( NAMED_UNIT ( * ) SI_UNIT ( $, .STERADIAN. ) SOLID_ANGLE_UNIT ( ) );
#324 = ORIENTED_EDGE ( 'NONE', *, *, #151, .F. ) ;
#325 = CIRCLE ( 'NONE', #144, 0.3125000000000000000 ) ;
#326 = DIRECTION ( 'NONE',  ( 0.000000000000000000, 0.000000000000000000, -1.000000000000000000 ) ) ;
#327 =( NAMED_UNIT ( * ) PLANE_ANGLE_UNIT ( ) SI_UNIT ( $, .RADIAN. ) );
#328 = EDGE_CURVE ( 'NONE', #77, #109, #333, .T. ) ;
#329 = APPLICATION_CONTEXT ( 'automotive_design' ) ;
#330 = MECHANICAL_DESIGN_GEOMETRIC_PRESENTATION_REPRESENTATION (  '', ( #68 ), #279 ) ;
#331 = ORIENTED_EDGE ( 'NONE', *, *, #346, .F. ) ;
#332 = FILL_AREA_STYLE ('',( #211 ) ) ;
#333 = LINE ( 'NONE', #273, #91 ) ;
#334 =( LENGTH_UNIT ( ) NAMED_UNIT ( * ) SI_UNIT ( $, .METRE. ) );
#335 =( GEOMETRIC_REPRESENTATION_CONTEXT ( 3 ) GLOBAL_UNCERTAINTY_ASSIGNED_CONTEXT ( ( #315 ) ) GLOBAL_UNIT_ASSIGNED_CONTEXT ( ( #255, #229, #281 ) ) REPRESENTATION_CONTEXT ( 'NONE', 'WORKASPACE' ) );
#336 = DIRECTION ( 'NONE',  ( 0.000000000000000000, 0.000000000000000000, -1.000000000000000000 ) ) ;
#337 =( NAMED_UNIT ( * ) SI_UNIT ( $, .STERADIAN. ) SOLID_ANGLE_UNIT ( ) );
#338 = COLOUR_RGB ( '',1.000000000000000000, 0.000000000000000000, 0.000000000000000000 ) ;
#339 = ORIENTED_EDGE ( 'NONE', *, *, #151, .T. ) ;
#340 = DIRECTION ( 'NONE',  ( -1.551219278919980663E-16, 1.000000000000000000, -0.000000000000000000 ) ) ;
#341 = ORIENTED_EDGE ( 'NONE', *, *, #166, .T. ) ;
#342 = VECTOR ( 'NONE', #288, 39.37007874015748143 ) ;
#343 = MECHANICAL_DESIGN_GEOMETRIC_PRESENTATION_REPRESENTATION (  '', ( #85 ), #115 ) ;
#344 = ORIENTED_EDGE ( 'NONE', *, *, #97, .T. ) ;
#345 = CLOSED_SHELL ( 'NONE', ( #176, #250, #190, #350 ) ) ;
#346 = EDGE_CURVE ( 'NONE', #280, #252, #360, .T. ) ;
#347 = STYLED_ITEM ( 'NONE', ( #357 ), #260 ) ;
#348 =( LENGTH_UNIT ( ) NAMED_UNIT ( * ) SI_UNIT ( $, .METRE. ) );
#349 = EDGE_LOOP ( 'NONE', ( #339, #79 ) ) ;
#350 = ADVANCED_FACE ( 'NONE', ( #304 ), #63, .F. ) ;
#351 = AXIS2_PLACEMENT_3D ( 'NONE', #322, #175, #178 ) ;
#352 = CARTESIAN_POINT ( 'NONE',  ( 0.000000000000000000, 1.625000000000000000, -0.3124999999999998335 ) ) ;
#353 = DIRECTION ( 'NONE',  ( 0.000000000000000000, 0.000000000000000000, -1.000000000000000000 ) ) ;
#354 = SURFACE_STYLE_FILL_AREA ( #132 ) ;
#355 = EDGE_LOOP ( 'NONE', ( #82, #191, #169, #298, #311 ) ) ;
#356 = LENGTH_MEASURE_WITH_UNIT ( LENGTH_MEASURE( 0.02539999999999999897 ), #131 );
#357 = PRESENTATION_STYLE_ASSIGNMENT (( #239 ) ) ;
#358 = STYLED_ITEM ( 'NONE', ( #319 ), #269 ) ;
#359 = CYLINDRICAL_SURFACE ( 'NONE', #316, 0.3124999999999998890 ) ;
#360 = LINE ( 'NONE', #108, #148 ) ;
#361 = DIMENSIONAL_EXPONENTS ( 1.000000000000000000, 0.000000000000000000, 0.000000000000000000, 0.000000000000000000, 0.000000000000000000, 0.000000000000000000, 0.000000000000000000 ) ;
#362 = SURFACE_SIDE_STYLE ('',( #184 ) ) ;
#363 = DIRECTION ( 'NONE',  ( -0.000000000000000000, -1.000000000000000000, -0.000000000000000000 ) ) ;
#364 = ADVANCED_FACE ( 'NONE', ( #306 ), #218, .T. ) ;
#365 = VECTOR ( 'NONE', #147, 39.37007874015748143 ) ;
#366 = APPLICATION_CONTEXT ( 'automotive_design' ) ;
#367 = LENGTH_MEASURE_WITH_UNIT ( LENGTH_MEASURE( 0.02539999999999999897 ), #309 );
#368 = DIRECTION ( 'NONE',  ( -1.551219278919980663E-16, 1.000000000000000000, -0.000000000000000000 ) ) ;
#369 = VERTEX_POINT ( 'NONE', #253 ) ;
#370 = STYLED_ITEM ( 'NONE', ( #226 ), #364 ) ;
#371 = APPLICATION_PROTOCOL_DEFINITION ( 'draft international standard', 'automotive_design', 1998, #329 ) ;
#372 = AXIS2_PLACEMENT_3D ( 'NONE', #99, #146, #94 ) ;
#373 = ORIENTED_EDGE ( 'NONE', *, *, #262, .F. ) ;
ENDSEC;
END-ISO-10303-21;
