ISO-10303-21;
HEADER;
FILE_DESCRIPTION (( 'STEP AP214' ),
    '1' );
FILE_NAME ('Micro_RSCM-030-1.STEP',
    '2021-09-03T17:54:51',
    ( '' ),
    ( '' ),
    'SwSTEP 2.0',
    'SolidWorks 2020',
    '' );
FILE_SCHEMA (( 'AUTOMOTIVE_DESIGN' ));
ENDSEC;

DATA;
#1 = CARTESIAN_POINT ( 'NONE',  ( -0.04405499999999973326, 0.0000000000000000000, 1.496062999999999921 ) ) ;
#2 = CIRCLE ( 'NONE', #124, 0.05905500000000000332 ) ;
#3 = SURFACE_STYLE_FILL_AREA ( #162 ) ;
#4 = ADVANCED_FACE ( 'NONE', ( #15 ), #227, .F. ) ;
#5 = DIMENSIONAL_EXPONENTS ( 1.000000000000000000, 0.0000000000000000000, 0.0000000000000000000, 0.0000000000000000000, 0.0000000000000000000, 0.0000000000000000000, 0.0000000000000000000 ) ;
#6 = FILL_AREA_STYLE_COLOUR ( '', #19 ) ;
#7 = CARTESIAN_POINT ( 'NONE',  ( 0.0000000000000000000, 0.0000000000000000000, 0.0000000000000000000 ) ) ;
#8 = AXIS2_PLACEMENT_3D ( 'NONE', #65, #182, #218 ) ;
#9 = PRODUCT ( 'Micro_RSCM-030-1', 'Micro_RSCM-030-1', '', ( #194 ) ) ;
#10 = FILL_AREA_STYLE_COLOUR ( '', #37 ) ;
#11 = ORIENTED_EDGE ( 'NONE', *, *, #245, .F. ) ;
#12 = DIRECTION ( 'NONE',  ( -0.0000000000000000000, -0.0000000000000000000, -1.000000000000000000 ) ) ;
#13 = LINE ( 'NONE', #221, #90 ) ;
#14 = CIRCLE ( 'NONE', #225, 0.003936999999999995191 ) ;
#15 = FACE_OUTER_BOUND ( 'NONE', #174, .T. ) ;
#16 = CARTESIAN_POINT ( 'NONE',  ( 0.0000000000000000000, 0.0000000000000000000, 0.0000000000000000000 ) ) ;
#17 = AXIS2_PLACEMENT_3D ( 'NONE', #45, #121, #199 ) ;
#18 = LINE ( 'NONE', #150, #193 ) ;
#19 = COLOUR_RGB ( '',0.7921568627450980005, 0.8196078431372548767, 0.9333333333333333481 ) ;
#20 = ORIENTED_EDGE ( 'NONE', *, *, #109, .T. ) ;
#21 = EDGE_CURVE ( 'NONE', #211, #71, #18, .T. ) ;
#22 = APPLICATION_PROTOCOL_DEFINITION ( 'draft international standard', 'automotive_design', 1998, #165 ) ;
#23 = PRESENTATION_STYLE_ASSIGNMENT (( #140 ) ) ;
#24 = CIRCLE ( 'NONE', #83, 0.04405499999999973326 ) ;
#25 = CARTESIAN_POINT ( 'NONE',  ( 0.0000000000000000000, 0.0000000000000000000, 1.496062999999999921 ) ) ;
#26 = UNCERTAINTY_MEASURE_WITH_UNIT (LENGTH_MEASURE( 1.000000000000000082E-05 ), #34, 'distance_accuracy_value', 'NONE');
#27 = CARTESIAN_POINT ( 'NONE',  ( -0.05905500000000000332, 0.0000000000000000000, 1.481062999999999574 ) ) ;
#28 = VECTOR ( 'NONE', #106, 39.37007874015748143 ) ;
#29 = PLANE ( 'NONE',  #8 ) ;
#30 = DIRECTION ( 'NONE',  ( -1.000000000000000000, 0.0000000000000000000, 0.0000000000000000000 ) ) ;
#31 = CARTESIAN_POINT ( 'NONE',  ( 0.05905500000000000332, 7.232151672364695422E-18, 0.09546717641158104783 ) ) ;
#32 = AXIS2_PLACEMENT_3D ( 'NONE', #64, #123, #169 ) ;
#33 =( GEOMETRIC_REPRESENTATION_CONTEXT ( 3 ) GLOBAL_UNCERTAINTY_ASSIGNED_CONTEXT ( ( #153 ) ) GLOBAL_UNIT_ASSIGNED_CONTEXT ( ( #171, #98, #116 ) ) REPRESENTATION_CONTEXT ( 'NONE', 'WORKASPACE' ) );
#34 =( CONVERSION_BASED_UNIT ( 'INCH', #110 ) LENGTH_UNIT ( ) NAMED_UNIT ( #149 ) );
#35 = DIRECTION ( 'NONE',  ( 0.0000000000000000000, 0.0000000000000000000, -1.000000000000000000 ) ) ;
#36 = CARTESIAN_POINT ( 'NONE',  ( -0.04405499999999973326, 0.0000000000000000000, 1.496062999999999921 ) ) ;
#37 = COLOUR_RGB ( '',0.7921568627450980005, 0.8196078431372548767, 0.9333333333333333481 ) ;
#38 =( LENGTH_UNIT ( ) NAMED_UNIT ( * ) SI_UNIT ( $, .METRE. ) );
#39 = ORIENTED_EDGE ( 'NONE', *, *, #208, .F. ) ;
#40 = ADVANCED_FACE ( 'NONE', ( #82 ), #29, .T. ) ;
#41 = ORIENTED_EDGE ( 'NONE', *, *, #97, .F. ) ;
#42 = ORIENTED_EDGE ( 'NONE', *, *, #132, .T. ) ;
#43 = ORIENTED_EDGE ( 'NONE', *, *, #68, .F. ) ;
#44 = CLOSED_SHELL ( 'NONE', ( #187, #111, #56, #63, #40, #84, #197, #4 ) ) ;
#45 = CARTESIAN_POINT ( 'NONE',  ( 0.0000000000000000000, 0.0000000000000000000, 1.496062999999999921 ) ) ;
#46 = MANIFOLD_SOLID_BREP ( 'Cut-Revolve1', #44 ) ;
#47 = DIRECTION ( 'NONE',  ( 0.7071067811865482389, 8.659560562354941486E-17, -0.7071067811865469066 ) ) ;
#48 = DIRECTION ( 'NONE',  ( 0.5000000000000013323, 0.0000000000000000000, 0.8660254037844377084 ) ) ;
#49 = DIRECTION ( 'NONE',  ( 1.000000000000000000, 0.0000000000000000000, 0.0000000000000000000 ) ) ;
#50 = EDGE_CURVE ( 'NONE', #55, #71, #179, .T. ) ;
#51 = LINE ( 'NONE', #36, #28 ) ;
#52 = PRESENTATION_LAYER_ASSIGNMENT (  '', '', ( #164 ) ) ;
#53 = ORIENTED_EDGE ( 'NONE', *, *, #50, .T. ) ;
#54 = DIRECTION ( 'NONE',  ( 0.0000000000000000000, 0.0000000000000000000, 1.000000000000000000 ) ) ;
#55 = VERTEX_POINT ( 'NONE', #27 ) ;
#56 = ADVANCED_FACE ( 'NONE', ( #180 ), #102, .T. ) ;
#57 = ORIENTED_EDGE ( 'NONE', *, *, #144, .T. ) ;
#58 = CARTESIAN_POINT ( 'NONE',  ( 0.04405499999999973326, 5.395181473643630390E-18, 1.496062999999999921 ) ) ;
#59 = CYLINDRICAL_SURFACE ( 'NONE', #233, 0.05905500000000000332 ) ;
#60 = AXIS2_PLACEMENT_3D ( 'NONE', #163, #237, #49 ) ;
#61 = AXIS2_PLACEMENT_3D ( 'NONE', #16, #191, #241 ) ;
#62 =( NAMED_UNIT ( * ) PLANE_ANGLE_UNIT ( ) SI_UNIT ( $, .RADIAN. ) );
#63 = ADVANCED_FACE ( 'NONE', ( #155 ), #59, .T. ) ;
#64 = CARTESIAN_POINT ( 'NONE',  ( 0.0000000000000000000, 0.0000000000000000000, 1.496062999999999921 ) ) ;
#65 = CARTESIAN_POINT ( 'NONE',  ( 0.0000000000000000000, 0.0000000000000000000, 1.496062999999999921 ) ) ;
#66 = AXIS2_PLACEMENT_3D ( 'NONE', #120, #81, #198 ) ;
#67 = DIRECTION ( 'NONE',  ( -1.000000000000000000, 0.0000000000000000000, 0.0000000000000000000 ) ) ;
#68 = EDGE_CURVE ( 'NONE', #195, #112, #232, .T. ) ;
#69 = APPLICATION_PROTOCOL_DEFINITION ( 'draft international standard', 'automotive_design', 1998, #200 ) ;
#70 = DIRECTION ( 'NONE',  ( -0.0000000000000000000, -0.0000000000000000000, -1.000000000000000000 ) ) ;
#71 = VERTEX_POINT ( 'NONE', #134 ) ;
#72 = CONICAL_SURFACE ( 'NONE', #209, 0.003936999999999995191, 0.5235987755983005920 ) ;
#73 = CARTESIAN_POINT ( 'NONE',  ( 0.0000000000000000000, 0.0000000000000000000, 0.09546717641158104783 ) ) ;
#74 = VECTOR ( 'NONE', #47, 39.37007874015748143 ) ;
#75 = EDGE_LOOP ( 'NONE', ( #175, #228, #39, #96 ) ) ;
#76 = ORIENTED_EDGE ( 'NONE', *, *, #245, .T. ) ;
#77 = ORIENTED_EDGE ( 'NONE', *, *, #89, .T. ) ;
#78 = SHAPE_DEFINITION_REPRESENTATION ( #168, #189 ) ;
#79 = VECTOR ( 'NONE', #160, 39.37007874015748143 ) ;
#80 = ORIENTED_EDGE ( 'NONE', *, *, #105, .F. ) ;
#81 = DIRECTION ( 'NONE',  ( -0.0000000000000000000, -0.0000000000000000000, -1.000000000000000000 ) ) ;
#82 = FACE_OUTER_BOUND ( 'NONE', #246, .T. ) ;
#83 = AXIS2_PLACEMENT_3D ( 'NONE', #25, #158, #183 ) ;
#84 = ADVANCED_FACE ( 'NONE', ( #139 ), #151, .T. ) ;
#85 = CIRCLE ( 'NONE', #248, 0.05905500000000000332 ) ;
#86 =( NAMED_UNIT ( * ) PLANE_ANGLE_UNIT ( ) SI_UNIT ( $, .RADIAN. ) );
#87 = CARTESIAN_POINT ( 'NONE',  ( 0.0000000000000000000, 0.0000000000000000000, 0.0000000000000000000 ) ) ;
#88 = VERTEX_POINT ( 'NONE', #1 ) ;
#89 = EDGE_CURVE ( 'NONE', #195, #88, #24, .T. ) ;
#90 = VECTOR ( 'NONE', #48, 39.37007874015748854 ) ;
#91 = CARTESIAN_POINT ( 'NONE',  ( 0.0000000000000000000, 0.0000000000000000000, 1.481062999999999574 ) ) ;
#92 = PRESENTATION_STYLE_ASSIGNMENT (( #176 ) ) ;
#93 = FILL_AREA_STYLE ('',( #10 ) ) ;
#94 = DIMENSIONAL_EXPONENTS ( 1.000000000000000000, 0.0000000000000000000, 0.0000000000000000000, 0.0000000000000000000, 0.0000000000000000000, 0.0000000000000000000, 0.0000000000000000000 ) ;
#95 = CONICAL_SURFACE ( 'NONE', #222, 0.04405499999999973326, 0.7853981633974491672 ) ;
#96 = ORIENTED_EDGE ( 'NONE', *, *, #229, .F. ) ;
#97 = EDGE_CURVE ( 'NONE', #71, #152, #85, .T. ) ;
#98 =( NAMED_UNIT ( * ) PLANE_ANGLE_UNIT ( ) SI_UNIT ( $, .RADIAN. ) );
#99 = AXIS2_PLACEMENT_3D ( 'NONE', #91, #206, #223 ) ;
#100 = EDGE_CURVE ( 'NONE', #112, #152, #217, .T. ) ;
#101 = SURFACE_SIDE_STYLE ('',( #3 ) ) ;
#102 = CYLINDRICAL_SURFACE ( 'NONE', #66, 0.05905500000000000332 ) ;
#103 = CIRCLE ( 'NONE', #99, 0.05905500000000000332 ) ;
#104 = DIRECTION ( 'NONE',  ( -0.0000000000000000000, -0.0000000000000000000, -1.000000000000000000 ) ) ;
#105 = EDGE_CURVE ( 'NONE', #88, #195, #157, .T. ) ;
#106 = DIRECTION ( 'NONE',  ( -0.7071067811865482389, 0.0000000000000000000, -0.7071067811865469066 ) ) ;
#107 = CARTESIAN_POINT ( 'NONE',  ( 0.0000000000000000000, 0.0000000000000000000, 0.0000000000000000000 ) ) ;
#108 = DIRECTION ( 'NONE',  ( 1.000000000000000000, 0.0000000000000000000, 0.0000000000000000000 ) ) ;
#109 = EDGE_CURVE ( 'NONE', #112, #55, #173, .T. ) ;
#110 = LENGTH_MEASURE_WITH_UNIT ( LENGTH_MEASURE( 0.02539999999999999897 ), #170 );
#111 = ADVANCED_FACE ( 'NONE', ( #145 ), #95, .T. ) ;
#112 = VERTEX_POINT ( 'NONE', #141 ) ;
#113 = ORIENTED_EDGE ( 'NONE', *, *, #105, .T. ) ;
#114 = AXIS2_PLACEMENT_3D ( 'NONE', #7, #166, #240 ) ;
#115 = ORIENTED_EDGE ( 'NONE', *, *, #132, .F. ) ;
#116 =( NAMED_UNIT ( * ) SI_UNIT ( $, .STERADIAN. ) SOLID_ANGLE_UNIT ( ) );
#117 = ORIENTED_EDGE ( 'NONE', *, *, #161, .T. ) ;
#118 =( LENGTH_UNIT ( ) NAMED_UNIT ( * ) SI_UNIT ( $, .METRE. ) );
#119 = MECHANICAL_DESIGN_GEOMETRIC_PRESENTATION_REPRESENTATION (  '', ( #164 ), #33 ) ;
#120 = CARTESIAN_POINT ( 'NONE',  ( 0.0000000000000000000, 0.0000000000000000000, 1.496062999999999921 ) ) ;
#121 = DIRECTION ( 'NONE',  ( 0.0000000000000000000, 0.0000000000000000000, -1.000000000000000000 ) ) ;
#122 = CARTESIAN_POINT ( 'NONE',  ( 0.05905500000000000332, 7.232151672364695422E-18, 1.496062999999999921 ) ) ;
#123 = DIRECTION ( 'NONE',  ( 0.0000000000000000000, 0.0000000000000000000, 1.000000000000000000 ) ) ;
#124 = AXIS2_PLACEMENT_3D ( 'NONE', #73, #70, #30 ) ;
#125 = DIRECTION ( 'NONE',  ( 0.0000000000000000000, 0.0000000000000000000, 1.000000000000000000 ) ) ;
#126 = PRODUCT_DEFINITION_CONTEXT ( 'detailed design', #165, 'design' ) ;
#127 =( NAMED_UNIT ( * ) SI_UNIT ( $, .STERADIAN. ) SOLID_ANGLE_UNIT ( ) );
#128 = CARTESIAN_POINT ( 'NONE',  ( 0.003936999999999995191, 0.0000000000000000000, 0.0000000000000000000 ) ) ;
#129 =( GEOMETRIC_REPRESENTATION_CONTEXT ( 3 ) GLOBAL_UNCERTAINTY_ASSIGNED_CONTEXT ( ( #26 ) ) GLOBAL_UNIT_ASSIGNED_CONTEXT ( ( #34, #86, #127 ) ) REPRESENTATION_CONTEXT ( 'NONE', 'WORKASPACE' ) );
#130 = DIRECTION ( 'NONE',  ( 1.000000000000000000, 0.0000000000000000000, -0.0000000000000000000 ) ) ;
#131 = ORIENTED_EDGE ( 'NONE', *, *, #50, .F. ) ;
#132 = EDGE_CURVE ( 'NONE', #211, #172, #156, .T. ) ;
#133 = ORIENTED_EDGE ( 'NONE', *, *, #109, .F. ) ;
#134 = CARTESIAN_POINT ( 'NONE',  ( -0.05905500000000000332, 0.0000000000000000000, 0.09546717641158104783 ) ) ;
#135 = VECTOR ( 'NONE', #104, 39.37007874015748143 ) ;
#136 = DIRECTION ( 'NONE',  ( -1.000000000000000000, 0.0000000000000000000, 0.0000000000000000000 ) ) ;
#137 = DIRECTION ( 'NONE',  ( -0.0000000000000000000, -0.0000000000000000000, -1.000000000000000000 ) ) ;
#138 = PRODUCT_RELATED_PRODUCT_CATEGORY ( 'part', '', ( #9 ) ) ;
#139 = FACE_OUTER_BOUND ( 'NONE', #215, .T. ) ;
#140 = SURFACE_STYLE_USAGE ( .BOTH. , #101 ) ;
#141 = CARTESIAN_POINT ( 'NONE',  ( 0.05905500000000000332, 7.232151672364695422E-18, 1.481062999999999574 ) ) ;
#142 =( GEOMETRIC_REPRESENTATION_CONTEXT ( 3 ) GLOBAL_UNCERTAINTY_ASSIGNED_CONTEXT ( ( #247 ) ) GLOBAL_UNIT_ASSIGNED_CONTEXT ( ( #202, #62, #178 ) ) REPRESENTATION_CONTEXT ( 'NONE', 'WORKASPACE' ) );
#143 = CARTESIAN_POINT ( 'NONE',  ( 0.0000000000000000000, 0.0000000000000000000, 1.496062999999999921 ) ) ;
#144 = EDGE_CURVE ( 'NONE', #152, #71, #2, .T. ) ;
#145 = FACE_OUTER_BOUND ( 'NONE', #75, .T. ) ;
#146 = ORIENTED_EDGE ( 'NONE', *, *, #161, .F. ) ;
#147 = PRESENTATION_LAYER_ASSIGNMENT (  '', '', ( #188 ) ) ;
#148 = ORIENTED_EDGE ( 'NONE', *, *, #21, .T. ) ;
#149 = DIMENSIONAL_EXPONENTS ( 1.000000000000000000, 0.0000000000000000000, 0.0000000000000000000, 0.0000000000000000000, 0.0000000000000000000, 0.0000000000000000000, 0.0000000000000000000 ) ;
#150 = CARTESIAN_POINT ( 'NONE',  ( -0.003936999999999995191, 4.821434448243123477E-19, 0.0000000000000000000 ) ) ;
#151 = CONICAL_SURFACE ( 'NONE', #17, 0.04405499999999973326, 0.7853981633974491672 ) ;
#152 = VERTEX_POINT ( 'NONE', #31 ) ;
#153 = UNCERTAINTY_MEASURE_WITH_UNIT (LENGTH_MEASURE( 1.000000000000000082E-05 ), #171, 'distance_accuracy_value', 'NONE');
#154 = DIRECTION ( 'NONE',  ( -0.0000000000000000000, -0.0000000000000000000, -1.000000000000000000 ) ) ;
#155 = FACE_OUTER_BOUND ( 'NONE', #231, .T. ) ;
#156 = CIRCLE ( 'NONE', #114, 0.003936999999999995191 ) ;
#157 = CIRCLE ( 'NONE', #32, 0.04405499999999973326 ) ;
#158 = DIRECTION ( 'NONE',  ( 0.0000000000000000000, 0.0000000000000000000, 1.000000000000000000 ) ) ;
#159 = PRODUCT_DEFINITION_FORMATION_WITH_SPECIFIED_SOURCE ( 'ANY', '', #9, .NOT_KNOWN. ) ;
#160 = DIRECTION ( 'NONE',  ( -0.0000000000000000000, -0.0000000000000000000, -1.000000000000000000 ) ) ;
#161 = EDGE_CURVE ( 'NONE', #172, #152, #13, .T. ) ;
#162 = FILL_AREA_STYLE ('',( #6 ) ) ;
#163 = CARTESIAN_POINT ( 'NONE',  ( 0.0000000000000000000, 0.0000000000000000000, 1.481062999999999574 ) ) ;
#164 = STYLED_ITEM ( 'NONE', ( #92 ), #189 ) ;
#165 = APPLICATION_CONTEXT ( 'automotive_design' ) ;
#166 = DIRECTION ( 'NONE',  ( -0.0000000000000000000, -0.0000000000000000000, -1.000000000000000000 ) ) ;
#167 = ORIENTED_EDGE ( 'NONE', *, *, #21, .F. ) ;
#168 = PRODUCT_DEFINITION_SHAPE ( 'NONE', 'NONE',  #214 ) ;
#169 = DIRECTION ( 'NONE',  ( 1.000000000000000000, 0.0000000000000000000, 0.0000000000000000000 ) ) ;
#170 =( LENGTH_UNIT ( ) NAMED_UNIT ( * ) SI_UNIT ( $, .METRE. ) );
#171 =( CONVERSION_BASED_UNIT ( 'INCH', #243 ) LENGTH_UNIT ( ) NAMED_UNIT ( #5 ) );
#172 = VERTEX_POINT ( 'NONE', #128 ) ;
#173 = CIRCLE ( 'NONE', #60, 0.05905500000000000332 ) ;
#174 = EDGE_LOOP ( 'NONE', ( #76, #42 ) ) ;
#175 = ORIENTED_EDGE ( 'NONE', *, *, #89, .F. ) ;
#176 = SURFACE_STYLE_USAGE ( .BOTH. , #210 ) ;
#177 = EDGE_LOOP ( 'NONE', ( #167, #11, #117, #57 ) ) ;
#178 =( NAMED_UNIT ( * ) SI_UNIT ( $, .STERADIAN. ) SOLID_ANGLE_UNIT ( ) );
#179 = LINE ( 'NONE', #249, #135 ) ;
#180 = FACE_OUTER_BOUND ( 'NONE', #185, .T. ) ;
#181 = MECHANICAL_DESIGN_GEOMETRIC_PRESENTATION_REPRESENTATION (  '', ( #188 ), #142 ) ;
#182 = DIRECTION ( 'NONE',  ( 0.0000000000000000000, 0.0000000000000000000, 1.000000000000000000 ) ) ;
#183 = DIRECTION ( 'NONE',  ( 1.000000000000000000, 0.0000000000000000000, 0.0000000000000000000 ) ) ;
#184 = CARTESIAN_POINT ( 'NONE',  ( -0.003936999999999995191, 3.857147558594504174E-18, 0.0000000000000000000 ) ) ;
#185 = EDGE_LOOP ( 'NONE', ( #196, #224, #41, #131 ) ) ;
#186 = CARTESIAN_POINT ( 'NONE',  ( 0.04405499999999973326, 6.313666573004162521E-18, 1.496062999999999921 ) ) ;
#187 = ADVANCED_FACE ( 'NONE', ( #239 ), #213, .T. ) ;
#188 = STYLED_ITEM ( 'NONE', ( #23 ), #46 ) ;
#189 = ADVANCED_BREP_SHAPE_REPRESENTATION ( 'Micro_RSCM-030-1', ( #46, #61 ), #129 ) ;
#190 = ORIENTED_EDGE ( 'NONE', *, *, #229, .T. ) ;
#191 = DIRECTION ( 'NONE',  ( 0.0000000000000000000, 0.0000000000000000000, 1.000000000000000000 ) ) ;
#192 = CARTESIAN_POINT ( 'NONE',  ( 0.0000000000000000000, 0.0000000000000000000, 0.0000000000000000000 ) ) ;
#193 = VECTOR ( 'NONE', #236, 39.37007874015748854 ) ;
#194 = PRODUCT_CONTEXT ( 'NONE', #200, 'mechanical' ) ;
#195 = VERTEX_POINT ( 'NONE', #186 ) ;
#196 = ORIENTED_EDGE ( 'NONE', *, *, #208, .T. ) ;
#197 = ADVANCED_FACE ( 'NONE', ( #205 ), #72, .T. ) ;
#198 = DIRECTION ( 'NONE',  ( -1.000000000000000000, 0.0000000000000000000, 0.0000000000000000000 ) ) ;
#199 = DIRECTION ( 'NONE',  ( -1.000000000000000000, 0.0000000000000000000, 0.0000000000000000000 ) ) ;
#200 = APPLICATION_CONTEXT ( 'automotive_design' ) ;
#201 = DIRECTION ( 'NONE',  ( -1.000000000000000000, 0.0000000000000000000, 0.0000000000000000000 ) ) ;
#202 =( CONVERSION_BASED_UNIT ( 'INCH', #216 ) LENGTH_UNIT ( ) NAMED_UNIT ( #94 ) );
#203 = DIRECTION ( 'NONE',  ( 1.000000000000000000, 0.0000000000000000000, 0.0000000000000000000 ) ) ;
#204 = DIRECTION ( 'NONE',  ( -1.000000000000000000, 0.0000000000000000000, 0.0000000000000000000 ) ) ;
#205 = FACE_OUTER_BOUND ( 'NONE', #177, .T. ) ;
#206 = DIRECTION ( 'NONE',  ( 0.0000000000000000000, 0.0000000000000000000, -1.000000000000000000 ) ) ;
#207 = CARTESIAN_POINT ( 'NONE',  ( 0.0000000000000000000, 0.0000000000000000000, 0.0000000000000000000 ) ) ;
#208 = EDGE_CURVE ( 'NONE', #55, #112, #103, .T. ) ;
#209 = AXIS2_PLACEMENT_3D ( 'NONE', #107, #220, #203 ) ;
#210 = SURFACE_SIDE_STYLE ('',( #226 ) ) ;
#211 = VERTEX_POINT ( 'NONE', #184 ) ;
#212 = EDGE_LOOP ( 'NONE', ( #115, #148, #238, #146 ) ) ;
#213 = CONICAL_SURFACE ( 'NONE', #219, 0.003936999999999995191, 0.5235987755983005920 ) ;
#214 = PRODUCT_DEFINITION ( 'UNKNOWN', '', #159, #126 ) ;
#215 = EDGE_LOOP ( 'NONE', ( #43, #80, #190, #133 ) ) ;
#216 = LENGTH_MEASURE_WITH_UNIT ( LENGTH_MEASURE( 0.02539999999999999897 ), #118 );
#217 = LINE ( 'NONE', #122, #79 ) ;
#218 = DIRECTION ( 'NONE',  ( 1.000000000000000000, 0.0000000000000000000, -0.0000000000000000000 ) ) ;
#219 = AXIS2_PLACEMENT_3D ( 'NONE', #207, #125, #108 ) ;
#220 = DIRECTION ( 'NONE',  ( 0.0000000000000000000, 0.0000000000000000000, 1.000000000000000000 ) ) ;
#221 = CARTESIAN_POINT ( 'NONE',  ( 0.003936999999999995191, 0.0000000000000000000, 0.0000000000000000000 ) ) ;
#222 = AXIS2_PLACEMENT_3D ( 'NONE', #143, #35, #204 ) ;
#223 = DIRECTION ( 'NONE',  ( 1.000000000000000000, 0.0000000000000000000, 0.0000000000000000000 ) ) ;
#224 = ORIENTED_EDGE ( 'NONE', *, *, #100, .T. ) ;
#225 = AXIS2_PLACEMENT_3D ( 'NONE', #87, #12, #67 ) ;
#226 = SURFACE_STYLE_FILL_AREA ( #93 ) ;
#227 = PLANE ( 'NONE',  #230 ) ;
#228 = ORIENTED_EDGE ( 'NONE', *, *, #68, .T. ) ;
#229 = EDGE_CURVE ( 'NONE', #88, #55, #51, .T. ) ;
#230 = AXIS2_PLACEMENT_3D ( 'NONE', #192, #54, #130 ) ;
#231 = EDGE_LOOP ( 'NONE', ( #244, #20, #53, #242 ) ) ;
#232 = LINE ( 'NONE', #58, #74 ) ;
#233 = AXIS2_PLACEMENT_3D ( 'NONE', #235, #154, #136 ) ;
#234 = CARTESIAN_POINT ( 'NONE',  ( 0.0000000000000000000, 0.0000000000000000000, 0.09546717641158104783 ) ) ;
#235 = CARTESIAN_POINT ( 'NONE',  ( 0.0000000000000000000, 0.0000000000000000000, 1.496062999999999921 ) ) ;
#236 = DIRECTION ( 'NONE',  ( -0.5000000000000013323, 6.123233995736782060E-17, 0.8660254037844377084 ) ) ;
#237 = DIRECTION ( 'NONE',  ( 0.0000000000000000000, 0.0000000000000000000, -1.000000000000000000 ) ) ;
#238 = ORIENTED_EDGE ( 'NONE', *, *, #97, .T. ) ;
#239 = FACE_OUTER_BOUND ( 'NONE', #212, .T. ) ;
#240 = DIRECTION ( 'NONE',  ( -1.000000000000000000, 0.0000000000000000000, 0.0000000000000000000 ) ) ;
#241 = DIRECTION ( 'NONE',  ( 1.000000000000000000, 0.0000000000000000000, 0.0000000000000000000 ) ) ;
#242 = ORIENTED_EDGE ( 'NONE', *, *, #144, .F. ) ;
#243 = LENGTH_MEASURE_WITH_UNIT ( LENGTH_MEASURE( 0.02539999999999999897 ), #38 );
#244 = ORIENTED_EDGE ( 'NONE', *, *, #100, .F. ) ;
#245 = EDGE_CURVE ( 'NONE', #172, #211, #14, .T. ) ;
#246 = EDGE_LOOP ( 'NONE', ( #113, #77 ) ) ;
#247 = UNCERTAINTY_MEASURE_WITH_UNIT (LENGTH_MEASURE( 1.000000000000000082E-05 ), #202, 'distance_accuracy_value', 'NONE');
#248 = AXIS2_PLACEMENT_3D ( 'NONE', #234, #137, #201 ) ;
#249 = CARTESIAN_POINT ( 'NONE',  ( -0.05905500000000000332, 0.0000000000000000000, 1.496062999999999921 ) ) ;
ENDSEC;
END-ISO-10303-21;
