ISO-10303-21;
HEADER;
FILE_DESCRIPTION (( 'STEP AP214' ),
    '1' );
FILE_NAME ('Micro_RNC-312-1.STEP',
    '2021-09-03T17:37:10',
    ( '' ),
    ( '' ),
    'SwSTEP 2.0',
    'SolidWorks 2020',
    '' );
FILE_SCHEMA (( 'AUTOMOTIVE_DESIGN' ));
ENDSEC;

DATA;
#1 = SHAPE_DEFINITION_REPRESENTATION ( #82, #205 ) ;
#2 = ADVANCED_FACE ( 'NONE', ( #83 ), #233, .F. ) ;
#3 = DIRECTION ( 'NONE',  ( 0.0000000000000000000, 0.0000000000000000000, 1.000000000000000000 ) ) ;
#4 = DIRECTION ( 'NONE',  ( -0.0000000000000000000, -0.0000000000000000000, -1.000000000000000000 ) ) ;
#5 = CARTESIAN_POINT ( 'NONE',  ( 0.0000000000000000000, 0.0000000000000000000, 0.0000000000000000000 ) ) ;
#6 = ORIENTED_EDGE ( 'NONE', *, *, #208, .F. ) ;
#7 = DIRECTION ( 'NONE',  ( 1.000000000000000000, 0.0000000000000000000, 0.0000000000000000000 ) ) ;
#8 = EDGE_LOOP ( 'NONE', ( #158, #106, #44, #199 ) ) ;
#9 = EDGE_CURVE ( 'NONE', #22, #115, #235, .T. ) ;
#10 = CONICAL_SURFACE ( 'NONE', #42, 0.003999999999999999216, 0.7853981633974503884 ) ;
#11 = DIRECTION ( 'NONE',  ( -0.0000000000000000000, -0.0000000000000000000, -1.000000000000000000 ) ) ;
#12 = DIRECTION ( 'NONE',  ( 1.000000000000000000, 0.0000000000000000000, 0.0000000000000000000 ) ) ;
#13 = DIRECTION ( 'NONE',  ( -1.000000000000000000, 0.0000000000000000000, 0.0000000000000000000 ) ) ;
#14 = FACE_OUTER_BOUND ( 'NONE', #8, .T. ) ;
#15 = LENGTH_MEASURE_WITH_UNIT ( LENGTH_MEASURE( 0.02539999999999999897 ), #131 );
#16 = CYLINDRICAL_SURFACE ( 'NONE', #163, 0.1562500000000000000 ) ;
#17 = CARTESIAN_POINT ( 'NONE',  ( 0.1562500000000000000, 1.913510623667739463E-17, 2.484999999999999432 ) ) ;
#18 = ORIENTED_EDGE ( 'NONE', *, *, #9, .T. ) ;
#19 = CARTESIAN_POINT ( 'NONE',  ( -0.1562500000000000000, 0.0000000000000000000, 0.1522499999999993858 ) ) ;
#20 = DIRECTION ( 'NONE',  ( -0.7071067811865410224, 0.0000000000000000000, -0.7071067811865539010 ) ) ;
#21 = DIMENSIONAL_EXPONENTS ( 1.000000000000000000, 0.0000000000000000000, 0.0000000000000000000, 0.0000000000000000000, 0.0000000000000000000, 0.0000000000000000000, 0.0000000000000000000 ) ;
#22 = VERTEX_POINT ( 'NONE', #53 ) ;
#23 = AXIS2_PLACEMENT_3D ( 'NONE', #71, #148, #203 ) ;
#24 = ORIENTED_EDGE ( 'NONE', *, *, #206, .T. ) ;
#25 = FACE_OUTER_BOUND ( 'NONE', #81, .T. ) ;
#26 = DIRECTION ( 'NONE',  ( 0.0000000000000000000, 0.0000000000000000000, 1.000000000000000000 ) ) ;
#27 = PRODUCT_CONTEXT ( 'NONE', #102, 'mechanical' ) ;
#28 = CONICAL_SURFACE ( 'NONE', #104, 0.1412499999999994871, 0.7853981633974391752 ) ;
#29 = DIRECTION ( 'NONE',  ( 0.0000000000000000000, 0.0000000000000000000, 1.000000000000000000 ) ) ;
#30 = PRODUCT_RELATED_PRODUCT_CATEGORY ( 'part', '', ( #90 ) ) ;
#31 = AXIS2_PLACEMENT_3D ( 'NONE', #5, #47, #7 ) ;
#32 = DIRECTION ( 'NONE',  ( -0.0000000000000000000, -0.0000000000000000000, -1.000000000000000000 ) ) ;
#33 = DIRECTION ( 'NONE',  ( 1.000000000000000000, 0.0000000000000000000, 0.0000000000000000000 ) ) ;
#34 = CARTESIAN_POINT ( 'NONE',  ( 0.003999999999999999216, 0.0000000000000000000, 0.0000000000000000000 ) ) ;
#35 = LINE ( 'NONE', #244, #242 ) ;
#36 = DIRECTION ( 'NONE',  ( 0.0000000000000000000, 0.0000000000000000000, 1.000000000000000000 ) ) ;
#37 = AXIS2_PLACEMENT_3D ( 'NONE', #224, #51, #213 ) ;
#38 = AXIS2_PLACEMENT_3D ( 'NONE', #222, #29, #12 ) ;
#39 = EDGE_CURVE ( 'NONE', #121, #115, #94, .T. ) ;
#40 = SURFACE_SIDE_STYLE ('',( #214 ) ) ;
#41 = ORIENTED_EDGE ( 'NONE', *, *, #194, .T. ) ;
#42 = AXIS2_PLACEMENT_3D ( 'NONE', #151, #36, #33 ) ;
#43 = CIRCLE ( 'NONE', #147, 0.003999999999999999216 ) ;
#44 = ORIENTED_EDGE ( 'NONE', *, *, #248, .T. ) ;
#45 = MANIFOLD_SOLID_BREP ( 'Cut-Revolve1', #69 ) ;
#46 = CARTESIAN_POINT ( 'NONE',  ( 0.0000000000000000000, 0.0000000000000000000, 0.0000000000000000000 ) ) ;
#47 = DIRECTION ( 'NONE',  ( 0.0000000000000000000, 0.0000000000000000000, 1.000000000000000000 ) ) ;
#48 = ORIENTED_EDGE ( 'NONE', *, *, #63, .T. ) ;
#49 = DIRECTION ( 'NONE',  ( -1.000000000000000000, 0.0000000000000000000, 0.0000000000000000000 ) ) ;
#50 = AXIS2_PLACEMENT_3D ( 'NONE', #124, #3, #117 ) ;
#51 = DIRECTION ( 'NONE',  ( 0.0000000000000000000, 0.0000000000000000000, -1.000000000000000000 ) ) ;
#52 = ADVANCED_FACE ( 'NONE', ( #172 ), #10, .T. ) ;
#53 = CARTESIAN_POINT ( 'NONE',  ( -0.1562500000000000000, 0.0000000000000000000, 2.484999999999999432 ) ) ;
#54 = FACE_OUTER_BOUND ( 'NONE', #173, .T. ) ;
#55 =( NAMED_UNIT ( * ) SI_UNIT ( $, .STERADIAN. ) SOLID_ANGLE_UNIT ( ) );
#56 = DIRECTION ( 'NONE',  ( -1.000000000000000000, 0.0000000000000000000, 0.0000000000000000000 ) ) ;
#57 = EDGE_CURVE ( 'NONE', #93, #22, #185, .T. ) ;
#58 = VECTOR ( 'NONE', #68, 39.37007874015748854 ) ;
#59 = EDGE_LOOP ( 'NONE', ( #67, #48, #141, #155 ) ) ;
#60 = VERTEX_POINT ( 'NONE', #112 ) ;
#61 = PRESENTATION_STYLE_ASSIGNMENT (( #196 ) ) ;
#62 = EDGE_LOOP ( 'NONE', ( #24, #219 ) ) ;
#63 = EDGE_CURVE ( 'NONE', #93, #216, #156, .T. ) ;
#64 = CIRCLE ( 'NONE', #144, 0.1562500000000000000 ) ;
#65 = DIRECTION ( 'NONE',  ( -0.0000000000000000000, -0.0000000000000000000, -1.000000000000000000 ) ) ;
#66 = UNCERTAINTY_MEASURE_WITH_UNIT (LENGTH_MEASURE( 1.000000000000000082E-05 ), #165, 'distance_accuracy_value', 'NONE');
#67 = ORIENTED_EDGE ( 'NONE', *, *, #208, .T. ) ;
#68 = DIRECTION ( 'NONE',  ( 0.7071067811865410224, 8.659560562354852739E-17, -0.7071067811865539010 ) ) ;
#69 = CLOSED_SHELL ( 'NONE', ( #130, #100, #129, #125, #237, #103, #52, #2 ) ) ;
#70 = CIRCLE ( 'NONE', #226, 0.1562500000000000000 ) ;
#71 = CARTESIAN_POINT ( 'NONE',  ( 0.0000000000000000000, 0.0000000000000000000, 2.500000000000000000 ) ) ;
#72 = DIRECTION ( 'NONE',  ( 0.0000000000000000000, 0.0000000000000000000, -1.000000000000000000 ) ) ;
#73 = VECTOR ( 'NONE', #132, 39.37007874015748143 ) ;
#74 = AXIS2_PLACEMENT_3D ( 'NONE', #240, #32, #13 ) ;
#75 = CARTESIAN_POINT ( 'NONE',  ( -0.003999999999999999216, 9.812482478168165875E-18, 0.0000000000000000000 ) ) ;
#76 = EDGE_CURVE ( 'NONE', #115, #216, #218, .T. ) ;
#77 = ORIENTED_EDGE ( 'NONE', *, *, #57, .T. ) ;
#78 = CARTESIAN_POINT ( 'NONE',  ( -0.1412499999999994871, 0.0000000000000000000, 2.500000000000000000 ) ) ;
#79 = EDGE_LOOP ( 'NONE', ( #139, #197, #6, #96 ) ) ;
#80 = CONICAL_SURFACE ( 'NONE', #50, 0.003999999999999999216, 0.7853981633974503884 ) ;
#81 = EDGE_LOOP ( 'NONE', ( #142, #243, #175, #246 ) ) ;
#82 = PRODUCT_DEFINITION_SHAPE ( 'NONE', 'NONE',  #153 ) ;
#83 = FACE_OUTER_BOUND ( 'NONE', #62, .T. ) ;
#84 = COLOUR_RGB ( '',0.7921568627450980005, 0.8196078431372548767, 0.9333333333333333481 ) ;
#85 = AXIS2_PLACEMENT_3D ( 'NONE', #245, #114, #227 ) ;
#86 = CIRCLE ( 'NONE', #170, 0.003999999999999999216 ) ;
#87 = DIRECTION ( 'NONE',  ( 1.000000000000000000, 0.0000000000000000000, -0.0000000000000000000 ) ) ;
#88 = EDGE_CURVE ( 'NONE', #123, #216, #35, .T. ) ;
#89 = MECHANICAL_DESIGN_GEOMETRIC_PRESENTATION_REPRESENTATION (  '', ( #95 ), #127 ) ;
#90 = PRODUCT ( 'Micro_RNC-312-1', 'Micro_RNC-312-1', '', ( #27 ) ) ;
#91 = CARTESIAN_POINT ( 'NONE',  ( 0.0000000000000000000, 0.0000000000000000000, 2.500000000000000000 ) ) ;
#92 = SURFACE_STYLE_FILL_AREA ( #171 ) ;
#93 = VERTEX_POINT ( 'NONE', #17 ) ;
#94 = LINE ( 'NONE', #191, #232 ) ;
#95 = STYLED_ITEM ( 'NONE', ( #188 ), #45 ) ;
#96 = ORIENTED_EDGE ( 'NONE', *, *, #248, .F. ) ;
#97 = DIRECTION ( 'NONE',  ( 0.0000000000000000000, 0.0000000000000000000, -1.000000000000000000 ) ) ;
#98 = PRODUCT_DEFINITION_CONTEXT ( 'detailed design', #154, 'design' ) ;
#99 = DIRECTION ( 'NONE',  ( -0.0000000000000000000, -0.0000000000000000000, -1.000000000000000000 ) ) ;
#100 = ADVANCED_FACE ( 'NONE', ( #174 ), #28, .T. ) ;
#101 =( LENGTH_UNIT ( ) NAMED_UNIT ( * ) SI_UNIT ( $, .METRE. ) );
#102 = APPLICATION_CONTEXT ( 'automotive_design' ) ;
#103 = ADVANCED_FACE ( 'NONE', ( #14 ), #149, .T. ) ;
#104 = AXIS2_PLACEMENT_3D ( 'NONE', #113, #72, #186 ) ;
#105 = UNCERTAINTY_MEASURE_WITH_UNIT (LENGTH_MEASURE( 1.000000000000000082E-05 ), #138, 'distance_accuracy_value', 'NONE');
#106 = ORIENTED_EDGE ( 'NONE', *, *, #194, .F. ) ;
#107 = DIRECTION ( 'NONE',  ( -1.000000000000000000, 0.0000000000000000000, 0.0000000000000000000 ) ) ;
#108 = AXIS2_PLACEMENT_3D ( 'NONE', #207, #189, #204 ) ;
#109 = VECTOR ( 'NONE', #20, 39.37007874015748854 ) ;
#110 = MECHANICAL_DESIGN_GEOMETRIC_PRESENTATION_REPRESENTATION (  '', ( #221 ), #183 ) ;
#111 = DIRECTION ( 'NONE',  ( -0.7071067811865490160, 8.659560562354951347E-17, 0.7071067811865460184 ) ) ;
#112 = CARTESIAN_POINT ( 'NONE',  ( 0.1412499999999994871, 1.821662113731684786E-17, 2.500000000000000000 ) ) ;
#113 = CARTESIAN_POINT ( 'NONE',  ( 0.0000000000000000000, 0.0000000000000000000, 2.500000000000000000 ) ) ;
#114 = DIRECTION ( 'NONE',  ( 0.0000000000000000000, 0.0000000000000000000, 1.000000000000000000 ) ) ;
#115 = VERTEX_POINT ( 'NONE', #19 ) ;
#116 = CARTESIAN_POINT ( 'NONE',  ( 0.1562500000000000000, 1.913510623667739463E-17, 2.500000000000000000 ) ) ;
#117 = DIRECTION ( 'NONE',  ( 1.000000000000000000, 0.0000000000000000000, 0.0000000000000000000 ) ) ;
#118 = FILL_AREA_STYLE ('',( #136 ) ) ;
#119 = EDGE_LOOP ( 'NONE', ( #229, #190, #228, #231 ) ) ;
#120 =( LENGTH_UNIT ( ) NAMED_UNIT ( * ) SI_UNIT ( $, .METRE. ) );
#121 = VERTEX_POINT ( 'NONE', #75 ) ;
#122 = CARTESIAN_POINT ( 'NONE',  ( 0.1562500000000000000, 1.913510623667739463E-17, 0.1522499999999993858 ) ) ;
#123 = VERTEX_POINT ( 'NONE', #34 ) ;
#124 = CARTESIAN_POINT ( 'NONE',  ( 0.0000000000000000000, 0.0000000000000000000, 0.0000000000000000000 ) ) ;
#125 = ADVANCED_FACE ( 'NONE', ( #54 ), #211, .T. ) ;
#126 = DIRECTION ( 'NONE',  ( -0.0000000000000000000, -0.0000000000000000000, -1.000000000000000000 ) ) ;
#127 =( GEOMETRIC_REPRESENTATION_CONTEXT ( 3 ) GLOBAL_UNCERTAINTY_ASSIGNED_CONTEXT ( ( #105 ) ) GLOBAL_UNIT_ASSIGNED_CONTEXT ( ( #138, #210, #135 ) ) REPRESENTATION_CONTEXT ( 'NONE', 'WORKASPACE' ) );
#128 = UNCERTAINTY_MEASURE_WITH_UNIT (LENGTH_MEASURE( 1.000000000000000082E-05 ), #247, 'distance_accuracy_value', 'NONE');
#129 = ADVANCED_FACE ( 'NONE', ( #187 ), #16, .T. ) ;
#130 = ADVANCED_FACE ( 'NONE', ( #25 ), #80, .T. ) ;
#131 =( LENGTH_UNIT ( ) NAMED_UNIT ( * ) SI_UNIT ( $, .METRE. ) );
#132 = DIRECTION ( 'NONE',  ( -0.0000000000000000000, -0.0000000000000000000, -1.000000000000000000 ) ) ;
#133 = VECTOR ( 'NONE', #99, 39.37007874015748143 ) ;
#134 = DIRECTION ( 'NONE',  ( 0.7071067811865490160, 0.0000000000000000000, 0.7071067811865460184 ) ) ;
#135 =( NAMED_UNIT ( * ) SI_UNIT ( $, .STERADIAN. ) SOLID_ANGLE_UNIT ( ) );
#136 = FILL_AREA_STYLE_COLOUR ( '', #159 ) ;
#137 = EDGE_LOOP ( 'NONE', ( #41, #215 ) ) ;
#138 =( CONVERSION_BASED_UNIT ( 'INCH', #15 ) LENGTH_UNIT ( ) NAMED_UNIT ( #152 ) );
#139 = ORIENTED_EDGE ( 'NONE', *, *, #169, .F. ) ;
#140 = APPLICATION_PROTOCOL_DEFINITION ( 'draft international standard', 'automotive_design', 1998, #102 ) ;
#141 = ORIENTED_EDGE ( 'NONE', *, *, #76, .F. ) ;
#142 = ORIENTED_EDGE ( 'NONE', *, *, #178, .F. ) ;
#143 = FACE_OUTER_BOUND ( 'NONE', #137, .T. ) ;
#144 = AXIS2_PLACEMENT_3D ( 'NONE', #160, #97, #177 ) ;
#145 = CARTESIAN_POINT ( 'NONE',  ( -0.1562500000000000000, 0.0000000000000000000, 2.500000000000000000 ) ) ;
#146 = LINE ( 'NONE', #168, #58 ) ;
#147 = AXIS2_PLACEMENT_3D ( 'NONE', #46, #4, #195 ) ;
#148 = DIRECTION ( 'NONE',  ( 0.0000000000000000000, 0.0000000000000000000, 1.000000000000000000 ) ) ;
#149 = CONICAL_SURFACE ( 'NONE', #201, 0.1412499999999994871, 0.7853981633974391752 ) ;
#150 = EDGE_CURVE ( 'NONE', #60, #93, #146, .T. ) ;
#151 = CARTESIAN_POINT ( 'NONE',  ( 0.0000000000000000000, 0.0000000000000000000, 0.0000000000000000000 ) ) ;
#152 = DIMENSIONAL_EXPONENTS ( 1.000000000000000000, 0.0000000000000000000, 0.0000000000000000000, 0.0000000000000000000, 0.0000000000000000000, 0.0000000000000000000, 0.0000000000000000000 ) ;
#153 = PRODUCT_DEFINITION ( 'UNKNOWN', '', #236, #98 ) ;
#154 = APPLICATION_CONTEXT ( 'automotive_design' ) ;
#155 = ORIENTED_EDGE ( 'NONE', *, *, #9, .F. ) ;
#156 = LINE ( 'NONE', #116, #73 ) ;
#157 = LENGTH_MEASURE_WITH_UNIT ( LENGTH_MEASURE( 0.02539999999999999897 ), #101 );
#158 = ORIENTED_EDGE ( 'NONE', *, *, #150, .F. ) ;
#159 = COLOUR_RGB ( '',0.7921568627450980005, 0.8196078431372548767, 0.9333333333333333481 ) ;
#160 = CARTESIAN_POINT ( 'NONE',  ( 0.0000000000000000000, 0.0000000000000000000, 2.484999999999999432 ) ) ;
#161 = APPLICATION_PROTOCOL_DEFINITION ( 'draft international standard', 'automotive_design', 1998, #154 ) ;
#162 =( NAMED_UNIT ( * ) SI_UNIT ( $, .STERADIAN. ) SOLID_ANGLE_UNIT ( ) );
#163 = AXIS2_PLACEMENT_3D ( 'NONE', #164, #65, #217 ) ;
#164 = CARTESIAN_POINT ( 'NONE',  ( 0.0000000000000000000, 0.0000000000000000000, 2.500000000000000000 ) ) ;
#165 =( CONVERSION_BASED_UNIT ( 'INCH', #198 ) LENGTH_UNIT ( ) NAMED_UNIT ( #21 ) );
#166 = CARTESIAN_POINT ( 'NONE',  ( 0.0000000000000000000, 0.0000000000000000000, 0.1522499999999993858 ) ) ;
#167 = CARTESIAN_POINT ( 'NONE',  ( -0.1412499999999994871, 0.0000000000000000000, 2.500000000000000000 ) ) ;
#168 = CARTESIAN_POINT ( 'NONE',  ( 0.1412499999999994871, 1.729813603795630110E-17, 2.500000000000000000 ) ) ;
#169 = EDGE_CURVE ( 'NONE', #60, #179, #180, .T. ) ;
#170 = AXIS2_PLACEMENT_3D ( 'NONE', #184, #126, #107 ) ;
#171 = FILL_AREA_STYLE ('',( #238 ) ) ;
#172 = FACE_OUTER_BOUND ( 'NONE', #119, .T. ) ;
#173 = EDGE_LOOP ( 'NONE', ( #230, #77, #18, #182 ) ) ;
#174 = FACE_OUTER_BOUND ( 'NONE', #79, .T. ) ;
#175 = ORIENTED_EDGE ( 'NONE', *, *, #76, .T. ) ;
#176 = EDGE_CURVE ( 'NONE', #216, #115, #70, .T. ) ;
#177 = DIRECTION ( 'NONE',  ( 1.000000000000000000, 0.0000000000000000000, 0.0000000000000000000 ) ) ;
#178 = EDGE_CURVE ( 'NONE', #121, #123, #86, .T. ) ;
#179 = VERTEX_POINT ( 'NONE', #167 ) ;
#180 = CIRCLE ( 'NONE', #38, 0.1412499999999994871 ) ;
#181 =( NAMED_UNIT ( * ) PLANE_ANGLE_UNIT ( ) SI_UNIT ( $, .RADIAN. ) );
#182 = ORIENTED_EDGE ( 'NONE', *, *, #176, .F. ) ;
#183 =( GEOMETRIC_REPRESENTATION_CONTEXT ( 3 ) GLOBAL_UNCERTAINTY_ASSIGNED_CONTEXT ( ( #66 ) ) GLOBAL_UNIT_ASSIGNED_CONTEXT ( ( #165, #202, #162 ) ) REPRESENTATION_CONTEXT ( 'NONE', 'WORKASPACE' ) );
#184 = CARTESIAN_POINT ( 'NONE',  ( 0.0000000000000000000, 0.0000000000000000000, 0.0000000000000000000 ) ) ;
#185 = CIRCLE ( 'NONE', #37, 0.1562500000000000000 ) ;
#186 = DIRECTION ( 'NONE',  ( -1.000000000000000000, 0.0000000000000000000, 0.0000000000000000000 ) ) ;
#187 = FACE_OUTER_BOUND ( 'NONE', #59, .T. ) ;
#188 = PRESENTATION_STYLE_ASSIGNMENT (( #239 ) ) ;
#189 = DIRECTION ( 'NONE',  ( -0.0000000000000000000, -0.0000000000000000000, -1.000000000000000000 ) ) ;
#190 = ORIENTED_EDGE ( 'NONE', *, *, #206, .F. ) ;
#191 = CARTESIAN_POINT ( 'NONE',  ( -0.003999999999999999216, 4.898587196589411612E-19, 0.0000000000000000000 ) ) ;
#192 = CIRCLE ( 'NONE', #23, 0.1412499999999994871 ) ;
#193 = PRESENTATION_LAYER_ASSIGNMENT (  '', '', ( #221 ) ) ;
#194 = EDGE_CURVE ( 'NONE', #179, #60, #192, .T. ) ;
#195 = DIRECTION ( 'NONE',  ( -1.000000000000000000, 0.0000000000000000000, 0.0000000000000000000 ) ) ;
#196 = SURFACE_STYLE_USAGE ( .BOTH. , #40 ) ;
#197 = ORIENTED_EDGE ( 'NONE', *, *, #150, .T. ) ;
#198 = LENGTH_MEASURE_WITH_UNIT ( LENGTH_MEASURE( 0.02539999999999999897 ), #120 );
#199 = ORIENTED_EDGE ( 'NONE', *, *, #57, .F. ) ;
#200 = PLANE ( 'NONE',  #85 ) ;
#201 = AXIS2_PLACEMENT_3D ( 'NONE', #91, #225, #56 ) ;
#202 =( NAMED_UNIT ( * ) PLANE_ANGLE_UNIT ( ) SI_UNIT ( $, .RADIAN. ) );
#203 = DIRECTION ( 'NONE',  ( 1.000000000000000000, 0.0000000000000000000, 0.0000000000000000000 ) ) ;
#204 = DIRECTION ( 'NONE',  ( -1.000000000000000000, 0.0000000000000000000, 0.0000000000000000000 ) ) ;
#205 = ADVANCED_BREP_SHAPE_REPRESENTATION ( 'Micro_RNC-312-1', ( #45, #31 ), #234 ) ;
#206 = EDGE_CURVE ( 'NONE', #123, #121, #43, .T. ) ;
#207 = CARTESIAN_POINT ( 'NONE',  ( 0.0000000000000000000, 0.0000000000000000000, 0.1522499999999993858 ) ) ;
#208 = EDGE_CURVE ( 'NONE', #22, #93, #64, .T. ) ;
#209 = AXIS2_PLACEMENT_3D ( 'NONE', #220, #26, #87 ) ;
#210 =( NAMED_UNIT ( * ) PLANE_ANGLE_UNIT ( ) SI_UNIT ( $, .RADIAN. ) );
#211 = CYLINDRICAL_SURFACE ( 'NONE', #74, 0.1562500000000000000 ) ;
#212 = DIMENSIONAL_EXPONENTS ( 1.000000000000000000, 0.0000000000000000000, 0.0000000000000000000, 0.0000000000000000000, 0.0000000000000000000, 0.0000000000000000000, 0.0000000000000000000 ) ;
#213 = DIRECTION ( 'NONE',  ( 1.000000000000000000, 0.0000000000000000000, 0.0000000000000000000 ) ) ;
#214 = SURFACE_STYLE_FILL_AREA ( #118 ) ;
#215 = ORIENTED_EDGE ( 'NONE', *, *, #169, .T. ) ;
#216 = VERTEX_POINT ( 'NONE', #122 ) ;
#217 = DIRECTION ( 'NONE',  ( -1.000000000000000000, 0.0000000000000000000, 0.0000000000000000000 ) ) ;
#218 = CIRCLE ( 'NONE', #108, 0.1562500000000000000 ) ;
#219 = ORIENTED_EDGE ( 'NONE', *, *, #178, .T. ) ;
#220 = CARTESIAN_POINT ( 'NONE',  ( 0.0000000000000000000, 0.0000000000000000000, 0.0000000000000000000 ) ) ;
#221 = STYLED_ITEM ( 'NONE', ( #61 ), #205 ) ;
#222 = CARTESIAN_POINT ( 'NONE',  ( 0.0000000000000000000, 0.0000000000000000000, 2.500000000000000000 ) ) ;
#223 = PRESENTATION_LAYER_ASSIGNMENT (  '', '', ( #95 ) ) ;
#224 = CARTESIAN_POINT ( 'NONE',  ( 0.0000000000000000000, 0.0000000000000000000, 2.484999999999999432 ) ) ;
#225 = DIRECTION ( 'NONE',  ( 0.0000000000000000000, 0.0000000000000000000, -1.000000000000000000 ) ) ;
#226 = AXIS2_PLACEMENT_3D ( 'NONE', #166, #11, #49 ) ;
#227 = DIRECTION ( 'NONE',  ( 1.000000000000000000, 0.0000000000000000000, -0.0000000000000000000 ) ) ;
#228 = ORIENTED_EDGE ( 'NONE', *, *, #88, .T. ) ;
#229 = ORIENTED_EDGE ( 'NONE', *, *, #39, .F. ) ;
#230 = ORIENTED_EDGE ( 'NONE', *, *, #63, .F. ) ;
#231 = ORIENTED_EDGE ( 'NONE', *, *, #176, .T. ) ;
#232 = VECTOR ( 'NONE', #111, 39.37007874015748143 ) ;
#233 = PLANE ( 'NONE',  #209 ) ;
#234 =( GEOMETRIC_REPRESENTATION_CONTEXT ( 3 ) GLOBAL_UNCERTAINTY_ASSIGNED_CONTEXT ( ( #128 ) ) GLOBAL_UNIT_ASSIGNED_CONTEXT ( ( #247, #181, #55 ) ) REPRESENTATION_CONTEXT ( 'NONE', 'WORKASPACE' ) );
#235 = LINE ( 'NONE', #145, #133 ) ;
#236 = PRODUCT_DEFINITION_FORMATION_WITH_SPECIFIED_SOURCE ( 'ANY', '', #90, .NOT_KNOWN. ) ;
#237 = ADVANCED_FACE ( 'NONE', ( #143 ), #200, .T. ) ;
#238 = FILL_AREA_STYLE_COLOUR ( '', #84 ) ;
#239 = SURFACE_STYLE_USAGE ( .BOTH. , #241 ) ;
#240 = CARTESIAN_POINT ( 'NONE',  ( 0.0000000000000000000, 0.0000000000000000000, 2.500000000000000000 ) ) ;
#241 = SURFACE_SIDE_STYLE ('',( #92 ) ) ;
#242 = VECTOR ( 'NONE', #134, 39.37007874015748143 ) ;
#243 = ORIENTED_EDGE ( 'NONE', *, *, #39, .T. ) ;
#244 = CARTESIAN_POINT ( 'NONE',  ( 0.003999999999999999216, 0.0000000000000000000, 0.0000000000000000000 ) ) ;
#245 = CARTESIAN_POINT ( 'NONE',  ( 0.0000000000000000000, 0.0000000000000000000, 2.500000000000000000 ) ) ;
#246 = ORIENTED_EDGE ( 'NONE', *, *, #88, .F. ) ;
#247 =( CONVERSION_BASED_UNIT ( 'INCH', #157 ) LENGTH_UNIT ( ) NAMED_UNIT ( #212 ) );
#248 = EDGE_CURVE ( 'NONE', #179, #22, #249, .T. ) ;
#249 = LINE ( 'NONE', #78, #109 ) ;
ENDSEC;
END-ISO-10303-21;
