ISO-10303-21;
HEADER;
FILE_DESCRIPTION (( 'STEP AP214' ),
    '1' );
FILE_NAME ('Micro_SFBM-002-0.STEP',
    '2022-03-15T15:18:00',
    ( '' ),
    ( '' ),
    'SwSTEP 2.0',
    'SolidWorks 2022',
    '' );
FILE_SCHEMA (( 'AUTOMOTIVE_DESIGN' ));
ENDSEC;

DATA;
#1 = ORIENTED_EDGE ( 'NONE', *, *, #277, .T. ) ;
#2 = SURFACE_STYLE_FILL_AREA ( #5 ) ;
#3 = EDGE_LOOP ( 'NONE', ( #290, #286, #303, #57 ) ) ;
#4 = AXIS2_PLACEMENT_3D ( 'NONE', #27, #77, #280 ) ;
#5 = FILL_AREA_STYLE ('',( #109 ) ) ;
#6 = ORIENTED_EDGE ( 'NONE', *, *, #215, .T. ) ;
#7 = ORIENTED_EDGE ( 'NONE', *, *, #287, .T. ) ;
#8 = EDGE_CURVE ( 'NONE', #136, #257, #234, .T. ) ;
#9 =( NAMED_UNIT ( * ) SI_UNIT ( $, .STERADIAN. ) SOLID_ANGLE_UNIT ( ) );
#10 = APPLICATION_CONTEXT ( 'automotive_design' ) ;
#11 = CIRCLE ( 'NONE', #23, 0.1031100000000002570 ) ;
#12 = SURFACE_STYLE_FILL_AREA ( #314 ) ;
#13 = ADVANCED_FACE ( 'NONE', ( #161 ), #203, .T. ) ;
#14 = CARTESIAN_POINT ( 'NONE',  ( 0.000000000000000000, 0.000000000000000000, 2.244094000000000033 ) ) ;
#15 = EDGE_CURVE ( 'NONE', #30, #136, #43, .T. ) ;
#16 = VECTOR ( 'NONE', #322, 39.37007874015748143 ) ;
#17 = DIRECTION ( 'NONE',  ( 1.224646799147353207E-16, 0.000000000000000000, 1.000000000000000000 ) ) ;
#18 = EDGE_CURVE ( 'NONE', #83, #46, #155, .T. ) ;
#19 = CARTESIAN_POINT ( 'NONE',  ( -0.1031100000000002570, 0.000000000000000000, 2.244094000000000033 ) ) ;
#20 = EDGE_LOOP ( 'NONE', ( #198, #153, #6, #110 ) ) ;
#21 = DIRECTION ( 'NONE',  ( -1.000000000000000000, 0.000000000000000000, 0.000000000000000000 ) ) ;
#22 = ADVANCED_BREP_SHAPE_REPRESENTATION ( 'Micro_SFBM-002-0', ( #60, #220 ), #258 ) ;
#23 = AXIS2_PLACEMENT_3D ( 'NONE', #14, #264, #240 ) ;
#24 = DIRECTION ( 'NONE',  ( 0.000000000000000000, 0.000000000000000000, -1.000000000000000000 ) ) ;
#25 = EDGE_LOOP ( 'NONE', ( #180, #195, #1, #271 ) ) ;
#26 = DIRECTION ( 'NONE',  ( 0.000000000000000000, 0.000000000000000000, -1.000000000000000000 ) ) ;
#27 = CARTESIAN_POINT ( 'NONE',  ( 1.446430334472941858E-18, 0.000000000000000000, 0.01181100000000002287 ) ) ;
#28 = DIRECTION ( 'NONE',  ( 0.1736481776669313859, 0.000000000000000000, 0.9848077530122077983 ) ) ;
#29 = PRODUCT_CONTEXT ( 'NONE', #197, 'mechanical' ) ;
#30 = VERTEX_POINT ( 'NONE', #254 ) ;
#31 = DIRECTION ( 'NONE',  ( 1.000000000000000000, 0.000000000000000000, -0.000000000000000000 ) ) ;
#32 = ADVANCED_FACE ( 'NONE', ( #305 ), #37, .T. ) ;
#33 = CLOSED_SHELL ( 'NONE', ( #208, #226, #32, #188, #138, #38, #13, #173, #71, #133, #156 ) ) ;
#34 = ORIENTED_EDGE ( 'NONE', *, *, #167, .T. ) ;
#35 = CARTESIAN_POINT ( 'NONE',  ( 4.816613013794886010E-19, 0.000000000000000000, 0.003933062999999999663 ) ) ;
#36 =( CONVERSION_BASED_UNIT ( 'INCH', #88 ) LENGTH_UNIT ( ) NAMED_UNIT ( #309 ) );
#37 = CONICAL_SURFACE ( 'NONE', #154, 0.003933062999999984918, 0.1745329251994338915 ) ;
#38 = ADVANCED_FACE ( 'NONE', ( #283 ), #157, .T. ) ;
#39 = CARTESIAN_POINT ( 'NONE',  ( -0.1181100000000000066, 0.000000000000000000, 2.229093999999999465 ) ) ;
#40 = DIRECTION ( 'NONE',  ( -0.000000000000000000, -0.000000000000000000, -1.000000000000000000 ) ) ;
#41 = EDGE_CURVE ( 'NONE', #131, #257, #148, .T. ) ;
#42 = AXIS2_PLACEMENT_3D ( 'NONE', #152, #74, #145 ) ;
#43 = CIRCLE ( 'NONE', #4, 0.003933062999999984918 ) ;
#44 = DIRECTION ( 'NONE',  ( 0.000000000000000000, 1.000000000000000000, 0.000000000000000000 ) ) ;
#45 = CARTESIAN_POINT ( 'NONE',  ( -0.003933062999999984918, 0.000000000000000000, 0.003933062999999999663 ) ) ;
#46 = VERTEX_POINT ( 'NONE', #142 ) ;
#47 = CARTESIAN_POINT ( 'NONE',  ( 4.816613013794886010E-19, 0.000000000000000000, 0.003933062999999999663 ) ) ;
#48 = ORIENTED_EDGE ( 'NONE', *, *, #41, .F. ) ;
#49 = AXIS2_PLACEMENT_3D ( 'NONE', #218, #26, #21 ) ;
#50 = CARTESIAN_POINT ( 'NONE',  ( 4.816613013794886010E-19, 0.000000000000000000, 0.003933062999999999663 ) ) ;
#51 = DIRECTION ( 'NONE',  ( 1.000000000000000000, 0.000000000000000000, 0.000000000000000000 ) ) ;
#52 = APPLICATION_PROTOCOL_DEFINITION ( 'draft international standard', 'automotive_design', 1998, #197 ) ;
#53 = ORIENTED_EDGE ( 'NONE', *, *, #111, .F. ) ;
#54 = CONICAL_SURFACE ( 'NONE', #49, 0.1031100000000002570, 0.7853981633974318477 ) ;
#55 = CARTESIAN_POINT ( 'NONE',  ( 0.1031100000000002570, 1.262733314600838667E-17, 2.244094000000000033 ) ) ;
#56 = ORIENTED_EDGE ( 'NONE', *, *, #167, .F. ) ;
#57 = ORIENTED_EDGE ( 'NONE', *, *, #306, .T. ) ;
#58 = EDGE_CURVE ( 'NONE', #83, #228, #11, .T. ) ;
#59 = CARTESIAN_POINT ( 'NONE',  ( 0.003933062999999986653, 0.000000000000000000, 0.01181100000000002287 ) ) ;
#60 = MANIFOLD_SOLID_BREP ( 'Fillet1', #33 ) ;
#61 = DIRECTION ( 'NONE',  ( 0.000000000000000000, 0.000000000000000000, 1.000000000000000000 ) ) ;
#62 = DIRECTION ( 'NONE',  ( -1.224646799147353207E-16, -0.000000000000000000, -1.000000000000000000 ) ) ;
#63 = DIRECTION ( 'NONE',  ( 1.000000000000000000, 0.000000000000000000, 0.000000000000000000 ) ) ;
#64 = AXIS2_PLACEMENT_3D ( 'NONE', #72, #299, #172 ) ;
#65 = CARTESIAN_POINT ( 'NONE',  ( 0.1181100000000000066, 1.446430334472939084E-17, 2.244094000000000033 ) ) ;
#66 = DIRECTION ( 'NONE',  ( 0.000000000000000000, -1.000000000000000000, 0.000000000000000000 ) ) ;
#67 = AXIS2_PLACEMENT_3D ( 'NONE', #117, #17, #63 ) ;
#68 = DIRECTION ( 'NONE',  ( 0.000000000000000000, 0.000000000000000000, -1.000000000000000000 ) ) ;
#69 = EDGE_LOOP ( 'NONE', ( #298, #53, #275, #219 ) ) ;
#70 = DIRECTION ( 'NONE',  ( 1.000000000000000000, 0.000000000000000000, 0.000000000000000000 ) ) ;
#71 = ADVANCED_FACE ( 'NONE', ( #242 ), #100, .T. ) ;
#72 = CARTESIAN_POINT ( 'NONE',  ( 0.000000000000000000, 0.000000000000000000, 2.244094000000000033 ) ) ;
#73 = VERTEX_POINT ( 'NONE', #39 ) ;
#74 = DIRECTION ( 'NONE',  ( -1.224646799147353207E-16, -0.000000000000000000, -1.000000000000000000 ) ) ;
#75 = VECTOR ( 'NONE', #28, 39.37007874015748143 ) ;
#76 = DIRECTION ( 'NONE',  ( 1.000000000000000000, 0.000000000000000000, 0.000000000000000000 ) ) ;
#77 = DIRECTION ( 'NONE',  ( -1.224646799147353207E-16, -0.000000000000000000, -1.000000000000000000 ) ) ;
#78 =( LENGTH_UNIT ( ) NAMED_UNIT ( * ) SI_UNIT ( $, .METRE. ) );
#79 = CIRCLE ( 'NONE', #214, 0.003933062999999999663 ) ;
#80 = DIRECTION ( 'NONE',  ( 1.000000000000000000, 0.000000000000000000, 0.000000000000000000 ) ) ;
#81 = DIRECTION ( 'NONE',  ( 1.224646799147353207E-16, 0.000000000000000000, 1.000000000000000000 ) ) ;
#82 = DIMENSIONAL_EXPONENTS ( 1.000000000000000000, 0.000000000000000000, 0.000000000000000000, 0.000000000000000000, 0.000000000000000000, 0.000000000000000000, 0.000000000000000000 ) ;
#83 = VERTEX_POINT ( 'NONE', #114 ) ;
#84 = ORIENTED_EDGE ( 'NONE', *, *, #18, .T. ) ;
#85 = CYLINDRICAL_SURFACE ( 'NONE', #184, 0.003933062999999985786 ) ;
#86 = CARTESIAN_POINT ( 'NONE',  ( 0.003933062999999986653, 0.000000000000000000, 0.01181100000000002287 ) ) ;
#87 = EDGE_CURVE ( 'NONE', #136, #325, #266, .T. ) ;
#88 = LENGTH_MEASURE_WITH_UNIT ( LENGTH_MEASURE( 0.02539999999999999897 ), #116 );
#89 = VECTOR ( 'NONE', #301, 39.37007874015748143 ) ;
#90 = DIRECTION ( 'NONE',  ( -1.224646799147353207E-16, -0.000000000000000000, -1.000000000000000000 ) ) ;
#91 = DIRECTION ( 'NONE',  ( 1.224646799147353207E-16, 0.000000000000000000, 1.000000000000000000 ) ) ;
#92 = LINE ( 'NONE', #149, #229 ) ;
#93 = ORIENTED_EDGE ( 'NONE', *, *, #277, .F. ) ;
#94 = AXIS2_PLACEMENT_3D ( 'NONE', #47, #44, #51 ) ;
#95 = AXIS2_PLACEMENT_3D ( 'NONE', #272, #320, #96 ) ;
#96 = DIRECTION ( 'NONE',  ( -1.000000000000000000, 0.000000000000000000, 1.356612038155893713E-16 ) ) ;
#97 = EDGE_CURVE ( 'NONE', #46, #257, #187, .T. ) ;
#98 = CARTESIAN_POINT ( 'NONE',  ( -0.1031100000000002570, 0.000000000000000000, 2.244094000000000033 ) ) ;
#99 = LINE ( 'NONE', #98, #281 ) ;
#100 = CONICAL_SURFACE ( 'NONE', #67, 0.003933062999999984918, 0.1745329251994338915 ) ;
#101 = CARTESIAN_POINT ( 'NONE',  ( -0.003933062999999985786, 0.000000000000000000, 4.816613013794868676E-19 ) ) ;
#102 = ORIENTED_EDGE ( 'NONE', *, *, #58, .F. ) ;
#103 =( NAMED_UNIT ( * ) PLANE_ANGLE_UNIT ( ) SI_UNIT ( $, .RADIAN. ) );
#104 = EDGE_LOOP ( 'NONE', ( #209, #147, #232, #248 ) ) ;
#105 = SHAPE_DEFINITION_REPRESENTATION ( #192, #22 ) ;
#106 = CIRCLE ( 'NONE', #274, 0.1181100000000000066 ) ;
#107 = CARTESIAN_POINT ( 'NONE',  ( 0.000000000000000000, 0.000000000000000000, 2.244094000000000033 ) ) ;
#108 = DIMENSIONAL_EXPONENTS ( 1.000000000000000000, 0.000000000000000000, 0.000000000000000000, 0.000000000000000000, 0.000000000000000000, 0.000000000000000000, 0.000000000000000000 ) ;
#109 = FILL_AREA_STYLE_COLOUR ( '', #292 ) ;
#110 = ORIENTED_EDGE ( 'NONE', *, *, #151, .T. ) ;
#111 = EDGE_CURVE ( 'NONE', #228, #83, #115, .T. ) ;
#112 =( NAMED_UNIT ( * ) PLANE_ANGLE_UNIT ( ) SI_UNIT ( $, .RADIAN. ) );
#113 = EDGE_LOOP ( 'NONE', ( #252, #150, #185 ) ) ;
#114 = CARTESIAN_POINT ( 'NONE',  ( 0.1031100000000002570, 1.354581824536888722E-17, 2.244094000000000033 ) ) ;
#115 = CIRCLE ( 'NONE', #302, 0.1031100000000002570 ) ;
#116 =( LENGTH_UNIT ( ) NAMED_UNIT ( * ) SI_UNIT ( $, .METRE. ) );
#117 = CARTESIAN_POINT ( 'NONE',  ( 1.446430334472941858E-18, 0.000000000000000000, 0.01181100000000002287 ) ) ;
#118 = DIRECTION ( 'NONE',  ( 1.000000000000000000, 0.000000000000000000, 0.000000000000000000 ) ) ;
#119 = MECHANICAL_DESIGN_GEOMETRIC_PRESENTATION_REPRESENTATION (  '', ( #206 ), #239 ) ;
#120 = CARTESIAN_POINT ( 'NONE',  ( 0.003933062999999985786, 4.816613013794868676E-19, -4.816613013794868676E-19 ) ) ;
#121 = LINE ( 'NONE', #227, #16 ) ;
#122 = CARTESIAN_POINT ( 'NONE',  ( 4.816613013794886010E-19, 0.000000000000000000, 0.003933062999999999663 ) ) ;
#123 = PRODUCT_DEFINITION_FORMATION_WITH_SPECIFIED_SOURCE ( 'ANY', '', #194, .NOT_KNOWN. ) ;
#124 = VERTEX_POINT ( 'NONE', #213 ) ;
#125 = CIRCLE ( 'NONE', #297, 0.1181100000000000066 ) ;
#126 = CARTESIAN_POINT ( 'NONE',  ( 0.000000000000000000, 0.000000000000000000, 2.229093999999999465 ) ) ;
#127 = ORIENTED_EDGE ( 'NONE', *, *, #97, .F. ) ;
#128 = DIRECTION ( 'NONE',  ( 1.000000000000000000, 0.000000000000000000, 0.000000000000000000 ) ) ;
#129 = CARTESIAN_POINT ( 'NONE',  ( 0.1181100000000000899, 1.446430334472940009E-17, 0.6593405870277332381 ) ) ;
#130 = CIRCLE ( 'NONE', #201, 0.003933062999999999663 ) ;
#131 = VERTEX_POINT ( 'NONE', #316 ) ;
#132 = EDGE_LOOP ( 'NONE', ( #34, #256, #48, #204 ) ) ;
#133 = ADVANCED_FACE ( 'NONE', ( #211 ), #85, .T. ) ;
#134 =( CONVERSION_BASED_UNIT ( 'INCH', #200 ) LENGTH_UNIT ( ) NAMED_UNIT ( #82 ) );
#135 = CARTESIAN_POINT ( 'NONE',  ( 1.446430334472941858E-18, 0.000000000000000000, 0.01181100000000002287 ) ) ;
#136 = VERTEX_POINT ( 'NONE', #86 ) ;
#137 = ORIENTED_EDGE ( 'NONE', *, *, #310, .F. ) ;
#138 = ADVANCED_FACE ( 'NONE', ( #186 ), #267, .T. ) ;
#139 = SPHERICAL_SURFACE ( 'NONE', #94, 0.003933062999999999663 ) ;
#140 = CARTESIAN_POINT ( 'NONE',  ( 0.000000000000000000, 0.000000000000000000, 0.000000000000000000 ) ) ;
#141 = SURFACE_STYLE_USAGE ( .BOTH. , #238 ) ;
#142 = CARTESIAN_POINT ( 'NONE',  ( 0.1181100000000000066, 1.446430334472939084E-17, 2.229093999999999465 ) ) ;
#143 = AXIS2_PLACEMENT_3D ( 'NONE', #317, #91, #189 ) ;
#144 = DIRECTION ( 'NONE',  ( 0.000000000000000000, 0.000000000000000000, -1.000000000000000000 ) ) ;
#145 = DIRECTION ( 'NONE',  ( -1.000000000000000000, 0.000000000000000000, 0.000000000000000000 ) ) ;
#146 = FACE_OUTER_BOUND ( 'NONE', #210, .T. ) ;
#147 = ORIENTED_EDGE ( 'NONE', *, *, #268, .T. ) ;
#148 = CIRCLE ( 'NONE', #181, 0.1181100000000000066 ) ;
#149 = CARTESIAN_POINT ( 'NONE',  ( -0.003933062999999983184, 4.816613013794868676E-19, 0.01181100000000002287 ) ) ;
#150 = ORIENTED_EDGE ( 'NONE', *, *, #260, .T. ) ;
#151 = EDGE_CURVE ( 'NONE', #224, #325, #319, .T. ) ;
#152 = CARTESIAN_POINT ( 'NONE',  ( 1.446430334472941858E-18, 0.000000000000000000, 0.01181100000000002287 ) ) ;
#153 = ORIENTED_EDGE ( 'NONE', *, *, #225, .T. ) ;
#154 = AXIS2_PLACEMENT_3D ( 'NONE', #135, #81, #80 ) ;
#155 = LINE ( 'NONE', #55, #178 ) ;
#156 = ADVANCED_FACE ( 'NONE', ( #163 ), #139, .T. ) ;
#157 = CYLINDRICAL_SURFACE ( 'NONE', #312, 0.1181100000000000066 ) ;
#158 =( CONVERSION_BASED_UNIT ( 'INCH', #231 ) LENGTH_UNIT ( ) NAMED_UNIT ( #108 ) );
#159 = CARTESIAN_POINT ( 'NONE',  ( 0.000000000000000000, 0.000000000000000000, 2.244094000000000033 ) ) ;
#160 = CIRCLE ( 'NONE', #263, 0.1181100000000000066 ) ;
#161 = FACE_OUTER_BOUND ( 'NONE', #177, .T. ) ;
#162 = EDGE_CURVE ( 'NONE', #124, #224, #130, .T. ) ;
#163 = FACE_OUTER_BOUND ( 'NONE', #113, .T. ) ;
#164 = DIRECTION ( 'NONE',  ( -1.224646799147353207E-16, -0.000000000000000000, -1.000000000000000000 ) ) ;
#165 = MECHANICAL_DESIGN_GEOMETRIC_PRESENTATION_REPRESENTATION (  '', ( #262 ), #246 ) ;
#166 = PRESENTATION_STYLE_ASSIGNMENT (( #141 ) ) ;
#167 = EDGE_CURVE ( 'NONE', #73, #46, #125, .T. ) ;
#168 = CARTESIAN_POINT ( 'NONE',  ( 0.000000000000000000, 0.000000000000000000, 2.244094000000000033 ) ) ;
#169 = CARTESIAN_POINT ( 'NONE',  ( 8.074593394514503154E-17, 0.000000000000000000, 0.6593405870277332381 ) ) ;
#170 = PRODUCT_DEFINITION ( 'UNKNOWN', '', #123, #265 ) ;
#171 = PRESENTATION_LAYER_ASSIGNMENT (  '', '', ( #206 ) ) ;
#172 = DIRECTION ( 'NONE',  ( -1.000000000000000000, 0.000000000000000000, 0.000000000000000000 ) ) ;
#173 = ADVANCED_FACE ( 'NONE', ( #174 ), #54, .T. ) ;
#174 = FACE_OUTER_BOUND ( 'NONE', #69, .T. ) ;
#175 = UNCERTAINTY_MEASURE_WITH_UNIT (LENGTH_MEASURE( 1.000000000000000082E-05 ), #134, 'distance_accuracy_value', 'NONE');
#176 = DIRECTION ( 'NONE',  ( 0.000000000000000000, 1.000000000000000000, 0.000000000000000000 ) ) ;
#177 = EDGE_LOOP ( 'NONE', ( #250, #288 ) ) ;
#178 = VECTOR ( 'NONE', #182, 39.37007874015748854 ) ;
#179 = DIRECTION ( 'NONE',  ( 1.000000000000000000, 0.000000000000000000, 0.000000000000000000 ) ) ;
#180 = ORIENTED_EDGE ( 'NONE', *, *, #15, .T. ) ;
#181 = AXIS2_PLACEMENT_3D ( 'NONE', #236, #164, #212 ) ;
#182 = DIRECTION ( 'NONE',  ( 0.7071067811865358044, 8.659560562354788645E-17, -0.7071067811865590080 ) ) ;
#183 = ORIENTED_EDGE ( 'NONE', *, *, #284, .T. ) ;
#184 = AXIS2_PLACEMENT_3D ( 'NONE', #140, #90, #295 ) ;
#185 = ORIENTED_EDGE ( 'NONE', *, *, #151, .F. ) ;
#186 = FACE_OUTER_BOUND ( 'NONE', #132, .T. ) ;
#187 = LINE ( 'NONE', #65, #243 ) ;
#188 = ADVANCED_FACE ( 'NONE', ( #223 ), #191, .T. ) ;
#189 = DIRECTION ( 'NONE',  ( -1.000000000000000000, 0.000000000000000000, 1.356612038155893713E-16 ) ) ;
#190 =( LENGTH_UNIT ( ) NAMED_UNIT ( * ) SI_UNIT ( $, .METRE. ) );
#191 = CONICAL_SURFACE ( 'NONE', #64, 0.1031100000000002570, 0.7853981633974318477 ) ;
#192 = PRODUCT_DEFINITION_SHAPE ( 'NONE', 'NONE',  #170 ) ;
#193 = CARTESIAN_POINT ( 'NONE',  ( 0.003933062999999985786, 4.816613013794868676E-19, 0.003933062999999998796 ) ) ;
#194 = PRODUCT ( 'Micro_SFBM-002-0', 'Micro_SFBM-002-0', '', ( #29 ) ) ;
#195 = ORIENTED_EDGE ( 'NONE', *, *, #87, .T. ) ;
#196 = DIRECTION ( 'NONE',  ( -1.000000000000000000, 1.224646799147353207E-16, 0.000000000000000000 ) ) ;
#197 = APPLICATION_CONTEXT ( 'automotive_design' ) ;
#198 = ORIENTED_EDGE ( 'NONE', *, *, #87, .F. ) ;
#199 = UNCERTAINTY_MEASURE_WITH_UNIT (LENGTH_MEASURE( 1.000000000000000082E-05 ), #36, 'distance_accuracy_value', 'NONE');
#200 = LENGTH_MEASURE_WITH_UNIT ( LENGTH_MEASURE( 0.02539999999999999897 ), #190 );
#201 = AXIS2_PLACEMENT_3D ( 'NONE', #35, #300, #196 ) ;
#202 = FACE_OUTER_BOUND ( 'NONE', #25, .T. ) ;
#203 = PLANE ( 'NONE',  #323 ) ;
#204 = ORIENTED_EDGE ( 'NONE', *, *, #287, .F. ) ;
#205 = PRESENTATION_LAYER_ASSIGNMENT (  '', '', ( #262 ) ) ;
#206 = STYLED_ITEM ( 'NONE', ( #166 ), #60 ) ;
#207 = DIRECTION ( 'NONE',  ( -0.000000000000000000, -0.000000000000000000, -1.000000000000000000 ) ) ;
#208 = ADVANCED_FACE ( 'NONE', ( #146 ), #270, .T. ) ;
#209 = ORIENTED_EDGE ( 'NONE', *, *, #15, .F. ) ;
#210 = EDGE_LOOP ( 'NONE', ( #230, #276, #93 ) ) ;
#211 = FACE_OUTER_BOUND ( 'NONE', #20, .T. ) ;
#212 = DIRECTION ( 'NONE',  ( 1.000000000000000000, 0.000000000000000000, 0.000000000000000000 ) ) ;
#213 = CARTESIAN_POINT ( 'NONE',  ( 7.224919520692327570E-19, 0.000000000000000000, 0.000000000000000000 ) ) ;
#214 = AXIS2_PLACEMENT_3D ( 'NONE', #50, #66, #68 ) ;
#215 = EDGE_CURVE ( 'NONE', #30, #224, #244, .T. ) ;
#216 = DIRECTION ( 'NONE',  ( -1.000000000000000000, 0.000000000000000000, 0.000000000000000000 ) ) ;
#217 = UNCERTAINTY_MEASURE_WITH_UNIT (LENGTH_MEASURE( 1.000000000000000082E-05 ), #158, 'distance_accuracy_value', 'NONE');
#218 = CARTESIAN_POINT ( 'NONE',  ( 0.000000000000000000, 0.000000000000000000, 2.244094000000000033 ) ) ;
#219 = ORIENTED_EDGE ( 'NONE', *, *, #284, .F. ) ;
#220 = AXIS2_PLACEMENT_3D ( 'NONE', #255, #278, #76 ) ;
#221 = DIRECTION ( 'NONE',  ( -0.1736481776669311916, 2.126576849575783316E-17, 0.9848077530122080203 ) ) ;
#222 = AXIS2_PLACEMENT_3D ( 'NONE', #273, #245, #296 ) ;
#223 = FACE_OUTER_BOUND ( 'NONE', #259, .T. ) ;
#224 = VERTEX_POINT ( 'NONE', #45 ) ;
#225 = EDGE_CURVE ( 'NONE', #136, #30, #315, .T. ) ;
#226 = ADVANCED_FACE ( 'NONE', ( #202 ), #247, .T. ) ;
#227 = CARTESIAN_POINT ( 'NONE',  ( -0.1181100000000000066, 0.000000000000000000, 2.244094000000000033 ) ) ;
#228 = VERTEX_POINT ( 'NONE', #19 ) ;
#229 = VECTOR ( 'NONE', #221, 39.37007874015747433 ) ;
#230 = ORIENTED_EDGE ( 'NONE', *, *, #260, .F. ) ;
#231 = LENGTH_MEASURE_WITH_UNIT ( LENGTH_MEASURE( 0.02539999999999999897 ), #78 );
#232 = ORIENTED_EDGE ( 'NONE', *, *, #41, .T. ) ;
#233 =( NAMED_UNIT ( * ) SI_UNIT ( $, .STERADIAN. ) SOLID_ANGLE_UNIT ( ) );
#234 = LINE ( 'NONE', #59, #75 ) ;
#235 = AXIS2_PLACEMENT_3D ( 'NONE', #122, #176, #128 ) ;
#236 = CARTESIAN_POINT ( 'NONE',  ( 8.074593394514503154E-17, 0.000000000000000000, 0.6593405870277332381 ) ) ;
#237 = EDGE_LOOP ( 'NONE', ( #127, #183, #7, #311 ) ) ;
#238 = SURFACE_SIDE_STYLE ('',( #12 ) ) ;
#239 =( GEOMETRIC_REPRESENTATION_CONTEXT ( 3 ) GLOBAL_UNCERTAINTY_ASSIGNED_CONTEXT ( ( #199 ) ) GLOBAL_UNIT_ASSIGNED_CONTEXT ( ( #36, #313, #9 ) ) REPRESENTATION_CONTEXT ( 'NONE', 'WORKASPACE' ) );
#240 = DIRECTION ( 'NONE',  ( 1.000000000000000000, 0.000000000000000000, 0.000000000000000000 ) ) ;
#241 = DIRECTION ( 'NONE',  ( 0.000000000000000000, 0.000000000000000000, 1.000000000000000000 ) ) ;
#242 = FACE_OUTER_BOUND ( 'NONE', #3, .T. ) ;
#243 = VECTOR ( 'NONE', #261, 39.37007874015748143 ) ;
#244 = LINE ( 'NONE', #101, #89 ) ;
#245 = DIRECTION ( 'NONE',  ( -1.224646799147353207E-16, -0.000000000000000000, -1.000000000000000000 ) ) ;
#246 =( GEOMETRIC_REPRESENTATION_CONTEXT ( 3 ) GLOBAL_UNCERTAINTY_ASSIGNED_CONTEXT ( ( #217 ) ) GLOBAL_UNIT_ASSIGNED_CONTEXT ( ( #158, #103, #233 ) ) REPRESENTATION_CONTEXT ( 'NONE', 'WORKASPACE' ) );
#247 = CYLINDRICAL_SURFACE ( 'NONE', #222, 0.003933062999999985786 ) ;
#248 = ORIENTED_EDGE ( 'NONE', *, *, #8, .F. ) ;
#249 = DIRECTION ( 'NONE',  ( -0.7071067811865358044, 0.000000000000000000, -0.7071067811865590080 ) ) ;
#250 = ORIENTED_EDGE ( 'NONE', *, *, #111, .T. ) ;
#251 = CARTESIAN_POINT ( 'NONE',  ( 0.000000000000000000, 0.000000000000000000, 2.229093999999999465 ) ) ;
#252 = ORIENTED_EDGE ( 'NONE', *, *, #162, .F. ) ;
#253 = VECTOR ( 'NONE', #62, 39.37007874015748143 ) ;
#254 = CARTESIAN_POINT ( 'NONE',  ( -0.003933062999999983184, 7.472982323054439386E-18, 0.01181100000000002287 ) ) ;
#255 = CARTESIAN_POINT ( 'NONE',  ( 0.000000000000000000, 0.000000000000000000, 0.000000000000000000 ) ) ;
#256 = ORIENTED_EDGE ( 'NONE', *, *, #97, .T. ) ;
#257 = VERTEX_POINT ( 'NONE', #129 ) ;
#258 =( GEOMETRIC_REPRESENTATION_CONTEXT ( 3 ) GLOBAL_UNCERTAINTY_ASSIGNED_CONTEXT ( ( #175 ) ) GLOBAL_UNIT_ASSIGNED_CONTEXT ( ( #134, #112, #282 ) ) REPRESENTATION_CONTEXT ( 'NONE', 'WORKASPACE' ) );
#259 = EDGE_LOOP ( 'NONE', ( #102, #84, #56, #137 ) ) ;
#260 = EDGE_CURVE ( 'NONE', #124, #325, #79, .T. ) ;
#261 = DIRECTION ( 'NONE',  ( -0.000000000000000000, -0.000000000000000000, -1.000000000000000000 ) ) ;
#262 = STYLED_ITEM ( 'NONE', ( #307 ), #22 ) ;
#263 = AXIS2_PLACEMENT_3D ( 'NONE', #251, #24, #321 ) ;
#264 = DIRECTION ( 'NONE',  ( 0.000000000000000000, 0.000000000000000000, 1.000000000000000000 ) ) ;
#265 = PRODUCT_DEFINITION_CONTEXT ( 'detailed design', #10, 'design' ) ;
#266 = LINE ( 'NONE', #120, #253 ) ;
#267 = CYLINDRICAL_SURFACE ( 'NONE', #289, 0.1181100000000000066 ) ;
#268 = EDGE_CURVE ( 'NONE', #30, #131, #92, .T. ) ;
#269 = CIRCLE ( 'NONE', #95, 0.003933062999999985786 ) ;
#270 = SPHERICAL_SURFACE ( 'NONE', #235, 0.003933062999999999663 ) ;
#271 = ORIENTED_EDGE ( 'NONE', *, *, #215, .F. ) ;
#272 = CARTESIAN_POINT ( 'NONE',  ( 4.816613013794886010E-19, 0.000000000000000000, 0.003933062999999999663 ) ) ;
#273 = CARTESIAN_POINT ( 'NONE',  ( 0.000000000000000000, 0.000000000000000000, 0.000000000000000000 ) ) ;
#274 = AXIS2_PLACEMENT_3D ( 'NONE', #169, #318, #179 ) ;
#275 = ORIENTED_EDGE ( 'NONE', *, *, #310, .T. ) ;
#276 = ORIENTED_EDGE ( 'NONE', *, *, #162, .T. ) ;
#277 = EDGE_CURVE ( 'NONE', #325, #224, #269, .T. ) ;
#278 = DIRECTION ( 'NONE',  ( 0.000000000000000000, 0.000000000000000000, 1.000000000000000000 ) ) ;
#279 = APPLICATION_PROTOCOL_DEFINITION ( 'draft international standard', 'automotive_design', 1998, #10 ) ;
#280 = DIRECTION ( 'NONE',  ( -1.000000000000000000, 0.000000000000000000, 0.000000000000000000 ) ) ;
#281 = VECTOR ( 'NONE', #249, 39.37007874015748854 ) ;
#282 =( NAMED_UNIT ( * ) SI_UNIT ( $, .STERADIAN. ) SOLID_ANGLE_UNIT ( ) );
#283 = FACE_OUTER_BOUND ( 'NONE', #237, .T. ) ;
#284 = EDGE_CURVE ( 'NONE', #46, #73, #160, .T. ) ;
#285 = PRODUCT_RELATED_PRODUCT_CATEGORY ( 'part', '', ( #194 ) ) ;
#286 = ORIENTED_EDGE ( 'NONE', *, *, #225, .F. ) ;
#287 = EDGE_CURVE ( 'NONE', #73, #131, #121, .T. ) ;
#288 = ORIENTED_EDGE ( 'NONE', *, *, #58, .T. ) ;
#289 = AXIS2_PLACEMENT_3D ( 'NONE', #291, #40, #216 ) ;
#290 = ORIENTED_EDGE ( 'NONE', *, *, #268, .F. ) ;
#291 = CARTESIAN_POINT ( 'NONE',  ( 0.000000000000000000, 0.000000000000000000, 2.244094000000000033 ) ) ;
#292 = COLOUR_RGB ( '',0.7921568627450980005, 0.8196078431372548767, 0.9333333333333333481 ) ;
#293 = COLOUR_RGB ( '',0.7921568627450980005, 0.8196078431372548767, 0.9333333333333333481 ) ;
#294 = FILL_AREA_STYLE_COLOUR ( '', #293 ) ;
#295 = DIRECTION ( 'NONE',  ( -1.000000000000000000, 0.000000000000000000, 1.224646799147353207E-16 ) ) ;
#296 = DIRECTION ( 'NONE',  ( -1.000000000000000000, 0.000000000000000000, 1.224646799147353207E-16 ) ) ;
#297 = AXIS2_PLACEMENT_3D ( 'NONE', #126, #144, #70 ) ;
#298 = ORIENTED_EDGE ( 'NONE', *, *, #18, .F. ) ;
#299 = DIRECTION ( 'NONE',  ( 0.000000000000000000, 0.000000000000000000, -1.000000000000000000 ) ) ;
#300 = DIRECTION ( 'NONE',  ( 1.224646799147353207E-16, 1.000000000000000000, -0.000000000000000000 ) ) ;
#301 = DIRECTION ( 'NONE',  ( -1.224646799147353207E-16, -0.000000000000000000, -1.000000000000000000 ) ) ;
#302 = AXIS2_PLACEMENT_3D ( 'NONE', #168, #241, #118 ) ;
#303 = ORIENTED_EDGE ( 'NONE', *, *, #8, .T. ) ;
#304 = SURFACE_SIDE_STYLE ('',( #2 ) ) ;
#305 = FACE_OUTER_BOUND ( 'NONE', #104, .T. ) ;
#306 = EDGE_CURVE ( 'NONE', #257, #131, #106, .T. ) ;
#307 = PRESENTATION_STYLE_ASSIGNMENT (( #324 ) ) ;
#308 = DIRECTION ( 'NONE',  ( -1.000000000000000000, 0.000000000000000000, 0.000000000000000000 ) ) ;
#309 = DIMENSIONAL_EXPONENTS ( 1.000000000000000000, 0.000000000000000000, 0.000000000000000000, 0.000000000000000000, 0.000000000000000000, 0.000000000000000000, 0.000000000000000000 ) ;
#310 = EDGE_CURVE ( 'NONE', #228, #73, #99, .T. ) ;
#311 = ORIENTED_EDGE ( 'NONE', *, *, #306, .F. ) ;
#312 = AXIS2_PLACEMENT_3D ( 'NONE', #107, #207, #308 ) ;
#313 =( NAMED_UNIT ( * ) PLANE_ANGLE_UNIT ( ) SI_UNIT ( $, .RADIAN. ) );
#314 = FILL_AREA_STYLE ('',( #294 ) ) ;
#315 = CIRCLE ( 'NONE', #42, 0.003933062999999984918 ) ;
#316 = CARTESIAN_POINT ( 'NONE',  ( -0.1181099999999999234, 0.000000000000000000, 0.6593405870277332381 ) ) ;
#317 = CARTESIAN_POINT ( 'NONE',  ( 4.816613013794886010E-19, 0.000000000000000000, 0.003933062999999999663 ) ) ;
#318 = DIRECTION ( 'NONE',  ( -1.224646799147353207E-16, -0.000000000000000000, -1.000000000000000000 ) ) ;
#319 = CIRCLE ( 'NONE', #143, 0.003933062999999985786 ) ;
#320 = DIRECTION ( 'NONE',  ( 1.224646799147353207E-16, 0.000000000000000000, 1.000000000000000000 ) ) ;
#321 = DIRECTION ( 'NONE',  ( 1.000000000000000000, 0.000000000000000000, 0.000000000000000000 ) ) ;
#322 = DIRECTION ( 'NONE',  ( -0.000000000000000000, -0.000000000000000000, -1.000000000000000000 ) ) ;
#323 = AXIS2_PLACEMENT_3D ( 'NONE', #159, #61, #31 ) ;
#324 = SURFACE_STYLE_USAGE ( .BOTH. , #304 ) ;
#325 = VERTEX_POINT ( 'NONE', #193 ) ;
ENDSEC;
END-ISO-10303-21;
