ISO-10303-21;
HEADER;
FILE_DESCRIPTION (( 'STEP AP214' ),
    '1' );
FILE_NAME ('59507.STEP',
    '2023-07-24T15:08:18',
    ( '' ),
    ( '' ),
    'SwSTEP 2.0',
    'SolidWorks 2023',
    '' );
FILE_SCHEMA (( 'AUTOMOTIVE_DESIGN' ));
ENDSEC;

DATA;
#1 = SURFACE_STYLE_USAGE ( .BOTH. , #239 ) ;
#2 = AXIS2_PLACEMENT_3D ( 'NONE', #188, #335, #280 ) ;
#3 = PRESENTATION_LAYER_ASSIGNMENT (  '', '', ( #42 ) ) ;
#4 = DIRECTION ( 'NONE',  ( 0.000000000000000000, 0.000000000000000000, -1.000000000000000000 ) ) ;
#5 = CARTESIAN_POINT ( 'NONE',  ( 0.000000000000000000, 0.000000000000000000, -10.00000000000000178 ) ) ;
#6 =( GEOMETRIC_REPRESENTATION_CONTEXT ( 3 ) GLOBAL_UNCERTAINTY_ASSIGNED_CONTEXT ( ( #28 ) ) GLOBAL_UNIT_ASSIGNED_CONTEXT ( ( #284, #95, #224 ) ) REPRESENTATION_CONTEXT ( 'NONE', 'WORKASPACE' ) );
#7 = PRESENTATION_LAYER_ASSIGNMENT (  '', '', ( #290 ) ) ;
#8 = PLANE ( 'NONE',  #356 ) ;
#9 = SURFACE_STYLE_USAGE ( .BOTH. , #276 ) ;
#10 = SURFACE_SIDE_STYLE ('',( #39 ) ) ;
#11 = FACE_OUTER_BOUND ( 'NONE', #51, .T. ) ;
#12 = STYLED_ITEM ( 'NONE', ( #202 ), #169 ) ;
#13 = DIRECTION ( 'NONE',  ( 0.000000000000000000, 0.000000000000000000, -1.000000000000000000 ) ) ;
#14 = CIRCLE ( 'NONE', #187, 10.00000000000000178 ) ;
#15 = VERTEX_POINT ( 'NONE', #283 ) ;
#16 = CARTESIAN_POINT ( 'NONE',  ( -10.00000000000001066, 124.9999999999999858, 0.000000000000000000 ) ) ;
#17 = SURFACE_STYLE_USAGE ( .BOTH. , #128 ) ;
#18 = EDGE_CURVE ( 'NONE', #167, #192, #342, .T. ) ;
#19 = ORIENTED_EDGE ( 'NONE', *, *, #258, .T. ) ;
#20 = ORIENTED_EDGE ( 'NONE', *, *, #357, .F. ) ;
#21 =( LENGTH_UNIT ( ) NAMED_UNIT ( * ) SI_UNIT ( .MILLI., .METRE. ) );
#22 = ORIENTED_EDGE ( 'NONE', *, *, #264, .T. ) ;
#23 = FILL_AREA_STYLE ('',( #370 ) ) ;
#24 = AXIS2_PLACEMENT_3D ( 'NONE', #282, #96, #220 ) ;
#25 =( NAMED_UNIT ( * ) SI_UNIT ( $, .STERADIAN. ) SOLID_ANGLE_UNIT ( ) );
#26 = UNCERTAINTY_MEASURE_WITH_UNIT (LENGTH_MEASURE( 1.000000000000000082E-05 ), #65, 'distance_accuracy_value', 'NONE');
#27 =( NAMED_UNIT ( * ) SI_UNIT ( $, .STERADIAN. ) SOLID_ANGLE_UNIT ( ) );
#28 = UNCERTAINTY_MEASURE_WITH_UNIT (LENGTH_MEASURE( 1.000000000000000082E-05 ), #284, 'distance_accuracy_value', 'NONE');
#29 = SURFACE_STYLE_FILL_AREA ( #60 ) ;
#30 =( LENGTH_UNIT ( ) NAMED_UNIT ( * ) SI_UNIT ( .MILLI., .METRE. ) );
#31 = AXIS2_PLACEMENT_3D ( 'NONE', #68, #228, #333 ) ;
#32 = MECHANICAL_DESIGN_GEOMETRIC_PRESENTATION_REPRESENTATION (  '', ( #179 ), #120 ) ;
#33 =( NAMED_UNIT ( * ) SI_UNIT ( $, .STERADIAN. ) SOLID_ANGLE_UNIT ( ) );
#34 = UNCERTAINTY_MEASURE_WITH_UNIT (LENGTH_MEASURE( 1.000000000000000082E-05 ), #94, 'distance_accuracy_value', 'NONE');
#35 = AXIS2_PLACEMENT_3D ( 'NONE', #211, #304, #150 ) ;
#36 = CIRCLE ( 'NONE', #76, 1.000000000000000888 ) ;
#37 = DIRECTION ( 'NONE',  ( -0.000000000000000000, -1.000000000000000000, -0.000000000000000000 ) ) ;
#38 = CARTESIAN_POINT ( 'NONE',  ( 0.000000000000000000, 1.000000000000000000, 0.000000000000000000 ) ) ;
#39 = SURFACE_STYLE_FILL_AREA ( #212 ) ;
#40 = DIRECTION ( 'NONE',  ( 1.000000000000000000, 0.000000000000000000, 0.000000000000000000 ) ) ;
#41 = FILL_AREA_STYLE ('',( #158 ) ) ;
#42 = STYLED_ITEM ( 'NONE', ( #154 ), #300 ) ;
#43 = CARTESIAN_POINT ( 'NONE',  ( 1.163414459189985682E-15, 0.000000000000000000, 9.000000000000001776 ) ) ;
#44 = CLOSED_SHELL ( 'NONE', ( #271, #336, #237, #195 ) ) ;
#45 = PLANE ( 'NONE',  #31 ) ;
#46 = EDGE_LOOP ( 'NONE', ( #231, #126, #74, #193 ) ) ;
#47 = SURFACE_STYLE_USAGE ( .BOTH. , #99 ) ;
#48 = DIRECTION ( 'NONE',  ( -0.000000000000000000, -1.000000000000000000, -0.000000000000000000 ) ) ;
#49 = CARTESIAN_POINT ( 'NONE',  ( 1.102182119232617911E-15, 1.000000000000000000, 9.000000000000001776 ) ) ;
#50 = STYLED_ITEM ( 'NONE', ( #343 ), #219 ) ;
#51 = EDGE_LOOP ( 'NONE', ( #225, #186 ) ) ;
#52 =( LENGTH_UNIT ( ) NAMED_UNIT ( * ) SI_UNIT ( .MILLI., .METRE. ) );
#53 = ORIENTED_EDGE ( 'NONE', *, *, #190, .T. ) ;
#54 = DIRECTION ( 'NONE',  ( 0.000000000000000000, 0.000000000000000000, -1.000000000000000000 ) ) ;
#55 = ORIENTED_EDGE ( 'NONE', *, *, #190, .F. ) ;
#56 = SURFACE_SIDE_STYLE ('',( #260 ) ) ;
#57 = AXIS2_PLACEMENT_3D ( 'NONE', #215, #341, #13 ) ;
#58 = CARTESIAN_POINT ( 'NONE',  ( 0.000000000000000000, 0.000000000000000000, 0.000000000000000000 ) ) ;
#59 = APPLICATION_CONTEXT ( 'automotive_design' ) ;
#60 = FILL_AREA_STYLE ('',( #263 ) ) ;
#61 = DIRECTION ( 'NONE',  ( -1.252807796048505441E-16, 1.000000000000000000, -0.000000000000000000 ) ) ;
#62 = EDGE_CURVE ( 'NONE', #131, #105, #315, .T. ) ;
#63 = SURFACE_SIDE_STYLE ('',( #326 ) ) ;
#64 = FACE_OUTER_BOUND ( 'NONE', #339, .T. ) ;
#65 =( LENGTH_UNIT ( ) NAMED_UNIT ( * ) SI_UNIT ( .MILLI., .METRE. ) );
#66 = DIRECTION ( 'NONE',  ( -0.000000000000000000, -1.000000000000000000, -0.000000000000000000 ) ) ;
#67 = FILL_AREA_STYLE_COLOUR ( '', #116 ) ;
#68 = CARTESIAN_POINT ( 'NONE',  ( 10.00000000000000000, 124.9999999999999858, 0.000000000000000000 ) ) ;
#69 = PRESENTATION_LAYER_ASSIGNMENT (  '', '', ( #242 ) ) ;
#70 = ORIENTED_EDGE ( 'NONE', *, *, #233, .F. ) ;
#71 = EDGE_CURVE ( 'NONE', #320, #222, #14, .T. ) ;
#72 = ORIENTED_EDGE ( 'NONE', *, *, #152, .T. ) ;
#73 = SURFACE_STYLE_FILL_AREA ( #153 ) ;
#74 = ORIENTED_EDGE ( 'NONE', *, *, #177, .T. ) ;
#75 = EDGE_CURVE ( 'NONE', #105, #131, #244, .T. ) ;
#76 = AXIS2_PLACEMENT_3D ( 'NONE', #49, #368, #292 ) ;
#77 = FACE_OUTER_BOUND ( 'NONE', #345, .T. ) ;
#78 = ORIENTED_EDGE ( 'NONE', *, *, #210, .T. ) ;
#79 = DIRECTION ( 'NONE',  ( -0.000000000000000000, -1.000000000000000000, -0.000000000000000000 ) ) ;
#80 = VERTEX_POINT ( 'NONE', #140 ) ;
#81 = CARTESIAN_POINT ( 'NONE',  ( 0.000000000000000000, 50.00000000000000000, -10.00000000000000000 ) ) ;
#82 = CARTESIAN_POINT ( 'NONE',  ( 1.224646799147353256E-15, 50.00000000000000000, 10.00000000000000000 ) ) ;
#83 = CARTESIAN_POINT ( 'NONE',  ( 0.000000000000000000, 0.000000000000000000, 0.000000000000000000 ) ) ;
#84 = AXIS2_PLACEMENT_3D ( 'NONE', #316, #254, #358 ) ;
#85 = FACE_OUTER_BOUND ( 'NONE', #46, .T. ) ;
#86 = LINE ( 'NONE', #5, #217 ) ;
#87 = DIRECTION ( 'NONE',  ( -1.000000000000000000, 0.000000000000000000, 0.000000000000000000 ) ) ;
#88 =( NAMED_UNIT ( * ) PLANE_ANGLE_UNIT ( ) SI_UNIT ( $, .RADIAN. ) );
#89 = FACE_OUTER_BOUND ( 'NONE', #97, .T. ) ;
#90 = DIRECTION ( 'NONE',  ( -0.000000000000000000, -1.000000000000000000, -0.000000000000000000 ) ) ;
#91 =( GEOMETRIC_REPRESENTATION_CONTEXT ( 3 ) GLOBAL_UNCERTAINTY_ASSIGNED_CONTEXT ( ( #141 ) ) GLOBAL_UNIT_ASSIGNED_CONTEXT ( ( #268, #88, #117 ) ) REPRESENTATION_CONTEXT ( 'NONE', 'WORKASPACE' ) );
#92 =( NAMED_UNIT ( * ) SI_UNIT ( $, .STERADIAN. ) SOLID_ANGLE_UNIT ( ) );
#93 = STYLED_ITEM ( 'NONE', ( #209 ), #181 ) ;
#94 =( LENGTH_UNIT ( ) NAMED_UNIT ( * ) SI_UNIT ( .MILLI., .METRE. ) );
#95 =( NAMED_UNIT ( * ) PLANE_ANGLE_UNIT ( ) SI_UNIT ( $, .RADIAN. ) );
#96 = DIRECTION ( 'NONE',  ( -1.252807796048505441E-16, 1.000000000000000000, -0.000000000000000000 ) ) ;
#97 = EDGE_LOOP ( 'NONE', ( #257, #189, #72, #347 ) ) ;
#98 = AXIS2_PLACEMENT_3D ( 'NONE', #303, #87, #110 ) ;
#99 = SURFACE_SIDE_STYLE ('',( #29 ) ) ;
#100 = ORIENTED_EDGE ( 'NONE', *, *, #307, .T. ) ;
#101 = MECHANICAL_DESIGN_GEOMETRIC_PRESENTATION_REPRESENTATION (  '', ( #290 ), #176 ) ;
#102 = FACE_OUTER_BOUND ( 'NONE', #250, .T. ) ;
#103 = DIRECTION ( 'NONE',  ( 0.000000000000000000, 0.000000000000000000, -1.000000000000000000 ) ) ;
#104 = ORIENTED_EDGE ( 'NONE', *, *, #75, .F. ) ;
#105 = VERTEX_POINT ( 'NONE', #81 ) ;
#106 = AXIS2_PLACEMENT_3D ( 'NONE', #198, #61, #108 ) ;
#107 =( NAMED_UNIT ( * ) PLANE_ANGLE_UNIT ( ) SI_UNIT ( $, .RADIAN. ) );
#108 = DIRECTION ( 'NONE',  ( -1.000000000000000000, 0.000000000000000000, 0.000000000000000000 ) ) ;
#109 = PRODUCT_DEFINITION_FORMATION_WITH_SPECIFIED_SOURCE ( 'ANY', '', #312, .NOT_KNOWN. ) ;
#110 = DIRECTION ( 'NONE',  ( 0.000000000000000000, 0.000000000000000000, 1.000000000000000000 ) ) ;
#111 =( NAMED_UNIT ( * ) PLANE_ANGLE_UNIT ( ) SI_UNIT ( $, .RADIAN. ) );
#112 = ADVANCED_FACE ( 'NONE', ( #293 ), #197, .T. ) ;
#113 =( NAMED_UNIT ( * ) SI_UNIT ( $, .STERADIAN. ) SOLID_ANGLE_UNIT ( ) );
#114 = FILL_AREA_STYLE ('',( #203 ) ) ;
#115 = PRESENTATION_LAYER_ASSIGNMENT (  '', '', ( #93 ) ) ;
#116 = COLOUR_RGB ( '',1.000000000000000000, 0.000000000000000000, 0.000000000000000000 ) ;
#117 =( NAMED_UNIT ( * ) SI_UNIT ( $, .STERADIAN. ) SOLID_ANGLE_UNIT ( ) );
#118 = SURFACE_STYLE_USAGE ( .BOTH. , #10 ) ;
#119 = SHAPE_DEFINITION_REPRESENTATION ( #287, #306 ) ;
#120 =( GEOMETRIC_REPRESENTATION_CONTEXT ( 3 ) GLOBAL_UNCERTAINTY_ASSIGNED_CONTEXT ( ( #204 ) ) GLOBAL_UNIT_ASSIGNED_CONTEXT ( ( #21, #171, #27 ) ) REPRESENTATION_CONTEXT ( 'NONE', 'WORKASPACE' ) );
#121 = CARTESIAN_POINT ( 'NONE',  ( -4.408728476930469278E-15, 124.9999999999999858, 0.000000000000000000 ) ) ;
#122 = APPLICATION_PROTOCOL_DEFINITION ( 'draft international standard', 'automotive_design', 1998, #59 ) ;
#123 = AXIS2_PLACEMENT_3D ( 'NONE', #364, #48, #103 ) ;
#124 = CARTESIAN_POINT ( 'NONE',  ( 1.224646799147353454E-15, 0.000000000000000000, 10.00000000000000178 ) ) ;
#125 = CARTESIAN_POINT ( 'NONE',  ( 10.00000000000000000, 124.9999999999999858, 1.224646799147353454E-15 ) ) ;
#126 = ORIENTED_EDGE ( 'NONE', *, *, #71, .T. ) ;
#127 = AXIS2_PLACEMENT_3D ( 'NONE', #324, #262, #322 ) ;
#128 = SURFACE_SIDE_STYLE ('',( #310 ) ) ;
#129 = AXIS2_PLACEMENT_3D ( 'NONE', #221, #281, #40 ) ;
#130 = DIRECTION ( 'NONE',  ( 0.000000000000000000, 0.000000000000000000, -1.000000000000000000 ) ) ;
#131 = VERTEX_POINT ( 'NONE', #82 ) ;
#132 = ORIENTED_EDGE ( 'NONE', *, *, #152, .F. ) ;
#133 = EDGE_LOOP ( 'NONE', ( #104, #168 ) ) ;
#134 = LINE ( 'NONE', #236, #157 ) ;
#135 = COLOUR_RGB ( '',0.7921568627450980005, 0.8196078431372548767, 0.9333333333333333481 ) ;
#136 =( GEOMETRIC_REPRESENTATION_CONTEXT ( 3 ) GLOBAL_UNCERTAINTY_ASSIGNED_CONTEXT ( ( #272 ) ) GLOBAL_UNIT_ASSIGNED_CONTEXT ( ( #30, #111, #92 ) ) REPRESENTATION_CONTEXT ( 'NONE', 'WORKASPACE' ) );
#137 = DIRECTION ( 'NONE',  ( -1.000000000000000000, 0.000000000000000000, 0.000000000000000000 ) ) ;
#138 = EDGE_CURVE ( 'NONE', #80, #365, #362, .T. ) ;
#139 = CIRCLE ( 'NONE', #106, 9.999999999999996447 ) ;
#140 = CARTESIAN_POINT ( 'NONE',  ( 0.000000000000000000, 0.000000000000000000, -9.000000000000001776 ) ) ;
#141 = UNCERTAINTY_MEASURE_WITH_UNIT (LENGTH_MEASURE( 1.000000000000000082E-05 ), #268, 'distance_accuracy_value', 'NONE');
#142 = FILL_AREA_STYLE ('',( #175 ) ) ;
#143 = FILL_AREA_STYLE_COLOUR ( '', #346 ) ;
#144 = CARTESIAN_POINT ( 'NONE',  ( 0.000000000000000000, 1.000000000000000000, 0.000000000000000000 ) ) ;
#145 = CIRCLE ( 'NONE', #24, 10.00000000000000533 ) ;
#146 = DIRECTION ( 'NONE',  ( -0.000000000000000000, -1.000000000000000000, -0.000000000000000000 ) ) ;
#147 = PRODUCT_DEFINITION_CONTEXT ( 'detailed design', #235, 'design' ) ;
#148 = DIRECTION ( 'NONE',  ( -0.000000000000000000, -1.000000000000000000, -0.000000000000000000 ) ) ;
#149 = SURFACE_STYLE_USAGE ( .BOTH. , #334 ) ;
#150 = DIRECTION ( 'NONE',  ( 0.000000000000000000, 0.000000000000000000, -1.000000000000000000 ) ) ;
#151 = UNCERTAINTY_MEASURE_WITH_UNIT (LENGTH_MEASURE( 1.000000000000000082E-05 ), #240, 'distance_accuracy_value', 'NONE');
#152 = EDGE_CURVE ( 'NONE', #105, #222, #86, .T. ) ;
#153 = FILL_AREA_STYLE ('',( #249 ) ) ;
#154 = PRESENTATION_STYLE_ASSIGNMENT (( #149 ) ) ;
#155 = PRODUCT_DEFINITION ( 'UNKNOWN', '', #109, #147 ) ;
#156 = CIRCLE ( 'NONE', #2, 9.999999999999996447 ) ;
#157 = VECTOR ( 'NONE', #297, 1000.000000000000000 ) ;
#158 = FILL_AREA_STYLE_COLOUR ( '', #213 ) ;
#159 = CARTESIAN_POINT ( 'NONE',  ( 0.000000000000000000, 0.000000000000000000, 0.000000000000000000 ) ) ;
#160 = ORIENTED_EDGE ( 'NONE', *, *, #163, .F. ) ;
#161 = LINE ( 'NONE', #124, #313 ) ;
#162 = ORIENTED_EDGE ( 'NONE', *, *, #18, .T. ) ;
#163 = EDGE_CURVE ( 'NONE', #15, #167, #139, .T. ) ;
#164 = ORIENTED_EDGE ( 'NONE', *, *, #75, .T. ) ;
#165 = AXIS2_PLACEMENT_3D ( 'NONE', #58, #146, #4 ) ;
#166 = CYLINDRICAL_SURFACE ( 'NONE', #127, 10.00000000000000000 ) ;
#167 = VERTEX_POINT ( 'NONE', #295 ) ;
#168 = ORIENTED_EDGE ( 'NONE', *, *, #62, .F. ) ;
#169 = ADVANCED_FACE ( 'NONE', ( #64 ), #359, .T. ) ;
#170 = PRESENTATION_STYLE_ASSIGNMENT (( #256 ) ) ;
#171 =( NAMED_UNIT ( * ) PLANE_ANGLE_UNIT ( ) SI_UNIT ( $, .RADIAN. ) );
#172 = AXIS2_PLACEMENT_3D ( 'NONE', #352, #90, #206 ) ;
#173 = SURFACE_STYLE_USAGE ( .BOTH. , #63 ) ;
#174 = TOROIDAL_SURFACE ( 'NONE', #355, 9.000000000000001776, 1.000000000000000444 ) ;
#175 = FILL_AREA_STYLE_COLOUR ( '', #243 ) ;
#176 =( GEOMETRIC_REPRESENTATION_CONTEXT ( 3 ) GLOBAL_UNCERTAINTY_ASSIGNED_CONTEXT ( ( #26 ) ) GLOBAL_UNIT_ASSIGNED_CONTEXT ( ( #65, #301, #113 ) ) REPRESENTATION_CONTEXT ( 'NONE', 'WORKASPACE' ) );
#177 = EDGE_CURVE ( 'NONE', #222, #80, #277, .T. ) ;
#178 = PRESENTATION_STYLE_ASSIGNMENT (( #118 ) ) ;
#179 = STYLED_ITEM ( 'NONE', ( #170 ), #241 ) ;
#180 =( LENGTH_UNIT ( ) NAMED_UNIT ( * ) SI_UNIT ( .MILLI., .METRE. ) );
#181 = ADVANCED_FACE ( 'NONE', ( #89 ), #238, .T. ) ;
#182 = FILL_AREA_STYLE ('',( #143 ) ) ;
#183 = MECHANICAL_DESIGN_GEOMETRIC_PRESENTATION_REPRESENTATION (  '', ( #354 ), #223 ) ;
#184 = AXIS2_PLACEMENT_3D ( 'NONE', #218, #191, #344 ) ;
#185 = APPLICATION_PROTOCOL_DEFINITION ( 'draft international standard', 'automotive_design', 1998, #235 ) ;
#186 = ORIENTED_EDGE ( 'NONE', *, *, #233, .T. ) ;
#187 = AXIS2_PLACEMENT_3D ( 'NONE', #144, #148, #269 ) ;
#188 = CARTESIAN_POINT ( 'NONE',  ( 4.987329993433318819E-15, 50.00000000000000000, 0.000000000000000000 ) ) ;
#189 = ORIENTED_EDGE ( 'NONE', *, *, #62, .T. ) ;
#190 = EDGE_CURVE ( 'NONE', #167, #15, #156, .T. ) ;
#191 = DIRECTION ( 'NONE',  ( -0.000000000000000000, -1.000000000000000000, -0.000000000000000000 ) ) ;
#192 = VERTEX_POINT ( 'NONE', #125 ) ;
#193 = ORIENTED_EDGE ( 'NONE', *, *, #307, .F. ) ;
#194 = FACE_OUTER_BOUND ( 'NONE', #259, .T. ) ;
#195 = ADVANCED_FACE ( 'NONE', ( #11 ), #45, .F. ) ;
#196 = ORIENTED_EDGE ( 'NONE', *, *, #163, .T. ) ;
#197 = PLANE ( 'NONE',  #275 ) ;
#198 = CARTESIAN_POINT ( 'NONE',  ( 4.987329993433318819E-15, 50.00000000000000000, 0.000000000000000000 ) ) ;
#199 = PRESENTATION_LAYER_ASSIGNMENT (  '', '', ( #354 ) ) ;
#200 =( GEOMETRIC_REPRESENTATION_CONTEXT ( 3 ) GLOBAL_UNCERTAINTY_ASSIGNED_CONTEXT ( ( #34 ) ) GLOBAL_UNIT_ASSIGNED_CONTEXT ( ( #94, #214, #360 ) ) REPRESENTATION_CONTEXT ( 'NONE', 'WORKASPACE' ) );
#201 = SURFACE_STYLE_FILL_AREA ( #182 ) ;
#202 = PRESENTATION_STYLE_ASSIGNMENT (( #1 ) ) ;
#203 = FILL_AREA_STYLE_COLOUR ( '', #252 ) ;
#204 = UNCERTAINTY_MEASURE_WITH_UNIT (LENGTH_MEASURE( 1.000000000000000082E-05 ), #21, 'distance_accuracy_value', 'NONE');
#205 = MECHANICAL_DESIGN_GEOMETRIC_PRESENTATION_REPRESENTATION (  '', ( #50 ), #6 ) ;
#206 = DIRECTION ( 'NONE',  ( 0.000000000000000000, 0.000000000000000000, -1.000000000000000000 ) ) ;
#207 = MECHANICAL_DESIGN_GEOMETRIC_PRESENTATION_REPRESENTATION (  '', ( #42 ), #136 ) ;
#208 = DIRECTION ( 'NONE',  ( -1.252807796048505441E-16, 1.000000000000000000, -0.000000000000000000 ) ) ;
#209 = PRESENTATION_STYLE_ASSIGNMENT (( #173 ) ) ;
#210 = EDGE_CURVE ( 'NONE', #222, #320, #246, .T. ) ;
#211 = CARTESIAN_POINT ( 'NONE',  ( 0.000000000000000000, 1.000000000000000000, 0.000000000000000000 ) ) ;
#212 = FILL_AREA_STYLE ('',( #67 ) ) ;
#213 = COLOUR_RGB ( '',0.7921568627450980005, 0.8196078431372548767, 0.9333333333333333481 ) ;
#214 =( NAMED_UNIT ( * ) PLANE_ANGLE_UNIT ( ) SI_UNIT ( $, .RADIAN. ) );
#215 = CARTESIAN_POINT ( 'NONE',  ( 0.000000000000000000, 0.000000000000000000, 0.000000000000000000 ) ) ;
#216 = PRODUCT_CONTEXT ( 'NONE', #59, 'mechanical' ) ;
#217 = VECTOR ( 'NONE', #327, 1000.000000000000000 ) ;
#218 = CARTESIAN_POINT ( 'NONE',  ( 0.000000000000000000, 0.000000000000000000, 0.000000000000000000 ) ) ;
#219 = MANIFOLD_SOLID_BREP ( 'Revolve - Tool Body (Straight Shanked)', #44 ) ;
#220 = DIRECTION ( 'NONE',  ( -1.000000000000000000, 0.000000000000000000, 0.000000000000000000 ) ) ;
#221 = CARTESIAN_POINT ( 'NONE',  ( 0.000000000000000000, 0.000000000000000000, 0.000000000000000000 ) ) ;
#222 = VERTEX_POINT ( 'NONE', #278 ) ;
#223 =( GEOMETRIC_REPRESENTATION_CONTEXT ( 3 ) GLOBAL_UNCERTAINTY_ASSIGNED_CONTEXT ( ( #289 ) ) GLOBAL_UNIT_ASSIGNED_CONTEXT ( ( #52, #107, #25 ) ) REPRESENTATION_CONTEXT ( 'NONE', 'WORKASPACE' ) );
#224 =( NAMED_UNIT ( * ) SI_UNIT ( $, .STERADIAN. ) SOLID_ANGLE_UNIT ( ) );
#225 = ORIENTED_EDGE ( 'NONE', *, *, #357, .T. ) ;
#226 = EDGE_CURVE ( 'NONE', #131, #320, #161, .T. ) ;
#227 = MANIFOLD_SOLID_BREP ( 'Revolve - Cutting Edge', #321 ) ;
#228 = DIRECTION ( 'NONE',  ( 1.252807796048505441E-16, -1.000000000000000000, 0.000000000000000000 ) ) ;
#229 = ORIENTED_EDGE ( 'NONE', *, *, #138, .F. ) ;
#230 = DIRECTION ( 'NONE',  ( -1.252807796048505441E-16, 1.000000000000000000, -0.000000000000000000 ) ) ;
#231 = ORIENTED_EDGE ( 'NONE', *, *, #258, .F. ) ;
#232 = CYLINDRICAL_SURFACE ( 'NONE', #247, 10.00000000000000178 ) ;
#233 = EDGE_CURVE ( 'NONE', #192, #361, #273, .T. ) ;
#234 = EDGE_LOOP ( 'NONE', ( #196, #162, #20, #291 ) ) ;
#235 = APPLICATION_CONTEXT ( 'automotive_design' ) ;
#236 = CARTESIAN_POINT ( 'NONE',  ( -10.00000000000000533, 124.9999999999999858, 0.000000000000000000 ) ) ;
#237 = ADVANCED_FACE ( 'NONE', ( #350 ), #166, .T. ) ;
#238 = CYLINDRICAL_SURFACE ( 'NONE', #57, 10.00000000000000178 ) ;
#239 = SURFACE_SIDE_STYLE ('',( #265 ) ) ;
#240 =( LENGTH_UNIT ( ) NAMED_UNIT ( * ) SI_UNIT ( .MILLI., .METRE. ) );
#241 = ADVANCED_FACE ( 'NONE', ( #194 ), #232, .T. ) ;
#242 = STYLED_ITEM ( 'NONE', ( #178 ), #369 ) ;
#243 = COLOUR_RGB ( '',1.000000000000000000, 0.000000000000000000, 0.000000000000000000 ) ;
#244 = CIRCLE ( 'NONE', #172, 10.00000000000000000 ) ;
#245 = PRESENTATION_STYLE_ASSIGNMENT (( #9 ) ) ;
#246 = CIRCLE ( 'NONE', #266, 10.00000000000000178 ) ;
#247 = AXIS2_PLACEMENT_3D ( 'NONE', #83, #79, #54 ) ;
#248 = DIRECTION ( 'NONE',  ( 0.000000000000000000, 0.000000000000000000, -1.000000000000000000 ) ) ;
#249 = FILL_AREA_STYLE_COLOUR ( '', #135 ) ;
#250 = EDGE_LOOP ( 'NONE', ( #317, #100 ) ) ;
#251 = ORIENTED_EDGE ( 'NONE', *, *, #18, .F. ) ;
#252 = COLOUR_RGB ( '',1.000000000000000000, 0.000000000000000000, 0.000000000000000000 ) ;
#253 = DIRECTION ( 'NONE',  ( -0.000000000000000000, -1.000000000000000000, -0.000000000000000000 ) ) ;
#254 = DIRECTION ( 'NONE',  ( -1.252807796048505441E-16, 1.000000000000000000, 0.000000000000000000 ) ) ;
#255 = CARTESIAN_POINT ( 'NONE',  ( 9.999999999999994671, 124.9999999999999858, 1.224646799147353256E-15 ) ) ;
#256 = SURFACE_STYLE_USAGE ( .BOTH. , #56 ) ;
#257 = ORIENTED_EDGE ( 'NONE', *, *, #226, .F. ) ;
#258 = EDGE_CURVE ( 'NONE', #320, #365, #36, .T. ) ;
#259 = EDGE_LOOP ( 'NONE', ( #164, #323, #285, #132 ) ) ;
#260 = SURFACE_STYLE_FILL_AREA ( #23 ) ;
#261 = VECTOR ( 'NONE', #318, 1000.000000000000000 ) ;
#262 = DIRECTION ( 'NONE',  ( -1.252807796048505441E-16, 1.000000000000000000, -0.000000000000000000 ) ) ;
#263 = FILL_AREA_STYLE_COLOUR ( '', #348 ) ;
#264 = EDGE_CURVE ( 'NONE', #15, #361, #134, .T. ) ;
#265 = SURFACE_STYLE_FILL_AREA ( #142 ) ;
#266 = AXIS2_PLACEMENT_3D ( 'NONE', #38, #37, #248 ) ;
#267 =( GEOMETRIC_REPRESENTATION_CONTEXT ( 3 ) GLOBAL_UNCERTAINTY_ASSIGNED_CONTEXT ( ( #299 ) ) GLOBAL_UNIT_ASSIGNED_CONTEXT ( ( #180, #308, #331 ) ) REPRESENTATION_CONTEXT ( 'NONE', 'WORKASPACE' ) );
#268 =( LENGTH_UNIT ( ) NAMED_UNIT ( * ) SI_UNIT ( .MILLI., .METRE. ) );
#269 = DIRECTION ( 'NONE',  ( 0.000000000000000000, 0.000000000000000000, -1.000000000000000000 ) ) ;
#270 = CARTESIAN_POINT ( 'NONE',  ( 0.000000000000000000, 1.000000000000000000, 0.000000000000000000 ) ) ;
#271 = ADVANCED_FACE ( 'NONE', ( #328 ), #311, .T. ) ;
#272 = UNCERTAINTY_MEASURE_WITH_UNIT (LENGTH_MEASURE( 1.000000000000000082E-05 ), #30, 'distance_accuracy_value', 'NONE');
#273 = CIRCLE ( 'NONE', #325, 10.00000000000000533 ) ;
#274 = CIRCLE ( 'NONE', #184, 9.000000000000001776 ) ;
#275 = AXIS2_PLACEMENT_3D ( 'NONE', #349, #296, #351 ) ;
#276 = SURFACE_SIDE_STYLE ('',( #73 ) ) ;
#277 = CIRCLE ( 'NONE', #98, 1.000000000000000888 ) ;
#278 = CARTESIAN_POINT ( 'NONE',  ( 0.000000000000000000, 1.000000000000000000, -10.00000000000000178 ) ) ;
#279 = PRODUCT_RELATED_PRODUCT_CATEGORY ( 'part', '', ( #312 ) ) ;
#280 = DIRECTION ( 'NONE',  ( -1.000000000000000000, 0.000000000000000000, 0.000000000000000000 ) ) ;
#281 = DIRECTION ( 'NONE',  ( 0.000000000000000000, 0.000000000000000000, 1.000000000000000000 ) ) ;
#282 = CARTESIAN_POINT ( 'NONE',  ( -4.408728476930469278E-15, 124.9999999999999858, 0.000000000000000000 ) ) ;
#283 = CARTESIAN_POINT ( 'NONE',  ( -9.999999999999991118, 50.00000000000000000, 0.000000000000000000 ) ) ;
#284 =( LENGTH_UNIT ( ) NAMED_UNIT ( * ) SI_UNIT ( .MILLI., .METRE. ) );
#285 = ORIENTED_EDGE ( 'NONE', *, *, #210, .F. ) ;
#286 = PRESENTATION_LAYER_ASSIGNMENT (  '', '', ( #179 ) ) ;
#287 = PRODUCT_DEFINITION_SHAPE ( 'NONE', 'NONE',  #155 ) ;
#288 = EDGE_LOOP ( 'NONE', ( #251, #53, #22, #70 ) ) ;
#289 = UNCERTAINTY_MEASURE_WITH_UNIT (LENGTH_MEASURE( 1.000000000000000082E-05 ), #52, 'distance_accuracy_value', 'NONE');
#290 = STYLED_ITEM ( 'NONE', ( #319 ), #112 ) ;
#291 = ORIENTED_EDGE ( 'NONE', *, *, #264, .F. ) ;
#292 = DIRECTION ( 'NONE',  ( -1.224646799147353454E-16, 0.000000000000000000, -1.000000000000000000 ) ) ;
#293 = FACE_OUTER_BOUND ( 'NONE', #133, .T. ) ;
#294 = MECHANICAL_DESIGN_GEOMETRIC_PRESENTATION_REPRESENTATION (  '', ( #12 ), #91 ) ;
#295 = CARTESIAN_POINT ( 'NONE',  ( 10.00000000000000355, 50.00000000000000000, 1.224646799147353848E-15 ) ) ;
#296 = DIRECTION ( 'NONE',  ( 0.000000000000000000, 1.000000000000000000, 0.000000000000000000 ) ) ;
#297 = DIRECTION ( 'NONE',  ( -1.252807796048505441E-16, 1.000000000000000000, -0.000000000000000000 ) ) ;
#298 = PRESENTATION_LAYER_ASSIGNMENT (  '', '', ( #12 ) ) ;
#299 = UNCERTAINTY_MEASURE_WITH_UNIT (LENGTH_MEASURE( 1.000000000000000082E-05 ), #180, 'distance_accuracy_value', 'NONE');
#300 = ADVANCED_FACE ( 'NONE', ( #85 ), #174, .T. ) ;
#301 =( NAMED_UNIT ( * ) PLANE_ANGLE_UNIT ( ) SI_UNIT ( $, .RADIAN. ) );
#302 = CARTESIAN_POINT ( 'NONE',  ( -4.408728476930469278E-15, 124.9999999999999858, 0.000000000000000000 ) ) ;
#303 = CARTESIAN_POINT ( 'NONE',  ( 0.000000000000000000, 1.000000000000000000, -9.000000000000001776 ) ) ;
#304 = DIRECTION ( 'NONE',  ( -0.000000000000000000, -1.000000000000000000, -0.000000000000000000 ) ) ;
#305 = COLOUR_RGB ( '',1.000000000000000000, 0.000000000000000000, 0.000000000000000000 ) ;
#306 = ADVANCED_BREP_SHAPE_REPRESENTATION ( '59507', ( #227, #219, #129 ), #200 ) ;
#307 = EDGE_CURVE ( 'NONE', #365, #80, #274, .T. ) ;
#308 =( NAMED_UNIT ( * ) PLANE_ANGLE_UNIT ( ) SI_UNIT ( $, .RADIAN. ) );
#309 = DIRECTION ( 'NONE',  ( 0.000000000000000000, -1.000000000000000000, -0.000000000000000000 ) ) ;
#310 = SURFACE_STYLE_FILL_AREA ( #41 ) ;
#311 = CYLINDRICAL_SURFACE ( 'NONE', #367, 10.00000000000000000 ) ;
#312 = PRODUCT ( '59507', '59507', '', ( #216 ) ) ;
#313 = VECTOR ( 'NONE', #253, 1000.000000000000000 ) ;
#314 = CARTESIAN_POINT ( 'NONE',  ( 1.224646799147353256E-15, 1.000000000000000000, 10.00000000000000178 ) ) ;
#315 = CIRCLE ( 'NONE', #123, 10.00000000000000000 ) ;
#316 = CARTESIAN_POINT ( 'NONE',  ( 4.987329993433320396E-15, 50.00000000000000000, 0.000000000000000000 ) ) ;
#317 = ORIENTED_EDGE ( 'NONE', *, *, #138, .T. ) ;
#318 = DIRECTION ( 'NONE',  ( -1.252807796048505441E-16, 1.000000000000000000, -0.000000000000000000 ) ) ;
#319 = PRESENTATION_STYLE_ASSIGNMENT (( #47 ) ) ;
#320 = VERTEX_POINT ( 'NONE', #314 ) ;
#321 = CLOSED_SHELL ( 'NONE', ( #241, #169, #369, #300, #181, #112 ) ) ;
#322 = DIRECTION ( 'NONE',  ( -1.000000000000000000, 0.000000000000000000, 0.000000000000000000 ) ) ;
#323 = ORIENTED_EDGE ( 'NONE', *, *, #226, .T. ) ;
#324 = CARTESIAN_POINT ( 'NONE',  ( -4.408728476930469278E-15, 124.9999999999999858, 0.000000000000000000 ) ) ;
#325 = AXIS2_PLACEMENT_3D ( 'NONE', #121, #230, #137 ) ;
#326 = SURFACE_STYLE_FILL_AREA ( #114 ) ;
#327 = DIRECTION ( 'NONE',  ( -0.000000000000000000, -1.000000000000000000, -0.000000000000000000 ) ) ;
#328 = FACE_OUTER_BOUND ( 'NONE', #234, .T. ) ;
#329 = MECHANICAL_DESIGN_GEOMETRIC_PRESENTATION_REPRESENTATION (  '', ( #93 ), #338 ) ;
#330 =( NAMED_UNIT ( * ) PLANE_ANGLE_UNIT ( ) SI_UNIT ( $, .RADIAN. ) );
#331 =( NAMED_UNIT ( * ) SI_UNIT ( $, .STERADIAN. ) SOLID_ANGLE_UNIT ( ) );
#332 = DIRECTION ( 'NONE',  ( 0.000000000000000000, 0.000000000000000000, -1.000000000000000000 ) ) ;
#333 = DIRECTION ( 'NONE',  ( 1.000000000000000000, 1.252807796048505441E-16, 0.000000000000000000 ) ) ;
#334 = SURFACE_SIDE_STYLE ('',( #201 ) ) ;
#335 = DIRECTION ( 'NONE',  ( -1.252807796048505441E-16, 1.000000000000000000, -0.000000000000000000 ) ) ;
#336 = ADVANCED_FACE ( 'NONE', ( #77 ), #337, .F. ) ;
#337 = PLANE ( 'NONE',  #84 ) ;
#338 =( GEOMETRIC_REPRESENTATION_CONTEXT ( 3 ) GLOBAL_UNCERTAINTY_ASSIGNED_CONTEXT ( ( #151 ) ) GLOBAL_UNIT_ASSIGNED_CONTEXT ( ( #240, #330, #33 ) ) REPRESENTATION_CONTEXT ( 'NONE', 'WORKASPACE' ) );
#339 = EDGE_LOOP ( 'NONE', ( #78, #19, #229, #363 ) ) ;
#340 = MECHANICAL_DESIGN_GEOMETRIC_PRESENTATION_REPRESENTATION (  '', ( #242 ), #267 ) ;
#341 = DIRECTION ( 'NONE',  ( -0.000000000000000000, -1.000000000000000000, -0.000000000000000000 ) ) ;
#342 = LINE ( 'NONE', #255, #261 ) ;
#343 = PRESENTATION_STYLE_ASSIGNMENT (( #17 ) ) ;
#344 = DIRECTION ( 'NONE',  ( 0.000000000000000000, 0.000000000000000000, -1.000000000000000000 ) ) ;
#345 = EDGE_LOOP ( 'NONE', ( #160, #55 ) ) ;
#346 = COLOUR_RGB ( '',1.000000000000000000, 0.000000000000000000, 0.000000000000000000 ) ;
#347 = ORIENTED_EDGE ( 'NONE', *, *, #71, .F. ) ;
#348 = COLOUR_RGB ( '',1.000000000000000000, 0.000000000000000000, 0.000000000000000000 ) ;
#349 = CARTESIAN_POINT ( 'NONE',  ( 0.000000000000000000, 50.00000000000000000, 0.000000000000000000 ) ) ;
#350 = FACE_OUTER_BOUND ( 'NONE', #288, .T. ) ;
#351 = DIRECTION ( 'NONE',  ( 0.000000000000000000, -0.000000000000000000, 1.000000000000000000 ) ) ;
#352 = CARTESIAN_POINT ( 'NONE',  ( 0.000000000000000000, 50.00000000000000000, 0.000000000000000000 ) ) ;
#353 = DIRECTION ( 'NONE',  ( -1.000000000000000000, 0.000000000000000000, 0.000000000000000000 ) ) ;
#354 = STYLED_ITEM ( 'NONE', ( #245 ), #227 ) ;
#355 = AXIS2_PLACEMENT_3D ( 'NONE', #270, #66, #130 ) ;
#356 = AXIS2_PLACEMENT_3D ( 'NONE', #159, #309, #332 ) ;
#357 = EDGE_CURVE ( 'NONE', #361, #192, #145, .T. ) ;
#358 = DIRECTION ( 'NONE',  ( -1.000000000000000000, -1.252807796048505441E-16, 0.000000000000000000 ) ) ;
#359 = TOROIDAL_SURFACE ( 'NONE', #35, 9.000000000000001776, 1.000000000000000444 ) ;
#360 =( NAMED_UNIT ( * ) SI_UNIT ( $, .STERADIAN. ) SOLID_ANGLE_UNIT ( ) );
#361 = VERTEX_POINT ( 'NONE', #16 ) ;
#362 = CIRCLE ( 'NONE', #165, 9.000000000000001776 ) ;
#363 = ORIENTED_EDGE ( 'NONE', *, *, #177, .F. ) ;
#364 = CARTESIAN_POINT ( 'NONE',  ( 0.000000000000000000, 50.00000000000000000, 0.000000000000000000 ) ) ;
#365 = VERTEX_POINT ( 'NONE', #43 ) ;
#366 = PRESENTATION_LAYER_ASSIGNMENT (  '', '', ( #50 ) ) ;
#367 = AXIS2_PLACEMENT_3D ( 'NONE', #302, #208, #353 ) ;
#368 = DIRECTION ( 'NONE',  ( 1.000000000000000000, 0.000000000000000000, -1.224646799147353207E-16 ) ) ;
#369 = ADVANCED_FACE ( 'NONE', ( #102 ), #8, .T. ) ;
#370 = FILL_AREA_STYLE_COLOUR ( '', #305 ) ;
ENDSEC;
END-ISO-10303-21;
