ISO-10303-21;
HEADER;
FILE_DESCRIPTION (( 'STEP AP214' ),
    '1' );
FILE_NAME ('59605.STEP',
    '2023-07-24T15:14:42',
    ( '' ),
    ( '' ),
    'SwSTEP 2.0',
    'SolidWorks 2023',
    '' );
FILE_SCHEMA (( 'AUTOMOTIVE_DESIGN' ));
ENDSEC;

DATA;
#1 = DIRECTION ( 'NONE',  ( 0.000000000000000000, 0.000000000000000000, -1.000000000000000000 ) ) ;
#2 = DIRECTION ( 'NONE',  ( 0.000000000000000000, 0.000000000000000000, -1.000000000000000000 ) ) ;
#3 = AXIS2_PLACEMENT_3D ( 'NONE', #346, #200, #88 ) ;
#4 = DIRECTION ( 'NONE',  ( -0.000000000000000000, -1.000000000000000000, -0.000000000000000000 ) ) ;
#5 = DIRECTION ( 'NONE',  ( 0.000000000000000000, 0.000000000000000000, -1.000000000000000000 ) ) ;
#6 = DIRECTION ( 'NONE',  ( 0.000000000000000000, 0.000000000000000000, -1.000000000000000000 ) ) ;
#7 = SURFACE_STYLE_FILL_AREA ( #28 ) ;
#8 = DIRECTION ( 'NONE',  ( -0.000000000000000000, -1.000000000000000000, -0.000000000000000000 ) ) ;
#9 = CIRCLE ( 'NONE', #152, 8.000000000000000000 ) ;
#10 = CARTESIAN_POINT ( 'NONE',  ( 7.999999999999996447, 89.00000000000000000, 9.797174393178823685E-16 ) ) ;
#11 = CARTESIAN_POINT ( 'NONE',  ( 8.000000000000000000, 89.00000000000000000, 9.797174393178825657E-16 ) ) ;
#12 = PRODUCT ( '59605', '59605', '', ( #314 ) ) ;
#13 =( GEOMETRIC_REPRESENTATION_CONTEXT ( 3 ) GLOBAL_UNCERTAINTY_ASSIGNED_CONTEXT ( ( #337 ) ) GLOBAL_UNIT_ASSIGNED_CONTEXT ( ( #111, #347, #128 ) ) REPRESENTATION_CONTEXT ( 'NONE', 'WORKASPACE' ) );
#14 = ORIENTED_EDGE ( 'NONE', *, *, #138, .F. ) ;
#15 = CARTESIAN_POINT ( 'NONE',  ( 9.797174393178825657E-16, 0.000000000000000000, 8.000000000000000000 ) ) ;
#16 = CYLINDRICAL_SURFACE ( 'NONE', #147, 7.999999999999998224 ) ;
#17 =( GEOMETRIC_REPRESENTATION_CONTEXT ( 3 ) GLOBAL_UNCERTAINTY_ASSIGNED_CONTEXT ( ( #165 ) ) GLOBAL_UNIT_ASSIGNED_CONTEXT ( ( #113, #225, #176 ) ) REPRESENTATION_CONTEXT ( 'NONE', 'WORKASPACE' ) );
#18 = VECTOR ( 'NONE', #311, 1000.000000000000000 ) ;
#19 = ORIENTED_EDGE ( 'NONE', *, *, #221, .F. ) ;
#20 = FACE_OUTER_BOUND ( 'NONE', #271, .T. ) ;
#21 = ORIENTED_EDGE ( 'NONE', *, *, #60, .T. ) ;
#22 = SURFACE_STYLE_USAGE ( .BOTH. , #137 ) ;
#23 = VERTEX_POINT ( 'NONE', #74 ) ;
#24 = AXIS2_PLACEMENT_3D ( 'NONE', #178, #290, #258 ) ;
#25 = ADVANCED_BREP_SHAPE_REPRESENTATION ( '59605', ( #322, #199, #270 ), #183 ) ;
#26 = DIRECTION ( 'NONE',  ( -0.000000000000000000, -1.000000000000000000, -0.000000000000000000 ) ) ;
#27 = SURFACE_STYLE_FILL_AREA ( #168 ) ;
#28 = FILL_AREA_STYLE ('',( #283 ) ) ;
#29 = CYLINDRICAL_SURFACE ( 'NONE', #96, 7.999999999999998224 ) ;
#30 = AXIS2_PLACEMENT_3D ( 'NONE', #257, #201, #204 ) ;
#31 =( NAMED_UNIT ( * ) PLANE_ANGLE_UNIT ( ) SI_UNIT ( $, .RADIAN. ) );
#32 = SURFACE_STYLE_USAGE ( .BOTH. , #288 ) ;
#33 = SURFACE_STYLE_FILL_AREA ( #57 ) ;
#34 = MECHANICAL_DESIGN_GEOMETRIC_PRESENTATION_REPRESENTATION (  '', ( #146 ), #13 ) ;
#35 = SURFACE_STYLE_USAGE ( .BOTH. , #355 ) ;
#36 = AXIS2_PLACEMENT_3D ( 'NONE', #259, #145, #5 ) ;
#37 = ADVANCED_FACE ( 'NONE', ( #190 ), #161, .F. ) ;
#38 = STYLED_ITEM ( 'NONE', ( #303 ), #170 ) ;
#39 = CIRCLE ( 'NONE', #63, 7.500000000000000000 ) ;
#40 = EDGE_LOOP ( 'NONE', ( #366, #97, #247, #14 ) ) ;
#41 = CARTESIAN_POINT ( 'NONE',  ( 0.000000000000000000, 0.5000000000000000000, 0.000000000000000000 ) ) ;
#42 = VERTEX_POINT ( 'NONE', #245 ) ;
#43 = SURFACE_SIDE_STYLE ('',( #187 ) ) ;
#44 = CIRCLE ( 'NONE', #351, 8.000000000000000000 ) ;
#45 = VERTEX_POINT ( 'NONE', #239 ) ;
#46 = ORIENTED_EDGE ( 'NONE', *, *, #212, .F. ) ;
#47 = EDGE_LOOP ( 'NONE', ( #150, #155 ) ) ;
#48 = DIRECTION ( 'NONE',  ( 0.000000000000000000, 0.000000000000000000, -1.000000000000000000 ) ) ;
#49 = UNCERTAINTY_MEASURE_WITH_UNIT (LENGTH_MEASURE( 1.000000000000000082E-05 ), #291, 'distance_accuracy_value', 'NONE');
#50 = AXIS2_PLACEMENT_3D ( 'NONE', #94, #122, #70 ) ;
#51 = AXIS2_PLACEMENT_3D ( 'NONE', #144, #4, #58 ) ;
#52 =( LENGTH_UNIT ( ) NAMED_UNIT ( * ) SI_UNIT ( .MILLI., .METRE. ) );
#53 = DIRECTION ( 'NONE',  ( -1.000000000000000000, 0.000000000000000000, 0.000000000000000000 ) ) ;
#54 =( NAMED_UNIT ( * ) PLANE_ANGLE_UNIT ( ) SI_UNIT ( $, .RADIAN. ) );
#55 = DIRECTION ( 'NONE',  ( -1.000000000000000000, 0.000000000000000000, 0.000000000000000000 ) ) ;
#56 = CIRCLE ( 'NONE', #3, 7.500000000000000000 ) ;
#57 = FILL_AREA_STYLE ('',( #118 ) ) ;
#58 = DIRECTION ( 'NONE',  ( 0.000000000000000000, 0.000000000000000000, -1.000000000000000000 ) ) ;
#59 = PRESENTATION_STYLE_ASSIGNMENT (( #32 ) ) ;
#60 = EDGE_CURVE ( 'NONE', #275, #42, #182, .T. ) ;
#61 =( LENGTH_UNIT ( ) NAMED_UNIT ( * ) SI_UNIT ( .MILLI., .METRE. ) );
#62 = COLOUR_RGB ( '',1.000000000000000000, 0.000000000000000000, 0.000000000000000000 ) ;
#63 = AXIS2_PLACEMENT_3D ( 'NONE', #87, #8, #64 ) ;
#64 = DIRECTION ( 'NONE',  ( 0.000000000000000000, 0.000000000000000000, -1.000000000000000000 ) ) ;
#65 = PRESENTATION_STYLE_ASSIGNMENT (( #238 ) ) ;
#66 = EDGE_CURVE ( 'NONE', #362, #23, #359, .T. ) ;
#67 = VERTEX_POINT ( 'NONE', #266 ) ;
#68 = CARTESIAN_POINT ( 'NONE',  ( 0.000000000000000000, 32.00000000000000000, 0.000000000000000000 ) ) ;
#69 = MECHANICAL_DESIGN_GEOMETRIC_PRESENTATION_REPRESENTATION (  '', ( #126 ), #280 ) ;
#70 = DIRECTION ( 'NONE',  ( -1.000000000000000000, -1.213802797673107944E-16, 0.000000000000000000 ) ) ;
#71 = CARTESIAN_POINT ( 'NONE',  ( 9.797174393178825657E-16, 32.00000000000000000, 8.000000000000000000 ) ) ;
#72 = ORIENTED_EDGE ( 'NONE', *, *, #358, .F. ) ;
#73 = FILL_AREA_STYLE ('',( #278 ) ) ;
#74 = CARTESIAN_POINT ( 'NONE',  ( 0.000000000000000000, 0.5000000000000000000, -8.000000000000000000 ) ) ;
#75 =( LENGTH_UNIT ( ) NAMED_UNIT ( * ) SI_UNIT ( .MILLI., .METRE. ) );
#76 = AXIS2_PLACEMENT_3D ( 'NONE', #321, #203, #226 ) ;
#77 = CARTESIAN_POINT ( 'NONE',  ( 0.000000000000000000, 0.000000000000000000, -8.000000000000000000 ) ) ;
#78 = EDGE_CURVE ( 'NONE', #119, #67, #306, .T. ) ;
#79 = ORIENTED_EDGE ( 'NONE', *, *, #289, .T. ) ;
#80 = DIRECTION ( 'NONE',  ( 0.000000000000000000, 0.000000000000000000, -1.000000000000000000 ) ) ;
#81 = APPLICATION_CONTEXT ( 'automotive_design' ) ;
#82 = SURFACE_STYLE_USAGE ( .BOTH. , #338 ) ;
#83 = DIRECTION ( 'NONE',  ( -0.000000000000000000, -1.000000000000000000, -0.000000000000000000 ) ) ;
#84 = AXIS2_PLACEMENT_3D ( 'NONE', #41, #26, #48 ) ;
#85 = SHAPE_DEFINITION_REPRESENTATION ( #295, #25 ) ;
#86 = CARTESIAN_POINT ( 'NONE',  ( -8.000000000000003553, 89.00000000000000000, 0.000000000000000000 ) ) ;
#87 = CARTESIAN_POINT ( 'NONE',  ( 0.000000000000000000, 0.000000000000000000, 0.000000000000000000 ) ) ;
#88 = DIRECTION ( 'NONE',  ( 0.000000000000000000, 0.000000000000000000, -1.000000000000000000 ) ) ;
#89 = CARTESIAN_POINT ( 'NONE',  ( -7.999999999999989342, 32.00000000000000000, 0.000000000000000000 ) ) ;
#90 = ADVANCED_FACE ( 'NONE', ( #241 ), #361, .T. ) ;
#91 = ORIENTED_EDGE ( 'NONE', *, *, #196, .T. ) ;
#92 = MECHANICAL_DESIGN_GEOMETRIC_PRESENTATION_REPRESENTATION (  '', ( #253 ), #284 ) ;
#93 = FILL_AREA_STYLE_COLOUR ( '', #325 ) ;
#94 = CARTESIAN_POINT ( 'NONE',  ( 5.204170427930421283E-15, 32.00000000000000000, 0.000000000000000000 ) ) ;
#95 = DIRECTION ( 'NONE',  ( 0.000000000000000000, 1.000000000000000000, 0.000000000000000000 ) ) ;
#96 = AXIS2_PLACEMENT_3D ( 'NONE', #254, #142, #55 ) ;
#97 = ORIENTED_EDGE ( 'NONE', *, *, #261, .T. ) ;
#98 = VERTEX_POINT ( 'NONE', #11 ) ;
#99 = PLANE ( 'NONE',  #294 ) ;
#100 =( NAMED_UNIT ( * ) PLANE_ANGLE_UNIT ( ) SI_UNIT ( $, .RADIAN. ) );
#101 = DIRECTION ( 'NONE',  ( 1.213802797673107944E-16, -1.000000000000000000, 0.000000000000000000 ) ) ;
#102 = ADVANCED_FACE ( 'NONE', ( #184 ), #179, .T. ) ;
#103 = CARTESIAN_POINT ( 'NONE',  ( -1.714505518806293652E-15, 89.00000000000000000, 0.000000000000000000 ) ) ;
#104 = COLOUR_RGB ( '',1.000000000000000000, 0.000000000000000000, 0.000000000000000000 ) ;
#105 = PRODUCT_DEFINITION_FORMATION_WITH_SPECIFIED_SOURCE ( 'ANY', '', #12, .NOT_KNOWN. ) ;
#106 = ORIENTED_EDGE ( 'NONE', *, *, #60, .F. ) ;
#107 = SURFACE_STYLE_FILL_AREA ( #369 ) ;
#108 = UNCERTAINTY_MEASURE_WITH_UNIT (LENGTH_MEASURE( 1.000000000000000082E-05 ), #110, 'distance_accuracy_value', 'NONE');
#109 = FACE_OUTER_BOUND ( 'NONE', #327, .T. ) ;
#110 =( LENGTH_UNIT ( ) NAMED_UNIT ( * ) SI_UNIT ( .MILLI., .METRE. ) );
#111 =( LENGTH_UNIT ( ) NAMED_UNIT ( * ) SI_UNIT ( .MILLI., .METRE. ) );
#112 = FILL_AREA_STYLE_COLOUR ( '', #229 ) ;
#113 =( LENGTH_UNIT ( ) NAMED_UNIT ( * ) SI_UNIT ( .MILLI., .METRE. ) );
#114 =( NAMED_UNIT ( * ) SI_UNIT ( $, .STERADIAN. ) SOLID_ANGLE_UNIT ( ) );
#115 = ADVANCED_FACE ( 'NONE', ( #235 ), #99, .F. ) ;
#116 = STYLED_ITEM ( 'NONE', ( #256 ), #90 ) ;
#117 = CARTESIAN_POINT ( 'NONE',  ( 0.000000000000000000, 32.00000000000000000, -8.000000000000000000 ) ) ;
#118 = FILL_AREA_STYLE_COLOUR ( '', #313 ) ;
#119 = VERTEX_POINT ( 'NONE', #71 ) ;
#120 = AXIS2_PLACEMENT_3D ( 'NONE', #281, #189, #251 ) ;
#121 = STYLED_ITEM ( 'NONE', ( #339 ), #341 ) ;
#122 = DIRECTION ( 'NONE',  ( -1.213802797673107944E-16, 1.000000000000000000, 0.000000000000000000 ) ) ;
#123 = DIRECTION ( 'NONE',  ( -0.000000000000000000, -1.000000000000000000, -0.000000000000000000 ) ) ;
#124 = AXIS2_PLACEMENT_3D ( 'NONE', #307, #164, #80 ) ;
#125 = DIRECTION ( 'NONE',  ( -1.213802797673107944E-16, 1.000000000000000000, -0.000000000000000000 ) ) ;
#126 = STYLED_ITEM ( 'NONE', ( #59 ), #322 ) ;
#127 = EDGE_LOOP ( 'NONE', ( #163, #308, #130, #243 ) ) ;
#128 =( NAMED_UNIT ( * ) SI_UNIT ( $, .STERADIAN. ) SOLID_ANGLE_UNIT ( ) );
#129 = ORIENTED_EDGE ( 'NONE', *, *, #212, .T. ) ;
#130 = ORIENTED_EDGE ( 'NONE', *, *, #232, .T. ) ;
#131 = CARTESIAN_POINT ( 'NONE',  ( -8.000000000000000000, 89.00000000000000000, 0.000000000000000000 ) ) ;
#132 = MECHANICAL_DESIGN_GEOMETRIC_PRESENTATION_REPRESENTATION (  '', ( #38 ), #318 ) ;
#133 =( GEOMETRIC_REPRESENTATION_CONTEXT ( 3 ) GLOBAL_UNCERTAINTY_ASSIGNED_CONTEXT ( ( #279 ) ) GLOBAL_UNIT_ASSIGNED_CONTEXT ( ( #52, #136, #343 ) ) REPRESENTATION_CONTEXT ( 'NONE', 'WORKASPACE' ) );
#134 = PRODUCT_DEFINITION_CONTEXT ( 'detailed design', #154, 'design' ) ;
#135 = DIRECTION ( 'NONE',  ( -0.000000000000000000, -1.000000000000000000, -0.000000000000000000 ) ) ;
#136 =( NAMED_UNIT ( * ) PLANE_ANGLE_UNIT ( ) SI_UNIT ( $, .RADIAN. ) );
#137 = SURFACE_SIDE_STYLE ('',( #27 ) ) ;
#138 = EDGE_CURVE ( 'NONE', #67, #23, #141, .T. ) ;
#139 = DIRECTION ( 'NONE',  ( 0.000000000000000000, -1.000000000000000000, -0.000000000000000000 ) ) ;
#140 = DIRECTION ( 'NONE',  ( -1.213802797673107944E-16, 1.000000000000000000, -0.000000000000000000 ) ) ;
#141 = CIRCLE ( 'NONE', #124, 8.000000000000000000 ) ;
#142 = DIRECTION ( 'NONE',  ( -1.213802797673107944E-16, 1.000000000000000000, -0.000000000000000000 ) ) ;
#143 = PRESENTATION_STYLE_ASSIGNMENT (( #35 ) ) ;
#144 = CARTESIAN_POINT ( 'NONE',  ( 0.000000000000000000, 0.000000000000000000, 0.000000000000000000 ) ) ;
#145 = DIRECTION ( 'NONE',  ( -0.000000000000000000, -1.000000000000000000, -0.000000000000000000 ) ) ;
#146 = STYLED_ITEM ( 'NONE', ( #250 ), #199 ) ;
#147 = AXIS2_PLACEMENT_3D ( 'NONE', #193, #125, #242 ) ;
#148 = VECTOR ( 'NONE', #140, 1000.000000000000000 ) ;
#149 = PRODUCT_RELATED_PRODUCT_CATEGORY ( 'part', '', ( #12 ) ) ;
#150 = ORIENTED_EDGE ( 'NONE', *, *, #358, .T. ) ;
#151 = COLOUR_RGB ( '',0.7921568627450980005, 0.8196078431372548767, 0.9333333333333333481 ) ;
#152 = AXIS2_PLACEMENT_3D ( 'NONE', #231, #352, #6 ) ;
#153 = ADVANCED_FACE ( 'NONE', ( #20 ), #16, .T. ) ;
#154 = APPLICATION_CONTEXT ( 'automotive_design' ) ;
#155 = ORIENTED_EDGE ( 'NONE', *, *, #330, .T. ) ;
#156 = ORIENTED_EDGE ( 'NONE', *, *, #221, .T. ) ;
#157 = PRESENTATION_LAYER_ASSIGNMENT (  '', '', ( #236 ) ) ;
#158 = SURFACE_STYLE_USAGE ( .BOTH. , #43 ) ;
#159 = UNCERTAINTY_MEASURE_WITH_UNIT (LENGTH_MEASURE( 1.000000000000000082E-05 ), #316, 'distance_accuracy_value', 'NONE');
#160 = CIRCLE ( 'NONE', #76, 8.000000000000001776 ) ;
#161 = PLANE ( 'NONE',  #50 ) ;
#162 = DIRECTION ( 'NONE',  ( -1.000000000000000000, 0.000000000000000000, 0.000000000000000000 ) ) ;
#163 = ORIENTED_EDGE ( 'NONE', *, *, #305, .F. ) ;
#164 = DIRECTION ( 'NONE',  ( -0.000000000000000000, -1.000000000000000000, -0.000000000000000000 ) ) ;
#165 = UNCERTAINTY_MEASURE_WITH_UNIT (LENGTH_MEASURE( 1.000000000000000082E-05 ), #113, 'distance_accuracy_value', 'NONE');
#166 = DIRECTION ( 'NONE',  ( -1.213802797673107944E-16, 1.000000000000000000, -0.000000000000000000 ) ) ;
#167 = EDGE_LOOP ( 'NONE', ( #19, #329 ) ) ;
#168 = FILL_AREA_STYLE ('',( #195 ) ) ;
#169 = MECHANICAL_DESIGN_GEOMETRIC_PRESENTATION_REPRESENTATION (  '', ( #236 ), #296 ) ;
#170 = ADVANCED_FACE ( 'NONE', ( #310 ), #274, .T. ) ;
#171 = SURFACE_SIDE_STYLE ('',( #7 ) ) ;
#172 = UNCERTAINTY_MEASURE_WITH_UNIT (LENGTH_MEASURE( 1.000000000000000082E-05 ), #75, 'distance_accuracy_value', 'NONE');
#173 = LINE ( 'NONE', #10, #148 ) ;
#174 = CLOSED_SHELL ( 'NONE', ( #267, #102, #341, #223, #170, #90 ) ) ;
#175 = AXIS2_PLACEMENT_3D ( 'NONE', #304, #162, #334 ) ;
#176 =( NAMED_UNIT ( * ) SI_UNIT ( $, .STERADIAN. ) SOLID_ANGLE_UNIT ( ) );
#177 = DIRECTION ( 'NONE',  ( 0.000000000000000000, 0.000000000000000000, 1.000000000000000000 ) ) ;
#178 = CARTESIAN_POINT ( 'NONE',  ( 5.204170427930421283E-15, 32.00000000000000000, 0.000000000000000000 ) ) ;
#179 = TOROIDAL_SURFACE ( 'NONE', #84, 7.500000000000000000, 0.5000000000000002220 ) ;
#180 = AXIS2_PLACEMENT_3D ( 'NONE', #354, #139, #2 ) ;
#181 = PLANE ( 'NONE',  #180 ) ;
#182 = CIRCLE ( 'NONE', #342, 7.999999999999994671 ) ;
#183 =( GEOMETRIC_REPRESENTATION_CONTEXT ( 3 ) GLOBAL_UNCERTAINTY_ASSIGNED_CONTEXT ( ( #108 ) ) GLOBAL_UNIT_ASSIGNED_CONTEXT ( ( #110, #54, #348 ) ) REPRESENTATION_CONTEXT ( 'NONE', 'WORKASPACE' ) );
#184 = FACE_OUTER_BOUND ( 'NONE', #328, .T. ) ;
#185 = EDGE_LOOP ( 'NONE', ( #106, #269 ) ) ;
#186 = EDGE_LOOP ( 'NONE', ( #188, #91, #302, #46 ) ) ;
#187 = SURFACE_STYLE_FILL_AREA ( #73 ) ;
#188 = ORIENTED_EDGE ( 'NONE', *, *, #299, .F. ) ;
#189 = DIRECTION ( 'NONE',  ( -0.000000000000000000, -1.000000000000000000, -0.000000000000000000 ) ) ;
#190 = FACE_OUTER_BOUND ( 'NONE', #185, .T. ) ;
#191 = LINE ( 'NONE', #131, #18 ) ;
#192 = ORIENTED_EDGE ( 'NONE', *, *, #305, .T. ) ;
#193 = CARTESIAN_POINT ( 'NONE',  ( -1.714505518806293849E-15, 89.00000000000000000, 0.000000000000000000 ) ) ;
#194 = UNCERTAINTY_MEASURE_WITH_UNIT (LENGTH_MEASURE( 1.000000000000000082E-05 ), #61, 'distance_accuracy_value', 'NONE');
#195 = FILL_AREA_STYLE_COLOUR ( '', #228 ) ;
#196 = EDGE_CURVE ( 'NONE', #42, #275, #240, .T. ) ;
#197 = STYLED_ITEM ( 'NONE', ( #143 ), #267 ) ;
#198 =( GEOMETRIC_REPRESENTATION_CONTEXT ( 3 ) GLOBAL_UNCERTAINTY_ASSIGNED_CONTEXT ( ( #194 ) ) GLOBAL_UNIT_ASSIGNED_CONTEXT ( ( #61, #227, #293 ) ) REPRESENTATION_CONTEXT ( 'NONE', 'WORKASPACE' ) );
#199 = MANIFOLD_SOLID_BREP ( 'Revolve - Tool Body (Straight Shanked)', #365 ) ;
#200 = DIRECTION ( 'NONE',  ( -0.000000000000000000, -1.000000000000000000, -0.000000000000000000 ) ) ;
#201 = DIRECTION ( 'NONE',  ( 1.000000000000000000, 0.000000000000000000, -1.224646799147353207E-16 ) ) ;
#202 = PRESENTATION_LAYER_ASSIGNMENT (  '', '', ( #116 ) ) ;
#203 = DIRECTION ( 'NONE',  ( -1.213802797673107944E-16, 1.000000000000000000, -0.000000000000000000 ) ) ;
#204 = DIRECTION ( 'NONE',  ( -1.224646799147353454E-16, 0.000000000000000000, -1.000000000000000000 ) ) ;
#205 = PRESENTATION_LAYER_ASSIGNMENT (  '', '', ( #146 ) ) ;
#206 = FILL_AREA_STYLE ('',( #93 ) ) ;
#207 = ORIENTED_EDGE ( 'NONE', *, *, #252, .F. ) ;
#208 = ORIENTED_EDGE ( 'NONE', *, *, #326, .F. ) ;
#209 = SURFACE_SIDE_STYLE ('',( #323 ) ) ;
#210 = DIRECTION ( 'NONE',  ( -0.000000000000000000, -1.000000000000000000, -0.000000000000000000 ) ) ;
#211 = AXIS2_PLACEMENT_3D ( 'NONE', #370, #83, #1 ) ;
#212 = EDGE_CURVE ( 'NONE', #98, #215, #331, .T. ) ;
#213 = ORIENTED_EDGE ( 'NONE', *, *, #289, .F. ) ;
#214 =( NAMED_UNIT ( * ) PLANE_ANGLE_UNIT ( ) SI_UNIT ( $, .RADIAN. ) );
#215 = VERTEX_POINT ( 'NONE', #86 ) ;
#216 = SURFACE_STYLE_USAGE ( .BOTH. , #276 ) ;
#217 = CIRCLE ( 'NONE', #175, 0.5000000000000004441 ) ;
#218 = CIRCLE ( 'NONE', #30, 0.5000000000000004441 ) ;
#219 =( NAMED_UNIT ( * ) SI_UNIT ( $, .STERADIAN. ) SOLID_ANGLE_UNIT ( ) );
#220 = ORIENTED_EDGE ( 'NONE', *, *, #66, .F. ) ;
#221 = EDGE_CURVE ( 'NONE', #362, #119, #44, .T. ) ;
#222 = MECHANICAL_DESIGN_GEOMETRIC_PRESENTATION_REPRESENTATION (  '', ( #116 ), #17 ) ;
#223 = ADVANCED_FACE ( 'NONE', ( #246 ), #265, .T. ) ;
#224 = CARTESIAN_POINT ( 'NONE',  ( 9.491012693391985815E-16, 0.000000000000000000, 7.500000000000000000 ) ) ;
#225 =( NAMED_UNIT ( * ) PLANE_ANGLE_UNIT ( ) SI_UNIT ( $, .RADIAN. ) );
#226 = DIRECTION ( 'NONE',  ( -1.000000000000000000, 0.000000000000000000, 0.000000000000000000 ) ) ;
#227 =( NAMED_UNIT ( * ) PLANE_ANGLE_UNIT ( ) SI_UNIT ( $, .RADIAN. ) );
#228 = COLOUR_RGB ( '',1.000000000000000000, 0.000000000000000000, 0.000000000000000000 ) ;
#229 = COLOUR_RGB ( '',1.000000000000000000, 0.000000000000000000, 0.000000000000000000 ) ;
#230 = APPLICATION_PROTOCOL_DEFINITION ( 'draft international standard', 'automotive_design', 1998, #81 ) ;
#231 = CARTESIAN_POINT ( 'NONE',  ( 0.000000000000000000, 0.5000000000000000000, 0.000000000000000000 ) ) ;
#232 = EDGE_CURVE ( 'NONE', #23, #45, #217, .T. ) ;
#233 = APPLICATION_PROTOCOL_DEFINITION ( 'draft international standard', 'automotive_design', 1998, #154 ) ;
#234 = ORIENTED_EDGE ( 'NONE', *, *, #78, .T. ) ;
#235 = FACE_OUTER_BOUND ( 'NONE', #335, .T. ) ;
#236 = STYLED_ITEM ( 'NONE', ( #65 ), #102 ) ;
#237 = PRESENTATION_LAYER_ASSIGNMENT (  '', '', ( #121 ) ) ;
#238 = SURFACE_STYLE_USAGE ( .BOTH. , #209 ) ;
#239 = CARTESIAN_POINT ( 'NONE',  ( 0.000000000000000000, 0.000000000000000000, -7.500000000000000000 ) ) ;
#240 = CIRCLE ( 'NONE', #24, 7.999999999999994671 ) ;
#241 = FACE_OUTER_BOUND ( 'NONE', #167, .T. ) ;
#242 = DIRECTION ( 'NONE',  ( -1.000000000000000000, 0.000000000000000000, 0.000000000000000000 ) ) ;
#243 = ORIENTED_EDGE ( 'NONE', *, *, #330, .F. ) ;
#244 = CARTESIAN_POINT ( 'NONE',  ( 0.000000000000000000, 32.00000000000000000, 0.000000000000000000 ) ) ;
#245 = CARTESIAN_POINT ( 'NONE',  ( 8.000000000000000000, 32.00000000000000000, 9.797174393178825657E-16 ) ) ;
#246 = FACE_OUTER_BOUND ( 'NONE', #127, .T. ) ;
#247 = ORIENTED_EDGE ( 'NONE', *, *, #66, .T. ) ;
#248 = VECTOR ( 'NONE', #123, 1000.000000000000000 ) ;
#249 = UNCERTAINTY_MEASURE_WITH_UNIT (LENGTH_MEASURE( 1.000000000000000082E-05 ), #297, 'distance_accuracy_value', 'NONE');
#250 = PRESENTATION_STYLE_ASSIGNMENT (( #340 ) ) ;
#251 = DIRECTION ( 'NONE',  ( 0.000000000000000000, 0.000000000000000000, -1.000000000000000000 ) ) ;
#252 = EDGE_CURVE ( 'NONE', #275, #215, #191, .T. ) ;
#253 = STYLED_ITEM ( 'NONE', ( #368 ), #223 ) ;
#254 = CARTESIAN_POINT ( 'NONE',  ( -1.714505518806293849E-15, 89.00000000000000000, 0.000000000000000000 ) ) ;
#255 = MECHANICAL_DESIGN_GEOMETRIC_PRESENTATION_REPRESENTATION (  '', ( #121 ), #133 ) ;
#256 = PRESENTATION_STYLE_ASSIGNMENT (( #82 ) ) ;
#257 = CARTESIAN_POINT ( 'NONE',  ( 9.184850993605147944E-16, 0.5000000000000000000, 7.500000000000000000 ) ) ;
#258 = DIRECTION ( 'NONE',  ( -1.000000000000000000, 0.000000000000000000, 0.000000000000000000 ) ) ;
#259 = CARTESIAN_POINT ( 'NONE',  ( 0.000000000000000000, 0.000000000000000000, 0.000000000000000000 ) ) ;
#260 = CARTESIAN_POINT ( 'NONE',  ( 0.000000000000000000, 0.000000000000000000, 0.000000000000000000 ) ) ;
#261 = EDGE_CURVE ( 'NONE', #119, #362, #286, .T. ) ;
#262 = VECTOR ( 'NONE', #210, 1000.000000000000000 ) ;
#263 = FACE_OUTER_BOUND ( 'NONE', #186, .T. ) ;
#264 = DIRECTION ( 'NONE',  ( 0.000000000000000000, -0.000000000000000000, 1.000000000000000000 ) ) ;
#265 = TOROIDAL_SURFACE ( 'NONE', #120, 7.500000000000000000, 0.5000000000000002220 ) ;
#266 = CARTESIAN_POINT ( 'NONE',  ( 9.797174393178825657E-16, 0.5000000000000000000, 8.000000000000000000 ) ) ;
#267 = ADVANCED_FACE ( 'NONE', ( #109 ), #345, .T. ) ;
#268 = PRESENTATION_LAYER_ASSIGNMENT (  '', '', ( #38 ) ) ;
#269 = ORIENTED_EDGE ( 'NONE', *, *, #196, .F. ) ;
#270 = AXIS2_PLACEMENT_3D ( 'NONE', #260, #177, #287 ) ;
#271 = EDGE_LOOP ( 'NONE', ( #21, #324, #208, #207 ) ) ;
#272 = DIRECTION ( 'NONE',  ( 0.000000000000000000, 0.000000000000000000, -1.000000000000000000 ) ) ;
#273 = FILL_AREA_STYLE_COLOUR ( '', #104 ) ;
#274 = CYLINDRICAL_SURFACE ( 'NONE', #51, 8.000000000000000000 ) ;
#275 = VERTEX_POINT ( 'NONE', #89 ) ;
#276 = SURFACE_SIDE_STYLE ('',( #364 ) ) ;
#277 = PRESENTATION_LAYER_ASSIGNMENT (  '', '', ( #253 ) ) ;
#278 = FILL_AREA_STYLE_COLOUR ( '', #62 ) ;
#279 = UNCERTAINTY_MEASURE_WITH_UNIT (LENGTH_MEASURE( 1.000000000000000082E-05 ), #52, 'distance_accuracy_value', 'NONE');
#280 =( GEOMETRIC_REPRESENTATION_CONTEXT ( 3 ) GLOBAL_UNCERTAINTY_ASSIGNED_CONTEXT ( ( #49 ) ) GLOBAL_UNIT_ASSIGNED_CONTEXT ( ( #291, #31, #114 ) ) REPRESENTATION_CONTEXT ( 'NONE', 'WORKASPACE' ) );
#281 = CARTESIAN_POINT ( 'NONE',  ( 0.000000000000000000, 0.5000000000000000000, 0.000000000000000000 ) ) ;
#282 = ADVANCED_FACE ( 'NONE', ( #263 ), #29, .T. ) ;
#283 = FILL_AREA_STYLE_COLOUR ( '', #151 ) ;
#284 =( GEOMETRIC_REPRESENTATION_CONTEXT ( 3 ) GLOBAL_UNCERTAINTY_ASSIGNED_CONTEXT ( ( #159 ) ) GLOBAL_UNIT_ASSIGNED_CONTEXT ( ( #316, #100, #219 ) ) REPRESENTATION_CONTEXT ( 'NONE', 'WORKASPACE' ) );
#285 = FILL_AREA_STYLE ('',( #349 ) ) ;
#286 = CIRCLE ( 'NONE', #211, 8.000000000000000000 ) ;
#287 = DIRECTION ( 'NONE',  ( 1.000000000000000000, 0.000000000000000000, 0.000000000000000000 ) ) ;
#288 = SURFACE_SIDE_STYLE ('',( #319 ) ) ;
#289 = EDGE_CURVE ( 'NONE', #23, #67, #9, .T. ) ;
#290 = DIRECTION ( 'NONE',  ( -1.213802797673107944E-16, 1.000000000000000000, -0.000000000000000000 ) ) ;
#291 =( LENGTH_UNIT ( ) NAMED_UNIT ( * ) SI_UNIT ( .MILLI., .METRE. ) );
#292 = ORIENTED_EDGE ( 'NONE', *, *, #326, .T. ) ;
#293 =( NAMED_UNIT ( * ) SI_UNIT ( $, .STERADIAN. ) SOLID_ANGLE_UNIT ( ) );
#294 = AXIS2_PLACEMENT_3D ( 'NONE', #333, #101, #336 ) ;
#295 = PRODUCT_DEFINITION_SHAPE ( 'NONE', 'NONE',  #315 ) ;
#296 =( GEOMETRIC_REPRESENTATION_CONTEXT ( 3 ) GLOBAL_UNCERTAINTY_ASSIGNED_CONTEXT ( ( #249 ) ) GLOBAL_UNIT_ASSIGNED_CONTEXT ( ( #297, #214, #300 ) ) REPRESENTATION_CONTEXT ( 'NONE', 'WORKASPACE' ) );
#297 =( LENGTH_UNIT ( ) NAMED_UNIT ( * ) SI_UNIT ( .MILLI., .METRE. ) );
#298 = DIRECTION ( 'NONE',  ( -1.213802797673107944E-16, 1.000000000000000000, -0.000000000000000000 ) ) ;
#299 = EDGE_CURVE ( 'NONE', #42, #98, #173, .T. ) ;
#300 =( NAMED_UNIT ( * ) SI_UNIT ( $, .STERADIAN. ) SOLID_ANGLE_UNIT ( ) );
#301 = ORIENTED_EDGE ( 'NONE', *, *, #232, .F. ) ;
#302 = ORIENTED_EDGE ( 'NONE', *, *, #252, .T. ) ;
#303 = PRESENTATION_STYLE_ASSIGNMENT (( #158 ) ) ;
#304 = CARTESIAN_POINT ( 'NONE',  ( 0.000000000000000000, 0.5000000000000000000, -7.500000000000000000 ) ) ;
#305 = EDGE_CURVE ( 'NONE', #67, #357, #218, .T. ) ;
#306 = LINE ( 'NONE', #15, #248 ) ;
#307 = CARTESIAN_POINT ( 'NONE',  ( 0.000000000000000000, 0.5000000000000000000, 0.000000000000000000 ) ) ;
#308 = ORIENTED_EDGE ( 'NONE', *, *, #138, .T. ) ;
#309 = FILL_AREA_STYLE ('',( #112 ) ) ;
#310 = FACE_OUTER_BOUND ( 'NONE', #40, .T. ) ;
#311 = DIRECTION ( 'NONE',  ( -1.213802797673107944E-16, 1.000000000000000000, -0.000000000000000000 ) ) ;
#312 = AXIS2_PLACEMENT_3D ( 'NONE', #68, #95, #264 ) ;
#313 = COLOUR_RGB ( '',1.000000000000000000, 0.000000000000000000, 0.000000000000000000 ) ;
#314 = PRODUCT_CONTEXT ( 'NONE', #81, 'mechanical' ) ;
#315 = PRODUCT_DEFINITION ( 'UNKNOWN', '', #105, #134 ) ;
#316 =( LENGTH_UNIT ( ) NAMED_UNIT ( * ) SI_UNIT ( .MILLI., .METRE. ) );
#317 =( NAMED_UNIT ( * ) SI_UNIT ( $, .STERADIAN. ) SOLID_ANGLE_UNIT ( ) );
#318 =( GEOMETRIC_REPRESENTATION_CONTEXT ( 3 ) GLOBAL_UNCERTAINTY_ASSIGNED_CONTEXT ( ( #172 ) ) GLOBAL_UNIT_ASSIGNED_CONTEXT ( ( #75, #350, #317 ) ) REPRESENTATION_CONTEXT ( 'NONE', 'WORKASPACE' ) );
#319 = SURFACE_STYLE_FILL_AREA ( #285 ) ;
#320 = FACE_OUTER_BOUND ( 'NONE', #47, .T. ) ;
#321 = CARTESIAN_POINT ( 'NONE',  ( -1.714505518806293652E-15, 89.00000000000000000, 0.000000000000000000 ) ) ;
#322 = MANIFOLD_SOLID_BREP ( 'Revolve - Cutting Edge', #174 ) ;
#323 = SURFACE_STYLE_FILL_AREA ( #206 ) ;
#324 = ORIENTED_EDGE ( 'NONE', *, *, #299, .T. ) ;
#325 = COLOUR_RGB ( '',1.000000000000000000, 0.000000000000000000, 0.000000000000000000 ) ;
#326 = EDGE_CURVE ( 'NONE', #215, #98, #160, .T. ) ;
#327 = EDGE_LOOP ( 'NONE', ( #156, #234, #213, #220 ) ) ;
#328 = EDGE_LOOP ( 'NONE', ( #79, #192, #72, #301 ) ) ;
#329 = ORIENTED_EDGE ( 'NONE', *, *, #261, .F. ) ;
#330 = EDGE_CURVE ( 'NONE', #357, #45, #39, .T. ) ;
#331 = CIRCLE ( 'NONE', #356, 8.000000000000001776 ) ;
#332 = DIRECTION ( 'NONE',  ( -1.000000000000000000, 0.000000000000000000, 0.000000000000000000 ) ) ;
#333 = CARTESIAN_POINT ( 'NONE',  ( 8.000000000000000000, 89.00000000000000000, 0.000000000000000000 ) ) ;
#334 = DIRECTION ( 'NONE',  ( 0.000000000000000000, 0.000000000000000000, 1.000000000000000000 ) ) ;
#335 = EDGE_LOOP ( 'NONE', ( #292, #129 ) ) ;
#336 = DIRECTION ( 'NONE',  ( 1.000000000000000000, 1.213802797673107944E-16, 0.000000000000000000 ) ) ;
#337 = UNCERTAINTY_MEASURE_WITH_UNIT (LENGTH_MEASURE( 1.000000000000000082E-05 ), #111, 'distance_accuracy_value', 'NONE');
#338 = SURFACE_SIDE_STYLE ('',( #107 ) ) ;
#339 = PRESENTATION_STYLE_ASSIGNMENT (( #216 ) ) ;
#340 = SURFACE_STYLE_USAGE ( .BOTH. , #171 ) ;
#341 = ADVANCED_FACE ( 'NONE', ( #320 ), #181, .T. ) ;
#342 = AXIS2_PLACEMENT_3D ( 'NONE', #363, #298, #332 ) ;
#343 =( NAMED_UNIT ( * ) SI_UNIT ( $, .STERADIAN. ) SOLID_ANGLE_UNIT ( ) );
#344 = PRESENTATION_LAYER_ASSIGNMENT (  '', '', ( #197 ) ) ;
#345 = CYLINDRICAL_SURFACE ( 'NONE', #36, 8.000000000000000000 ) ;
#346 = CARTESIAN_POINT ( 'NONE',  ( 0.000000000000000000, 0.000000000000000000, 0.000000000000000000 ) ) ;
#347 =( NAMED_UNIT ( * ) PLANE_ANGLE_UNIT ( ) SI_UNIT ( $, .RADIAN. ) );
#348 =( NAMED_UNIT ( * ) SI_UNIT ( $, .STERADIAN. ) SOLID_ANGLE_UNIT ( ) );
#349 = FILL_AREA_STYLE_COLOUR ( '', #353 ) ;
#350 =( NAMED_UNIT ( * ) PLANE_ANGLE_UNIT ( ) SI_UNIT ( $, .RADIAN. ) );
#351 = AXIS2_PLACEMENT_3D ( 'NONE', #244, #135, #272 ) ;
#352 = DIRECTION ( 'NONE',  ( -0.000000000000000000, -1.000000000000000000, -0.000000000000000000 ) ) ;
#353 = COLOUR_RGB ( '',0.7921568627450980005, 0.8196078431372548767, 0.9333333333333333481 ) ;
#354 = CARTESIAN_POINT ( 'NONE',  ( 0.000000000000000000, 0.000000000000000000, 0.000000000000000000 ) ) ;
#355 = SURFACE_SIDE_STYLE ('',( #33 ) ) ;
#356 = AXIS2_PLACEMENT_3D ( 'NONE', #103, #166, #53 ) ;
#357 = VERTEX_POINT ( 'NONE', #224 ) ;
#358 = EDGE_CURVE ( 'NONE', #45, #357, #56, .T. ) ;
#359 = LINE ( 'NONE', #77, #262 ) ;
#360 = MECHANICAL_DESIGN_GEOMETRIC_PRESENTATION_REPRESENTATION (  '', ( #197 ), #198 ) ;
#361 = PLANE ( 'NONE',  #312 ) ;
#362 = VERTEX_POINT ( 'NONE', #117 ) ;
#363 = CARTESIAN_POINT ( 'NONE',  ( 5.204170427930421283E-15, 32.00000000000000000, 0.000000000000000000 ) ) ;
#364 = SURFACE_STYLE_FILL_AREA ( #309 ) ;
#365 = CLOSED_SHELL ( 'NONE', ( #153, #37, #282, #115 ) ) ;
#366 = ORIENTED_EDGE ( 'NONE', *, *, #78, .F. ) ;
#367 = PRESENTATION_LAYER_ASSIGNMENT (  '', '', ( #126 ) ) ;
#368 = PRESENTATION_STYLE_ASSIGNMENT (( #22 ) ) ;
#369 = FILL_AREA_STYLE ('',( #273 ) ) ;
#370 = CARTESIAN_POINT ( 'NONE',  ( 0.000000000000000000, 32.00000000000000000, 0.000000000000000000 ) ) ;
ENDSEC;
END-ISO-10303-21;
