ISO-10303-21;
HEADER;
FILE_DESCRIPTION (( 'STEP AP214' ),
    '1' );
FILE_NAME ('06363.STEP',
    '2023-07-05T16:02:06',
    ( '' ),
    ( '' ),
    'SwSTEP 2.0',
    'SolidWorks 2023',
    '' );
FILE_SCHEMA (( 'AUTOMOTIVE_DESIGN' ));
ENDSEC;

DATA;
#1 =( GEOMETRIC_REPRESENTATION_CONTEXT ( 3 ) GLOBAL_UNCERTAINTY_ASSIGNED_CONTEXT ( ( #237 ) ) GLOBAL_UNIT_ASSIGNED_CONTEXT ( ( #214, #79, #221 ) ) REPRESENTATION_CONTEXT ( 'NONE', 'WORKASPACE' ) );
#2 = PLANE ( 'NONE',  #132 ) ;
#3 = ADVANCED_FACE ( 'NONE', ( #230 ), #248, .F. ) ;
#4 =( NAMED_UNIT ( * ) SI_UNIT ( $, .STERADIAN. ) SOLID_ANGLE_UNIT ( ) );
#5 = DIRECTION ( 'NONE',  ( -1.478510563588688038E-16, 1.000000000000000000, -0.000000000000000000 ) ) ;
#6 = VERTEX_POINT ( 'NONE', #143 ) ;
#7 = STYLED_ITEM ( 'NONE', ( #41 ), #192 ) ;
#8 = FILL_AREA_STYLE ('',( #96 ) ) ;
#9 = AXIS2_PLACEMENT_3D ( 'NONE', #84, #157, #249 ) ;
#10 = DIMENSIONAL_EXPONENTS ( 1.000000000000000000, 0.000000000000000000, 0.000000000000000000, 0.000000000000000000, 0.000000000000000000, 0.000000000000000000, 0.000000000000000000 ) ;
#11 = DIRECTION ( 'NONE',  ( -0.000000000000000000, -1.000000000000000000, -0.000000000000000000 ) ) ;
#12 = PRESENTATION_LAYER_ASSIGNMENT (  '', '', ( #150 ) ) ;
#13 = DIRECTION ( 'NONE',  ( -1.000000000000000000, 0.000000000000000000, 0.000000000000000000 ) ) ;
#14 = SURFACE_STYLE_FILL_AREA ( #121 ) ;
#15 = CARTESIAN_POINT ( 'NONE',  ( 0.000000000000000000, 0.3247595264191635578, 0.000000000000000000 ) ) ;
#16 = EDGE_CURVE ( 'NONE', #228, #6, #97, .T. ) ;
#17 = FACE_OUTER_BOUND ( 'NONE', #165, .T. ) ;
#18 = AXIS2_PLACEMENT_3D ( 'NONE', #15, #212, #209 ) ;
#19 = ADVANCED_FACE ( 'NONE', ( #257 ), #104, .T. ) ;
#20 = CARTESIAN_POINT ( 'NONE',  ( -6.123233995736766036E-17, 2.500000000000000000, 0.000000000000000000 ) ) ;
#21 = LENGTH_MEASURE_WITH_UNIT ( LENGTH_MEASURE( 0.02539999999999999897 ), #219 );
#22 =( LENGTH_UNIT ( ) NAMED_UNIT ( * ) SI_UNIT ( $, .METRE. ) );
#23 = AXIS2_PLACEMENT_3D ( 'NONE', #48, #26, #63 ) ;
#24 = CARTESIAN_POINT ( 'NONE',  ( 0.000000000000000000, 39.37007874015748143, 0.000000000000000000 ) ) ;
#25 =( NAMED_UNIT ( * ) SI_UNIT ( $, .STERADIAN. ) SOLID_ANGLE_UNIT ( ) );
#26 = DIRECTION ( 'NONE',  ( 1.478510563588688038E-16, -1.000000000000000000, 0.000000000000000000 ) ) ;
#27 = MECHANICAL_DESIGN_GEOMETRIC_PRESENTATION_REPRESENTATION (  '', ( #152 ), #202 ) ;
#28 = ORIENTED_EDGE ( 'NONE', *, *, #170, .F. ) ;
#29 = SURFACE_SIDE_STYLE ('',( #259 ) ) ;
#30 = UNCERTAINTY_MEASURE_WITH_UNIT (LENGTH_MEASURE( 1.000000000000000082E-05 ), #103, 'distance_accuracy_value', 'NONE');
#31 = FACE_OUTER_BOUND ( 'NONE', #225, .T. ) ;
#32 = APPLICATION_CONTEXT ( 'automotive_design' ) ;
#33 = VECTOR ( 'NONE', #155, 39.37007874015748143 ) ;
#34 = LENGTH_MEASURE_WITH_UNIT ( LENGTH_MEASURE( 0.02539999999999999897 ), #37 );
#35 = UNCERTAINTY_MEASURE_WITH_UNIT (LENGTH_MEASURE( 1.000000000000000082E-05 ), #81, 'distance_accuracy_value', 'NONE');
#36 =( GEOMETRIC_REPRESENTATION_CONTEXT ( 3 ) GLOBAL_UNCERTAINTY_ASSIGNED_CONTEXT ( ( #112 ) ) GLOBAL_UNIT_ASSIGNED_CONTEXT ( ( #174, #136, #56 ) ) REPRESENTATION_CONTEXT ( 'NONE', 'WORKASPACE' ) );
#37 =( LENGTH_UNIT ( ) NAMED_UNIT ( * ) SI_UNIT ( $, .METRE. ) );
#38 = DIRECTION ( 'NONE',  ( 0.000000000000000000, 0.000000000000000000, -1.000000000000000000 ) ) ;
#39 = DIRECTION ( 'NONE',  ( -1.000000000000000000, 0.000000000000000000, 0.000000000000000000 ) ) ;
#40 = AXIS2_PLACEMENT_3D ( 'NONE', #168, #240, #55 ) ;
#41 = PRESENTATION_STYLE_ASSIGNMENT (( #220 ) ) ;
#42 = DIRECTION ( 'NONE',  ( -1.478510563588688038E-16, 1.000000000000000000, -0.000000000000000000 ) ) ;
#43 = CARTESIAN_POINT ( 'NONE',  ( 2.603792618961250911E-16, 0.3247595264191634468, 0.000000000000000000 ) ) ;
#44 = ORIENTED_EDGE ( 'NONE', *, *, #137, .F. ) ;
#45 = CARTESIAN_POINT ( 'NONE',  ( 0.000000000000000000, 0.3247595264191635578, 0.000000000000000000 ) ) ;
#46 = EDGE_CURVE ( 'NONE', #232, #160, #82, .T. ) ;
#47 = ORIENTED_EDGE ( 'NONE', *, *, #16, .T. ) ;
#48 = CARTESIAN_POINT ( 'NONE',  ( 0.1874999999999999722, 2.500000000000000000, 0.000000000000000000 ) ) ;
#49 =( NAMED_UNIT ( * ) SI_UNIT ( $, .STERADIAN. ) SOLID_ANGLE_UNIT ( ) );
#50 = SURFACE_STYLE_FILL_AREA ( #8 ) ;
#51 = PRESENTATION_STYLE_ASSIGNMENT (( #154 ) ) ;
#52 = DIMENSIONAL_EXPONENTS ( 1.000000000000000000, 0.000000000000000000, 0.000000000000000000, 0.000000000000000000, 0.000000000000000000, 0.000000000000000000, 0.000000000000000000 ) ;
#53 =( LENGTH_UNIT ( ) NAMED_UNIT ( * ) SI_UNIT ( $, .METRE. ) );
#54 = PRODUCT_DEFINITION_CONTEXT ( 'detailed design', #76, 'design' ) ;
#55 = DIRECTION ( 'NONE',  ( -1.000000000000000000, 0.000000000000000000, 0.000000000000000000 ) ) ;
#56 =( NAMED_UNIT ( * ) SI_UNIT ( $, .STERADIAN. ) SOLID_ANGLE_UNIT ( ) );
#57 = CARTESIAN_POINT ( 'NONE',  ( 0.000000000000000000, 0.000000000000000000, 0.000000000000000000 ) ) ;
#58 = PRESENTATION_LAYER_ASSIGNMENT (  '', '', ( #7 ) ) ;
#59 = FILL_AREA_STYLE ('',( #244 ) ) ;
#60 = AXIS2_PLACEMENT_3D ( 'NONE', #67, #201, #105 ) ;
#61 = EDGE_CURVE ( 'NONE', #187, #232, #216, .T. ) ;
#62 = CARTESIAN_POINT ( 'NONE',  ( -0.1874999999999999445, 2.500000000000000000, 0.000000000000000000 ) ) ;
#63 = DIRECTION ( 'NONE',  ( 1.000000000000000000, 1.478510563588688038E-16, 0.000000000000000000 ) ) ;
#64 = MECHANICAL_DESIGN_GEOMETRIC_PRESENTATION_REPRESENTATION (  '', ( #7 ), #138 ) ;
#65 = ORIENTED_EDGE ( 'NONE', *, *, #170, .T. ) ;
#66 = ADVANCED_FACE ( 'NONE', ( #241 ), #113, .T. ) ;
#67 = CARTESIAN_POINT ( 'NONE',  ( -6.123233995736764803E-17, 2.500000000000000000, 0.000000000000000000 ) ) ;
#68 = ORIENTED_EDGE ( 'NONE', *, *, #200, .T. ) ;
#69 = CIRCLE ( 'NONE', #60, 0.1875000000000000555 ) ;
#70 = LENGTH_MEASURE_WITH_UNIT ( LENGTH_MEASURE( 0.02539999999999999897 ), #53 );
#71 = ADVANCED_FACE ( 'NONE', ( #31 ), #114, .T. ) ;
#72 = FILL_AREA_STYLE_COLOUR ( '', #195 ) ;
#73 = SURFACE_SIDE_STYLE ('',( #50 ) ) ;
#74 = FILL_AREA_STYLE_COLOUR ( '', #191 ) ;
#75 = LENGTH_MEASURE_WITH_UNIT ( LENGTH_MEASURE( 0.02539999999999999897 ), #171 );
#76 = APPLICATION_CONTEXT ( 'automotive_design' ) ;
#77 = COLOUR_RGB ( '',0.7921568627450980005, 0.8196078431372548767, 0.9333333333333333481 ) ;
#78 =( GEOMETRIC_REPRESENTATION_CONTEXT ( 3 ) GLOBAL_UNCERTAINTY_ASSIGNED_CONTEXT ( ( #35 ) ) GLOBAL_UNIT_ASSIGNED_CONTEXT ( ( #81, #190, #98 ) ) REPRESENTATION_CONTEXT ( 'NONE', 'WORKASPACE' ) );
#79 =( NAMED_UNIT ( * ) PLANE_ANGLE_UNIT ( ) SI_UNIT ( $, .RADIAN. ) );
#80 = AXIS2_PLACEMENT_3D ( 'NONE', #229, #239, #13 ) ;
#81 =( CONVERSION_BASED_UNIT ( 'INCH', #75 ) LENGTH_UNIT ( ) NAMED_UNIT ( #10 ) );
#82 = CIRCLE ( 'NONE', #109, 0.1874999999999999722 ) ;
#83 = PRESENTATION_STYLE_ASSIGNMENT (( #122 ) ) ;
#84 = CARTESIAN_POINT ( 'NONE',  ( 0.000000000000000000, 39.37007874015748143, 0.000000000000000000 ) ) ;
#85 = PRODUCT_RELATED_PRODUCT_CATEGORY ( 'part', '', ( #144 ) ) ;
#86 = DIRECTION ( 'NONE',  ( -1.478510563588688038E-16, 1.000000000000000000, -0.000000000000000000 ) ) ;
#87 = CARTESIAN_POINT ( 'NONE',  ( 0.000000000000000000, 0.000000000000000000, 0.000000000000000000 ) ) ;
#88 = VERTEX_POINT ( 'NONE', #119 ) ;
#89 = EDGE_CURVE ( 'NONE', #228, #208, #197, .T. ) ;
#90 = ORIENTED_EDGE ( 'NONE', *, *, #130, .T. ) ;
#91 = EDGE_LOOP ( 'NONE', ( #65, #161, #125, #44 ) ) ;
#92 = SURFACE_STYLE_USAGE ( .BOTH. , #73 ) ;
#93 = ORIENTED_EDGE ( 'NONE', *, *, #153, .F. ) ;
#94 =( CONVERSION_BASED_UNIT ( 'INCH', #70 ) LENGTH_UNIT ( ) NAMED_UNIT ( #151 ) );
#95 = UNCERTAINTY_MEASURE_WITH_UNIT (LENGTH_MEASURE( 1.000000000000000082E-05 ), #110, 'distance_accuracy_value', 'NONE');
#96 = FILL_AREA_STYLE_COLOUR ( '', #106 ) ;
#97 = CIRCLE ( 'NONE', #118, 0.1874999999999997502 ) ;
#98 =( NAMED_UNIT ( * ) SI_UNIT ( $, .STERADIAN. ) SOLID_ANGLE_UNIT ( ) );
#99 = SURFACE_STYLE_USAGE ( .BOTH. , #258 ) ;
#100 = CARTESIAN_POINT ( 'NONE',  ( 0.1874999999999998057, 2.500000000000000000, 2.296212748401285877E-17 ) ) ;
#101 = DIRECTION ( 'NONE',  ( -1.000000000000000000, -1.478510563588688038E-16, 0.000000000000000000 ) ) ;
#102 = PRODUCT_DEFINITION ( 'UNKNOWN', '', #231, #54 ) ;
#103 =( CONVERSION_BASED_UNIT ( 'INCH', #21 ) LENGTH_UNIT ( ) NAMED_UNIT ( #261 ) );
#104 = CONICAL_SURFACE ( 'NONE', #124, 22.73032555864674364, 0.5235987755983000369 ) ;
#105 = DIRECTION ( 'NONE',  ( -1.000000000000000000, 0.000000000000000000, 0.000000000000000000 ) ) ;
#106 = COLOUR_RGB ( '',0.7921568627450980005, 0.8196078431372548767, 0.9333333333333333481 ) ;
#107 = DIRECTION ( 'NONE',  ( -1.478510563588688038E-16, 1.000000000000000000, -0.000000000000000000 ) ) ;
#108 = ORIENTED_EDGE ( 'NONE', *, *, #16, .F. ) ;
#109 = AXIS2_PLACEMENT_3D ( 'NONE', #263, #11, #38 ) ;
#110 =( CONVERSION_BASED_UNIT ( 'INCH', #128 ) LENGTH_UNIT ( ) NAMED_UNIT ( #52 ) );
#111 = ORIENTED_EDGE ( 'NONE', *, *, #61, .F. ) ;
#112 = UNCERTAINTY_MEASURE_WITH_UNIT (LENGTH_MEASURE( 1.000000000000000082E-05 ), #174, 'distance_accuracy_value', 'NONE');
#113 = PLANE ( 'NONE',  #18 ) ;
#114 = CYLINDRICAL_SURFACE ( 'NONE', #40, 0.1874999999999998890 ) ;
#115 = VECTOR ( 'NONE', #167, 39.37007874015748143 ) ;
#116 = CARTESIAN_POINT ( 'NONE',  ( 0.000000000000000000, 0.000000000000000000, 0.000000000000000000 ) ) ;
#117 = EDGE_CURVE ( 'NONE', #187, #160, #180, .T. ) ;
#118 = AXIS2_PLACEMENT_3D ( 'NONE', #43, #107, #129 ) ;
#119 = CARTESIAN_POINT ( 'NONE',  ( -0.1875000000000001110, 2.500000000000000000, 0.000000000000000000 ) ) ;
#120 =( GEOMETRIC_REPRESENTATION_CONTEXT ( 3 ) GLOBAL_UNCERTAINTY_ASSIGNED_CONTEXT ( ( #30 ) ) GLOBAL_UNIT_ASSIGNED_CONTEXT ( ( #103, #123, #4 ) ) REPRESENTATION_CONTEXT ( 'NONE', 'WORKASPACE' ) );
#121 = FILL_AREA_STYLE ('',( #74 ) ) ;
#122 = SURFACE_STYLE_USAGE ( .BOTH. , #222 ) ;
#123 =( NAMED_UNIT ( * ) PLANE_ANGLE_UNIT ( ) SI_UNIT ( $, .RADIAN. ) );
#124 = AXIS2_PLACEMENT_3D ( 'NONE', #24, #218, #196 ) ;
#125 = ORIENTED_EDGE ( 'NONE', *, *, #130, .F. ) ;
#126 = CARTESIAN_POINT ( 'NONE',  ( 2.603792618961250911E-16, 0.3247595264191634468, 0.000000000000000000 ) ) ;
#127 = ORIENTED_EDGE ( 'NONE', *, *, #46, .T. ) ;
#128 = LENGTH_MEASURE_WITH_UNIT ( LENGTH_MEASURE( 0.02539999999999999897 ), #22 );
#129 = DIRECTION ( 'NONE',  ( -1.000000000000000000, 0.000000000000000000, 0.000000000000000000 ) ) ;
#130 = EDGE_CURVE ( 'NONE', #88, #208, #69, .T. ) ;
#131 = CARTESIAN_POINT ( 'NONE',  ( 0.1874999999999999722, 0.3247595264191634468, 2.296212748401286801E-17 ) ) ;
#132 = AXIS2_PLACEMENT_3D ( 'NONE', #142, #183, #101 ) ;
#133 = CARTESIAN_POINT ( 'NONE',  ( 0.000000000000000000, 0.3247595264191635578, 0.1874999999999999722 ) ) ;
#134 = CLOSED_SHELL ( 'NONE', ( #19, #66, #172 ) ) ;
#135 = DIRECTION ( 'NONE',  ( 1.000000000000000000, 0.000000000000000000, 0.000000000000000000 ) ) ;
#136 =( NAMED_UNIT ( * ) PLANE_ANGLE_UNIT ( ) SI_UNIT ( $, .RADIAN. ) );
#137 = EDGE_CURVE ( 'NONE', #6, #88, #224, .T. ) ;
#138 =( GEOMETRIC_REPRESENTATION_CONTEXT ( 3 ) GLOBAL_UNCERTAINTY_ASSIGNED_CONTEXT ( ( #95 ) ) GLOBAL_UNIT_ASSIGNED_CONTEXT ( ( #110, #185, #25 ) ) REPRESENTATION_CONTEXT ( 'NONE', 'WORKASPACE' ) );
#139 = APPLICATION_PROTOCOL_DEFINITION ( 'draft international standard', 'automotive_design', 1998, #32 ) ;
#140 = DIRECTION ( 'NONE',  ( -1.000000000000000000, 0.000000000000000000, 0.000000000000000000 ) ) ;
#141 = SURFACE_STYLE_FILL_AREA ( #59 ) ;
#142 = CARTESIAN_POINT ( 'NONE',  ( 2.603792618961250911E-16, 0.3247595264191635578, 0.000000000000000000 ) ) ;
#143 = CARTESIAN_POINT ( 'NONE',  ( -0.1874999999999994726, 0.3247595264191634468, 0.000000000000000000 ) ) ;
#144 = PRODUCT ( '06363', '06363', '', ( #243 ) ) ;
#145 = SURFACE_SIDE_STYLE ('',( #141 ) ) ;
#146 = EDGE_LOOP ( 'NONE', ( #111, #182, #205 ) ) ;
#147 = FACE_OUTER_BOUND ( 'NONE', #91, .T. ) ;
#148 = ADVANCED_FACE ( 'NONE', ( #17 ), #2, .F. ) ;
#149 = ORIENTED_EDGE ( 'NONE', *, *, #89, .F. ) ;
#150 = STYLED_ITEM ( 'NONE', ( #236 ), #66 ) ;
#151 = DIMENSIONAL_EXPONENTS ( 1.000000000000000000, 0.000000000000000000, 0.000000000000000000, 0.000000000000000000, 0.000000000000000000, 0.000000000000000000, 0.000000000000000000 ) ;
#152 = STYLED_ITEM ( 'NONE', ( #188 ), #199 ) ;
#153 = EDGE_CURVE ( 'NONE', #160, #232, #186, .T. ) ;
#154 = SURFACE_STYLE_USAGE ( .BOTH. , #29 ) ;
#155 = DIRECTION ( 'NONE',  ( -1.478510563588688038E-16, 1.000000000000000000, -0.000000000000000000 ) ) ;
#156 = CARTESIAN_POINT ( 'NONE',  ( 0.000000000000000000, 0.000000000000000000, 0.000000000000000000 ) ) ;
#157 = DIRECTION ( 'NONE',  ( 0.000000000000000000, 1.000000000000000000, 0.000000000000000000 ) ) ;
#158 = DIRECTION ( 'NONE',  ( 0.000000000000000000, 0.000000000000000000, -1.000000000000000000 ) ) ;
#159 = AXIS2_PLACEMENT_3D ( 'NONE', #20, #5, #140 ) ;
#160 = VERTEX_POINT ( 'NONE', #242 ) ;
#161 = ORIENTED_EDGE ( 'NONE', *, *, #89, .T. ) ;
#162 = DIRECTION ( 'NONE',  ( -0.000000000000000000, -1.000000000000000000, -0.000000000000000000 ) ) ;
#163 = ORIENTED_EDGE ( 'NONE', *, *, #200, .F. ) ;
#164 = ADVANCED_FACE ( 'NONE', ( #147 ), #226, .T. ) ;
#165 = EDGE_LOOP ( 'NONE', ( #28, #108 ) ) ;
#166 = EDGE_LOOP ( 'NONE', ( #250, #93 ) ) ;
#167 = DIRECTION ( 'NONE',  ( 0.000000000000000000, 0.8660254037844380415, 0.5000000000000009992 ) ) ;
#168 = CARTESIAN_POINT ( 'NONE',  ( -6.123233995736766036E-17, 2.500000000000000000, 0.000000000000000000 ) ) ;
#169 = CONICAL_SURFACE ( 'NONE', #9, 22.73032555864674364, 0.5235987755983000369 ) ;
#170 = EDGE_CURVE ( 'NONE', #6, #228, #245, .T. ) ;
#171 =( LENGTH_UNIT ( ) NAMED_UNIT ( * ) SI_UNIT ( $, .METRE. ) );
#172 = ADVANCED_FACE ( 'NONE', ( #246 ), #169, .T. ) ;
#173 = LENGTH_MEASURE_WITH_UNIT ( LENGTH_MEASURE( 0.02539999999999999897 ), #193 );
#174 =( CONVERSION_BASED_UNIT ( 'INCH', #34 ) LENGTH_UNIT ( ) NAMED_UNIT ( #233 ) );
#175 = DIRECTION ( 'NONE',  ( 0.000000000000000000, 0.000000000000000000, 1.000000000000000000 ) ) ;
#176 = VECTOR ( 'NONE', #252, 39.37007874015748143 ) ;
#177 = FILL_AREA_STYLE_COLOUR ( '', #198 ) ;
#178 = MECHANICAL_DESIGN_GEOMETRIC_PRESENTATION_REPRESENTATION (  '', ( #194 ), #120 ) ;
#179 = APPLICATION_PROTOCOL_DEFINITION ( 'draft international standard', 'automotive_design', 1998, #76 ) ;
#180 = LINE ( 'NONE', #57, #176 ) ;
#181 = ADVANCED_BREP_SHAPE_REPRESENTATION ( '06363', ( #199, #192, #251 ), #1 ) ;
#182 = ORIENTED_EDGE ( 'NONE', *, *, #117, .T. ) ;
#183 = DIRECTION ( 'NONE',  ( -1.478510563588688038E-16, 1.000000000000000000, 0.000000000000000000 ) ) ;
#184 = ORIENTED_EDGE ( 'NONE', *, *, #137, .T. ) ;
#185 =( NAMED_UNIT ( * ) PLANE_ANGLE_UNIT ( ) SI_UNIT ( $, .RADIAN. ) );
#186 = CIRCLE ( 'NONE', #207, 0.1874999999999999722 ) ;
#187 = VERTEX_POINT ( 'NONE', #87 ) ;
#188 = PRESENTATION_STYLE_ASSIGNMENT (( #92 ) ) ;
#189 = EDGE_LOOP ( 'NONE', ( #204, #256, #127 ) ) ;
#190 =( NAMED_UNIT ( * ) PLANE_ANGLE_UNIT ( ) SI_UNIT ( $, .RADIAN. ) );
#191 = COLOUR_RGB ( '',1.000000000000000000, 0.000000000000000000, 0.000000000000000000 ) ;
#192 = MANIFOLD_SOLID_BREP ( 'Revolve - Tool Body (Pointed)', #234 ) ;
#193 =( LENGTH_UNIT ( ) NAMED_UNIT ( * ) SI_UNIT ( $, .METRE. ) );
#194 = STYLED_ITEM ( 'NONE', ( #83 ), #172 ) ;
#195 = COLOUR_RGB ( '',1.000000000000000000, 0.000000000000000000, 0.000000000000000000 ) ;
#196 = DIRECTION ( 'NONE',  ( 0.000000000000000000, 0.000000000000000000, 1.000000000000000000 ) ) ;
#197 = LINE ( 'NONE', #100, #33 ) ;
#198 = COLOUR_RGB ( '',1.000000000000000000, 0.000000000000000000, 0.000000000000000000 ) ;
#199 = MANIFOLD_SOLID_BREP ( 'Revolve - Cutting Edge', #134 ) ;
#200 = EDGE_CURVE ( 'NONE', #208, #88, #223, .T. ) ;
#201 = DIRECTION ( 'NONE',  ( -1.478510563588688038E-16, 1.000000000000000000, -0.000000000000000000 ) ) ;
#202 =( GEOMETRIC_REPRESENTATION_CONTEXT ( 3 ) GLOBAL_UNCERTAINTY_ASSIGNED_CONTEXT ( ( #211 ) ) GLOBAL_UNIT_ASSIGNED_CONTEXT ( ( #94, #206, #49 ) ) REPRESENTATION_CONTEXT ( 'NONE', 'WORKASPACE' ) );
#203 = SURFACE_STYLE_FILL_AREA ( #265 ) ;
#204 = ORIENTED_EDGE ( 'NONE', *, *, #117, .F. ) ;
#205 = ORIENTED_EDGE ( 'NONE', *, *, #153, .T. ) ;
#206 =( NAMED_UNIT ( * ) PLANE_ANGLE_UNIT ( ) SI_UNIT ( $, .RADIAN. ) );
#207 = AXIS2_PLACEMENT_3D ( 'NONE', #45, #162, #158 ) ;
#208 = VERTEX_POINT ( 'NONE', #213 ) ;
#209 = DIRECTION ( 'NONE',  ( 0.000000000000000000, -0.000000000000000000, 1.000000000000000000 ) ) ;
#210 = AXIS2_PLACEMENT_3D ( 'NONE', #126, #86, #39 ) ;
#211 = UNCERTAINTY_MEASURE_WITH_UNIT (LENGTH_MEASURE( 1.000000000000000082E-05 ), #94, 'distance_accuracy_value', 'NONE');
#212 = DIRECTION ( 'NONE',  ( 0.000000000000000000, 1.000000000000000000, 0.000000000000000000 ) ) ;
#213 = CARTESIAN_POINT ( 'NONE',  ( 0.1874999999999999722, 2.500000000000000000, 2.296212748401286801E-17 ) ) ;
#214 =( CONVERSION_BASED_UNIT ( 'INCH', #173 ) LENGTH_UNIT ( ) NAMED_UNIT ( #238 ) );
#215 = PRESENTATION_LAYER_ASSIGNMENT (  '', '', ( #260 ) ) ;
#216 = LINE ( 'NONE', #116, #115 ) ;
#217 = SHAPE_DEFINITION_REPRESENTATION ( #255, #181 ) ;
#218 = DIRECTION ( 'NONE',  ( 0.000000000000000000, 1.000000000000000000, 0.000000000000000000 ) ) ;
#219 =( LENGTH_UNIT ( ) NAMED_UNIT ( * ) SI_UNIT ( $, .METRE. ) );
#220 = SURFACE_STYLE_USAGE ( .BOTH. , #145 ) ;
#221 =( NAMED_UNIT ( * ) SI_UNIT ( $, .STERADIAN. ) SOLID_ANGLE_UNIT ( ) );
#222 = SURFACE_SIDE_STYLE ('',( #203 ) ) ;
#223 = CIRCLE ( 'NONE', #80, 0.1875000000000000555 ) ;
#224 = LINE ( 'NONE', #62, #254 ) ;
#225 = EDGE_LOOP ( 'NONE', ( #149, #47, #184, #163 ) ) ;
#226 = CYLINDRICAL_SURFACE ( 'NONE', #159, 0.1874999999999998890 ) ;
#227 = MECHANICAL_DESIGN_GEOMETRIC_PRESENTATION_REPRESENTATION (  '', ( #150 ), #78 ) ;
#228 = VERTEX_POINT ( 'NONE', #131 ) ;
#229 = CARTESIAN_POINT ( 'NONE',  ( -6.123233995736764803E-17, 2.500000000000000000, 0.000000000000000000 ) ) ;
#230 = FACE_OUTER_BOUND ( 'NONE', #253, .T. ) ;
#231 = PRODUCT_DEFINITION_FORMATION_WITH_SPECIFIED_SOURCE ( 'ANY', '', #144, .NOT_KNOWN. ) ;
#232 = VERTEX_POINT ( 'NONE', #133 ) ;
#233 = DIMENSIONAL_EXPONENTS ( 1.000000000000000000, 0.000000000000000000, 0.000000000000000000, 0.000000000000000000, 0.000000000000000000, 0.000000000000000000, 0.000000000000000000 ) ;
#234 = CLOSED_SHELL ( 'NONE', ( #164, #148, #71, #3 ) ) ;
#235 = PRESENTATION_LAYER_ASSIGNMENT (  '', '', ( #152 ) ) ;
#236 = PRESENTATION_STYLE_ASSIGNMENT (( #99 ) ) ;
#237 = UNCERTAINTY_MEASURE_WITH_UNIT (LENGTH_MEASURE( 1.000000000000000082E-05 ), #214, 'distance_accuracy_value', 'NONE');
#238 = DIMENSIONAL_EXPONENTS ( 1.000000000000000000, 0.000000000000000000, 0.000000000000000000, 0.000000000000000000, 0.000000000000000000, 0.000000000000000000, 0.000000000000000000 ) ;
#239 = DIRECTION ( 'NONE',  ( -1.478510563588688038E-16, 1.000000000000000000, -0.000000000000000000 ) ) ;
#240 = DIRECTION ( 'NONE',  ( -1.478510563588688038E-16, 1.000000000000000000, -0.000000000000000000 ) ) ;
#241 = FACE_OUTER_BOUND ( 'NONE', #166, .T. ) ;
#242 = CARTESIAN_POINT ( 'NONE',  ( 2.296212748401286801E-17, 0.3247595264191635578, -0.1874999999999999722 ) ) ;
#243 = PRODUCT_CONTEXT ( 'NONE', #32, 'mechanical' ) ;
#244 = FILL_AREA_STYLE_COLOUR ( '', #77 ) ;
#245 = CIRCLE ( 'NONE', #210, 0.1874999999999997502 ) ;
#246 = FACE_OUTER_BOUND ( 'NONE', #189, .T. ) ;
#247 = MECHANICAL_DESIGN_GEOMETRIC_PRESENTATION_REPRESENTATION (  '', ( #260 ), #36 ) ;
#248 = PLANE ( 'NONE',  #23 ) ;
#249 = DIRECTION ( 'NONE',  ( 0.000000000000000000, 0.000000000000000000, 1.000000000000000000 ) ) ;
#250 = ORIENTED_EDGE ( 'NONE', *, *, #46, .F. ) ;
#251 = AXIS2_PLACEMENT_3D ( 'NONE', #156, #175, #135 ) ;
#252 = DIRECTION ( 'NONE',  ( 6.123233995736778362E-17, 0.8660254037844380415, -0.5000000000000009992 ) ) ;
#253 = EDGE_LOOP ( 'NONE', ( #90, #68 ) ) ;
#254 = VECTOR ( 'NONE', #42, 39.37007874015748143 ) ;
#255 = PRODUCT_DEFINITION_SHAPE ( 'NONE', 'NONE',  #102 ) ;
#256 = ORIENTED_EDGE ( 'NONE', *, *, #61, .T. ) ;
#257 = FACE_OUTER_BOUND ( 'NONE', #146, .T. ) ;
#258 = SURFACE_SIDE_STYLE ('',( #14 ) ) ;
#259 = SURFACE_STYLE_FILL_AREA ( #262 ) ;
#260 = STYLED_ITEM ( 'NONE', ( #51 ), #19 ) ;
#261 = DIMENSIONAL_EXPONENTS ( 1.000000000000000000, 0.000000000000000000, 0.000000000000000000, 0.000000000000000000, 0.000000000000000000, 0.000000000000000000, 0.000000000000000000 ) ;
#262 = FILL_AREA_STYLE ('',( #72 ) ) ;
#263 = CARTESIAN_POINT ( 'NONE',  ( 0.000000000000000000, 0.3247595264191635578, 0.000000000000000000 ) ) ;
#264 = PRESENTATION_LAYER_ASSIGNMENT (  '', '', ( #194 ) ) ;
#265 = FILL_AREA_STYLE ('',( #177 ) ) ;
ENDSEC;
END-ISO-10303-21;
