ISO-10303-21;
HEADER;
FILE_DESCRIPTION (( 'STEP AP214' ),
    '1' );
FILE_NAME ('83374.STEP',
    '2023-06-23T09:37:30',
    ( '' ),
    ( '' ),
    'SwSTEP 2.0',
    'SolidWorks 2023',
    '' );
FILE_SCHEMA (( 'AUTOMOTIVE_DESIGN' ));
ENDSEC;

DATA;
#1 = CARTESIAN_POINT ( 'NONE',  ( 0.000000000000000000, 0.000000000000000000, 0.000000000000000000 ) ) ;
#2 = AXIS2_PLACEMENT_3D ( 'NONE', #286, #248, #179 ) ;
#3 = DIRECTION ( 'NONE',  ( -0.000000000000000000, -1.000000000000000000, -0.000000000000000000 ) ) ;
#4 = ADVANCED_FACE ( 'NONE', ( #189 ), #284, .T. ) ;
#5 = CARTESIAN_POINT ( 'NONE',  ( 0.000000000000000000, 0.000000000000000000, 0.000000000000000000 ) ) ;
#6 = VECTOR ( 'NONE', #264, 39.37007874015748143 ) ;
#7 = AXIS2_PLACEMENT_3D ( 'NONE', #186, #211, #76 ) ;
#8 = PRODUCT_DEFINITION_CONTEXT ( 'detailed design', #259, 'design' ) ;
#9 = LENGTH_MEASURE_WITH_UNIT ( LENGTH_MEASURE( 0.02539999999999999897 ), #68 );
#10 = LENGTH_MEASURE_WITH_UNIT ( LENGTH_MEASURE( 0.02539999999999999897 ), #71 );
#11 =( CONVERSION_BASED_UNIT ( 'INCH', #10 ) LENGTH_UNIT ( ) NAMED_UNIT ( #261 ) );
#12 = STYLED_ITEM ( 'NONE', ( #34 ), #169 ) ;
#13 =( NAMED_UNIT ( * ) SI_UNIT ( $, .STERADIAN. ) SOLID_ANGLE_UNIT ( ) );
#14 = CARTESIAN_POINT ( 'NONE',  ( 0.000000000000000000, 2.750000000000000000, 0.000000000000000000 ) ) ;
#15 = FILL_AREA_STYLE_COLOUR ( '', #294 ) ;
#16 = CARTESIAN_POINT ( 'NONE',  ( 0.000000000000000000, 0.000000000000000000, 0.000000000000000000 ) ) ;
#17 = AXIS2_PLACEMENT_3D ( 'NONE', #223, #270, #48 ) ;
#18 = EDGE_LOOP ( 'NONE', ( #111, #236, #282, #60 ) ) ;
#19 = ORIENTED_EDGE ( 'NONE', *, *, #260, .F. ) ;
#20 =( NAMED_UNIT ( * ) SI_UNIT ( $, .STERADIAN. ) SOLID_ANGLE_UNIT ( ) );
#21 = CARTESIAN_POINT ( 'NONE',  ( 0.000000000000000000, 2.750000000000000000, 0.000000000000000000 ) ) ;
#22 = VERTEX_POINT ( 'NONE', #148 ) ;
#23 = LINE ( 'NONE', #64, #70 ) ;
#24 = AXIS2_PLACEMENT_3D ( 'NONE', #133, #231, #182 ) ;
#25 = PRODUCT_RELATED_PRODUCT_CATEGORY ( 'part', '', ( #305 ) ) ;
#26 = LINE ( 'NONE', #142, #188 ) ;
#27 = PRESENTATION_LAYER_ASSIGNMENT (  '', '', ( #161 ) ) ;
#28 = FACE_OUTER_BOUND ( 'NONE', #232, .T. ) ;
#29 = COLOUR_RGB ( '',1.000000000000000000, 0.000000000000000000, 0.000000000000000000 ) ;
#30 = CARTESIAN_POINT ( 'NONE',  ( 4.592425496802575451E-17, 2.750000000000000000, 0.3750000000000000555 ) ) ;
#31 = PLANE ( 'NONE',  #112 ) ;
#32 =( CONVERSION_BASED_UNIT ( 'INCH', #195 ) LENGTH_UNIT ( ) NAMED_UNIT ( #104 ) );
#33 = STYLED_ITEM ( 'NONE', ( #137 ), #276 ) ;
#34 = PRESENTATION_STYLE_ASSIGNMENT (( #249 ) ) ;
#35 = VERTEX_POINT ( 'NONE', #239 ) ;
#36 = FILL_AREA_STYLE ('',( #99 ) ) ;
#37 = FACE_OUTER_BOUND ( 'NONE', #77, .T. ) ;
#38 = SURFACE_STYLE_USAGE ( .BOTH. , #278 ) ;
#39 =( CONVERSION_BASED_UNIT ( 'INCH', #255 ) LENGTH_UNIT ( ) NAMED_UNIT ( #306 ) );
#40 = CIRCLE ( 'NONE', #218, 0.3750000000000000555 ) ;
#41 = ORIENTED_EDGE ( 'NONE', *, *, #244, .T. ) ;
#42 = DIRECTION ( 'NONE',  ( 0.000000000000000000, 0.000000000000000000, -1.000000000000000000 ) ) ;
#43 = FILL_AREA_STYLE ('',( #93 ) ) ;
#44 = AXIS2_PLACEMENT_3D ( 'NONE', #267, #121, #126 ) ;
#45 = PRODUCT_DEFINITION_SHAPE ( 'NONE', 'NONE',  #86 ) ;
#46 = DIRECTION ( 'NONE',  ( 5.442874662877130022E-17, 1.000000000000000000, -0.000000000000000000 ) ) ;
#47 = PRESENTATION_LAYER_ASSIGNMENT (  '', '', ( #124 ) ) ;
#48 = DIRECTION ( 'NONE',  ( -1.000000000000000000, 0.000000000000000000, 0.000000000000000000 ) ) ;
#49 = CARTESIAN_POINT ( 'NONE',  ( 0.3750000000000000555, 5.000000000000000000, 0.000000000000000000 ) ) ;
#50 = AXIS2_PLACEMENT_3D ( 'NONE', #16, #106, #210 ) ;
#51 =( GEOMETRIC_REPRESENTATION_CONTEXT ( 3 ) GLOBAL_UNCERTAINTY_ASSIGNED_CONTEXT ( ( #170 ) ) GLOBAL_UNIT_ASSIGNED_CONTEXT ( ( #153, #100, #13 ) ) REPRESENTATION_CONTEXT ( 'NONE', 'WORKASPACE' ) );
#52 =( NAMED_UNIT ( * ) SI_UNIT ( $, .STERADIAN. ) SOLID_ANGLE_UNIT ( ) );
#53 = EDGE_CURVE ( 'NONE', #113, #35, #144, .T. ) ;
#54 = SURFACE_SIDE_STYLE ('',( #96 ) ) ;
#55 = STYLED_ITEM ( 'NONE', ( #164 ), #128 ) ;
#56 = ORIENTED_EDGE ( 'NONE', *, *, #132, .F. ) ;
#57 = EDGE_LOOP ( 'NONE', ( #213, #134, #307, #212 ) ) ;
#58 = SURFACE_SIDE_STYLE ('',( #224 ) ) ;
#59 = VERTEX_POINT ( 'NONE', #172 ) ;
#60 = ORIENTED_EDGE ( 'NONE', *, *, #202, .F. ) ;
#61 =( NAMED_UNIT ( * ) PLANE_ANGLE_UNIT ( ) SI_UNIT ( $, .RADIAN. ) );
#62 = LINE ( 'NONE', #87, #6 ) ;
#63 = AXIS2_PLACEMENT_3D ( 'NONE', #273, #101, #130 ) ;
#64 = CARTESIAN_POINT ( 'NONE',  ( 0.3750000000000001110, 5.000000000000000000, 4.592425496802573602E-17 ) ) ;
#65 = PRESENTATION_LAYER_ASSIGNMENT (  '', '', ( #33 ) ) ;
#66 = SURFACE_SIDE_STYLE ('',( #122 ) ) ;
#67 = EDGE_CURVE ( 'NONE', #59, #22, #250, .T. ) ;
#68 =( LENGTH_UNIT ( ) NAMED_UNIT ( * ) SI_UNIT ( $, .METRE. ) );
#69 =( NAMED_UNIT ( * ) PLANE_ANGLE_UNIT ( ) SI_UNIT ( $, .RADIAN. ) );
#70 = VECTOR ( 'NONE', #46, 39.37007874015748143 ) ;
#71 =( LENGTH_UNIT ( ) NAMED_UNIT ( * ) SI_UNIT ( $, .METRE. ) );
#72 = FACE_OUTER_BOUND ( 'NONE', #84, .T. ) ;
#73 = ORIENTED_EDGE ( 'NONE', *, *, #206, .T. ) ;
#74 = DIRECTION ( 'NONE',  ( 1.000000000000000000, 0.000000000000000000, 0.000000000000000000 ) ) ;
#75 = FILL_AREA_STYLE_COLOUR ( '', #131 ) ;
#76 = DIRECTION ( 'NONE',  ( -1.000000000000000000, 0.000000000000000000, 0.000000000000000000 ) ) ;
#77 = EDGE_LOOP ( 'NONE', ( #158, #73, #262, #163 ) ) ;
#78 = DIMENSIONAL_EXPONENTS ( 1.000000000000000000, 0.000000000000000000, 0.000000000000000000, 0.000000000000000000, 0.000000000000000000, 0.000000000000000000, 0.000000000000000000 ) ;
#79 =( NAMED_UNIT ( * ) PLANE_ANGLE_UNIT ( ) SI_UNIT ( $, .RADIAN. ) );
#80 = VERTEX_POINT ( 'NONE', #150 ) ;
#81 = AXIS2_PLACEMENT_3D ( 'NONE', #82, #217, #42 ) ;
#82 = CARTESIAN_POINT ( 'NONE',  ( 0.000000000000000000, 2.750000000000000000, 0.000000000000000000 ) ) ;
#83 = AXIS2_PLACEMENT_3D ( 'NONE', #14, #205, #301 ) ;
#84 = EDGE_LOOP ( 'NONE', ( #41, #103, #207, #187 ) ) ;
#85 = DIRECTION ( 'NONE',  ( -0.000000000000000000, -1.000000000000000000, -0.000000000000000000 ) ) ;
#86 = PRODUCT_DEFINITION ( 'UNKNOWN', '', #107, #8 ) ;
#87 = CARTESIAN_POINT ( 'NONE',  ( 4.592425496802575451E-17, 0.000000000000000000, 0.3750000000000000555 ) ) ;
#88 = CARTESIAN_POINT ( 'NONE',  ( 0.000000000000000000, 0.000000000000000000, 0.000000000000000000 ) ) ;
#89 =( GEOMETRIC_REPRESENTATION_CONTEXT ( 3 ) GLOBAL_UNCERTAINTY_ASSIGNED_CONTEXT ( ( #240 ) ) GLOBAL_UNIT_ASSIGNED_CONTEXT ( ( #32, #159, #209 ) ) REPRESENTATION_CONTEXT ( 'NONE', 'WORKASPACE' ) );
#90 = DIRECTION ( 'NONE',  ( 0.000000000000000000, 0.000000000000000000, -1.000000000000000000 ) ) ;
#91 =( LENGTH_UNIT ( ) NAMED_UNIT ( * ) SI_UNIT ( $, .METRE. ) );
#92 = ADVANCED_FACE ( 'NONE', ( #28 ), #31, .F. ) ;
#93 = FILL_AREA_STYLE_COLOUR ( '', #296 ) ;
#94 = LENGTH_MEASURE_WITH_UNIT ( LENGTH_MEASURE( 0.02539999999999999897 ), #281 );
#95 = PRESENTATION_STYLE_ASSIGNMENT (( #129 ) ) ;
#96 = SURFACE_STYLE_FILL_AREA ( #225 ) ;
#97 =( GEOMETRIC_REPRESENTATION_CONTEXT ( 3 ) GLOBAL_UNCERTAINTY_ASSIGNED_CONTEXT ( ( #235 ) ) GLOBAL_UNIT_ASSIGNED_CONTEXT ( ( #166, #61, #308 ) ) REPRESENTATION_CONTEXT ( 'NONE', 'WORKASPACE' ) );
#98 = AXIS2_PLACEMENT_3D ( 'NONE', #287, #3, #167 ) ;
#99 = FILL_AREA_STYLE_COLOUR ( '', #29 ) ;
#100 =( NAMED_UNIT ( * ) PLANE_ANGLE_UNIT ( ) SI_UNIT ( $, .RADIAN. ) );
#101 = DIRECTION ( 'NONE',  ( 5.442874662877130638E-17, 1.000000000000000000, -0.000000000000000000 ) ) ;
#102 = EDGE_CURVE ( 'NONE', #138, #140, #285, .T. ) ;
#103 = ORIENTED_EDGE ( 'NONE', *, *, #198, .T. ) ;
#104 = DIMENSIONAL_EXPONENTS ( 1.000000000000000000, 0.000000000000000000, 0.000000000000000000, 0.000000000000000000, 0.000000000000000000, 0.000000000000000000, 0.000000000000000000 ) ;
#105 = CIRCLE ( 'NONE', #63, 0.3749999999999998890 ) ;
#106 = DIRECTION ( 'NONE',  ( -0.000000000000000000, -1.000000000000000000, -0.000000000000000000 ) ) ;
#107 = PRODUCT_DEFINITION_FORMATION_WITH_SPECIFIED_SOURCE ( 'ANY', '', #305, .NOT_KNOWN. ) ;
#108 = ORIENTED_EDGE ( 'NONE', *, *, #143, .T. ) ;
#109 = APPLICATION_PROTOCOL_DEFINITION ( 'draft international standard', 'automotive_design', 1998, #259 ) ;
#110 = DIMENSIONAL_EXPONENTS ( 1.000000000000000000, 0.000000000000000000, 0.000000000000000000, 0.000000000000000000, 0.000000000000000000, 0.000000000000000000, 0.000000000000000000 ) ;
#111 = ORIENTED_EDGE ( 'NONE', *, *, #198, .F. ) ;
#112 = AXIS2_PLACEMENT_3D ( 'NONE', #49, #245, #197 ) ;
#113 = VERTEX_POINT ( 'NONE', #293 ) ;
#114 =( CONVERSION_BASED_UNIT ( 'INCH', #237 ) LENGTH_UNIT ( ) NAMED_UNIT ( #283 ) );
#115 = PLANE ( 'NONE',  #193 ) ;
#116 = DIRECTION ( 'NONE',  ( 5.442874662877130022E-17, 1.000000000000000000, -0.000000000000000000 ) ) ;
#117 = CLOSED_SHELL ( 'NONE', ( #290, #288, #149, #92 ) ) ;
#118 = UNCERTAINTY_MEASURE_WITH_UNIT (LENGTH_MEASURE( 1.000000000000000082E-05 ), #246, 'distance_accuracy_value', 'NONE');
#119 = APPLICATION_CONTEXT ( 'automotive_design' ) ;
#120 = SURFACE_SIDE_STYLE ('',( #241 ) ) ;
#121 = DIRECTION ( 'NONE',  ( 5.442874662877130638E-17, 1.000000000000000000, -0.000000000000000000 ) ) ;
#122 = SURFACE_STYLE_FILL_AREA ( #43 ) ;
#123 = UNCERTAINTY_MEASURE_WITH_UNIT (LENGTH_MEASURE( 1.000000000000000082E-05 ), #114, 'distance_accuracy_value', 'NONE');
#124 = STYLED_ITEM ( 'NONE', ( #95 ), #176 ) ;
#125 = AXIS2_PLACEMENT_3D ( 'NONE', #5, #196, #141 ) ;
#126 = DIRECTION ( 'NONE',  ( -1.000000000000000000, 0.000000000000000000, 0.000000000000000000 ) ) ;
#127 = PLANE ( 'NONE',  #24 ) ;
#128 = ADVANCED_FACE ( 'NONE', ( #216 ), #115, .T. ) ;
#129 = SURFACE_STYLE_USAGE ( .BOTH. , #58 ) ;
#130 = DIRECTION ( 'NONE',  ( -1.000000000000000000, 0.000000000000000000, 0.000000000000000000 ) ) ;
#131 = COLOUR_RGB ( '',0.7921568627450980005, 0.8196078431372548767, 0.9333333333333333481 ) ;
#132 = EDGE_CURVE ( 'NONE', #22, #59, #154, .T. ) ;
#133 = CARTESIAN_POINT ( 'NONE',  ( 5.554665861710595612E-34, 2.750000000000000000, 0.000000000000000000 ) ) ;
#134 = ORIENTED_EDGE ( 'NONE', *, *, #67, .T. ) ;
#135 = PRESENTATION_STYLE_ASSIGNMENT (( #38 ) ) ;
#136 = MECHANICAL_DESIGN_GEOMETRIC_PRESENTATION_REPRESENTATION (  '', ( #55 ), #247 ) ;
#137 = PRESENTATION_STYLE_ASSIGNMENT (( #157 ) ) ;
#138 = VERTEX_POINT ( 'NONE', #277 ) ;
#139 = DIMENSIONAL_EXPONENTS ( 1.000000000000000000, 0.000000000000000000, 0.000000000000000000, 0.000000000000000000, 0.000000000000000000, 0.000000000000000000, 0.000000000000000000 ) ;
#140 = VERTEX_POINT ( 'NONE', #295 ) ;
#141 = DIRECTION ( 'NONE',  ( 0.000000000000000000, 0.000000000000000000, -1.000000000000000000 ) ) ;
#142 = CARTESIAN_POINT ( 'NONE',  ( -0.3749999999999998335, 5.000000000000000000, 0.000000000000000000 ) ) ;
#143 = EDGE_CURVE ( 'NONE', #35, #113, #105, .T. ) ;
#144 = CIRCLE ( 'NONE', #44, 0.3749999999999998890 ) ;
#145 = PLANE ( 'NONE',  #83 ) ;
#146 = COLOUR_RGB ( '',1.000000000000000000, 0.000000000000000000, 0.000000000000000000 ) ;
#147 = ADVANCED_BREP_SHAPE_REPRESENTATION ( '83374', ( #276, #176, #265 ), #230 ) ;
#148 = CARTESIAN_POINT ( 'NONE',  ( -0.3750000000000000555, 2.750000000000000000, 0.000000000000000000 ) ) ;
#149 = ADVANCED_FACE ( 'NONE', ( #297 ), #272, .T. ) ;
#150 = CARTESIAN_POINT ( 'NONE',  ( 4.592425496802575451E-17, 0.000000000000000000, 0.3750000000000000555 ) ) ;
#151 = PRESENTATION_LAYER_ASSIGNMENT (  '', '', ( #12 ) ) ;
#152 = CARTESIAN_POINT ( 'NONE',  ( 1.224646799147354440E-16, 5.000000000000000000, 0.000000000000000000 ) ) ;
#153 =( CONVERSION_BASED_UNIT ( 'INCH', #204 ) LENGTH_UNIT ( ) NAMED_UNIT ( #139 ) );
#154 = CIRCLE ( 'NONE', #2, 0.3750000000000000555 ) ;
#155 =( NAMED_UNIT ( * ) PLANE_ANGLE_UNIT ( ) SI_UNIT ( $, .RADIAN. ) );
#156 = EDGE_LOOP ( 'NONE', ( #256, #299 ) ) ;
#157 = SURFACE_STYLE_USAGE ( .BOTH. , #54 ) ;
#158 = ORIENTED_EDGE ( 'NONE', *, *, #132, .T. ) ;
#159 =( NAMED_UNIT ( * ) PLANE_ANGLE_UNIT ( ) SI_UNIT ( $, .RADIAN. ) );
#160 = EDGE_LOOP ( 'NONE', ( #56, #234 ) ) ;
#161 = STYLED_ITEM ( 'NONE', ( #135 ), #4 ) ;
#162 = STYLED_ITEM ( 'NONE', ( #220 ), #226 ) ;
#163 = ORIENTED_EDGE ( 'NONE', *, *, #178, .F. ) ;
#164 = PRESENTATION_STYLE_ASSIGNMENT (( #268 ) ) ;
#165 = PRESENTATION_LAYER_ASSIGNMENT (  '', '', ( #55 ) ) ;
#166 =( CONVERSION_BASED_UNIT ( 'INCH', #94 ) LENGTH_UNIT ( ) NAMED_UNIT ( #78 ) );
#167 = DIRECTION ( 'NONE',  ( 0.000000000000000000, 0.000000000000000000, -1.000000000000000000 ) ) ;
#168 = FACE_OUTER_BOUND ( 'NONE', #254, .T. ) ;
#169 = ADVANCED_FACE ( 'NONE', ( #72 ), #253, .T. ) ;
#170 = UNCERTAINTY_MEASURE_WITH_UNIT (LENGTH_MEASURE( 1.000000000000000082E-05 ), #153, 'distance_accuracy_value', 'NONE');
#171 = COLOUR_RGB ( '',0.7921568627450980005, 0.8196078431372548767, 0.9333333333333333481 ) ;
#172 = CARTESIAN_POINT ( 'NONE',  ( 0.3750000000000000555, 2.750000000000000000, 4.592425496802574219E-17 ) ) ;
#173 = DIRECTION ( 'NONE',  ( -0.000000000000000000, -1.000000000000000000, -0.000000000000000000 ) ) ;
#174 = FILL_AREA_STYLE_COLOUR ( '', #171 ) ;
#175 = UNCERTAINTY_MEASURE_WITH_UNIT (LENGTH_MEASURE( 1.000000000000000082E-05 ), #39, 'distance_accuracy_value', 'NONE');
#176 = MANIFOLD_SOLID_BREP ( 'Revolve - Tool Body (Straight Shanked)', #117 ) ;
#177 =( NAMED_UNIT ( * ) PLANE_ANGLE_UNIT ( ) SI_UNIT ( $, .RADIAN. ) );
#178 = EDGE_CURVE ( 'NONE', #22, #113, #26, .T. ) ;
#179 = DIRECTION ( 'NONE',  ( -1.000000000000000000, 0.000000000000000000, 0.000000000000000000 ) ) ;
#180 = ORIENTED_EDGE ( 'NONE', *, *, #53, .T. ) ;
#181 = SURFACE_SIDE_STYLE ('',( #227 ) ) ;
#182 = DIRECTION ( 'NONE',  ( -1.000000000000000000, 5.442874662877130022E-17, 0.000000000000000000 ) ) ;
#183 = SURFACE_STYLE_FILL_AREA ( #303 ) ;
#184 =( NAMED_UNIT ( * ) SI_UNIT ( $, .STERADIAN. ) SOLID_ANGLE_UNIT ( ) );
#185 = PRODUCT_CONTEXT ( 'NONE', #119, 'mechanical' ) ;
#186 = CARTESIAN_POINT ( 'NONE',  ( 1.224646799147354440E-16, 5.000000000000000000, 0.000000000000000000 ) ) ;
#187 = ORIENTED_EDGE ( 'NONE', *, *, #102, .F. ) ;
#188 = VECTOR ( 'NONE', #116, 39.37007874015748143 ) ;
#189 = FACE_OUTER_BOUND ( 'NONE', #18, .T. ) ;
#190 = EDGE_CURVE ( 'NONE', #140, #80, #40, .T. ) ;
#191 = UNCERTAINTY_MEASURE_WITH_UNIT (LENGTH_MEASURE( 1.000000000000000082E-05 ), #11, 'distance_accuracy_value', 'NONE');
#192 = DIRECTION ( 'NONE',  ( 0.000000000000000000, -1.000000000000000000, -0.000000000000000000 ) ) ;
#193 = AXIS2_PLACEMENT_3D ( 'NONE', #1, #192, #292 ) ;
#194 = FILL_AREA_STYLE_COLOUR ( '', #146 ) ;
#195 = LENGTH_MEASURE_WITH_UNIT ( LENGTH_MEASURE( 0.02539999999999999897 ), #222 );
#196 = DIRECTION ( 'NONE',  ( -0.000000000000000000, -1.000000000000000000, -0.000000000000000000 ) ) ;
#197 = DIRECTION ( 'NONE',  ( 1.000000000000000000, -5.442874662877130022E-17, 0.000000000000000000 ) ) ;
#198 = EDGE_CURVE ( 'NONE', #263, #80, #62, .T. ) ;
#199 =( NAMED_UNIT ( * ) SI_UNIT ( $, .STERADIAN. ) SOLID_ANGLE_UNIT ( ) );
#200 = MECHANICAL_DESIGN_GEOMETRIC_PRESENTATION_REPRESENTATION (  '', ( #161 ), #97 ) ;
#201 = PRESENTATION_LAYER_ASSIGNMENT (  '', '', ( #162 ) ) ;
#202 = EDGE_CURVE ( 'NONE', #80, #140, #215, .T. ) ;
#203 = DIRECTION ( 'NONE',  ( -1.000000000000000000, 0.000000000000000000, 0.000000000000000000 ) ) ;
#204 = LENGTH_MEASURE_WITH_UNIT ( LENGTH_MEASURE( 0.02539999999999999897 ), #251 );
#205 = DIRECTION ( 'NONE',  ( 0.000000000000000000, 1.000000000000000000, 0.000000000000000000 ) ) ;
#206 = EDGE_CURVE ( 'NONE', #59, #35, #23, .T. ) ;
#207 = ORIENTED_EDGE ( 'NONE', *, *, #190, .F. ) ;
#208 = MECHANICAL_DESIGN_GEOMETRIC_PRESENTATION_REPRESENTATION (  '', ( #12 ), #238 ) ;
#209 =( NAMED_UNIT ( * ) SI_UNIT ( $, .STERADIAN. ) SOLID_ANGLE_UNIT ( ) );
#210 = DIRECTION ( 'NONE',  ( 0.000000000000000000, 0.000000000000000000, -1.000000000000000000 ) ) ;
#211 = DIRECTION ( 'NONE',  ( 5.442874662877130638E-17, 1.000000000000000000, -0.000000000000000000 ) ) ;
#212 = ORIENTED_EDGE ( 'NONE', *, *, #143, .F. ) ;
#213 = ORIENTED_EDGE ( 'NONE', *, *, #206, .F. ) ;
#214 = SHAPE_DEFINITION_REPRESENTATION ( #45, #147 ) ;
#215 = CIRCLE ( 'NONE', #98, 0.3750000000000000555 ) ;
#216 = FACE_OUTER_BOUND ( 'NONE', #156, .T. ) ;
#217 = DIRECTION ( 'NONE',  ( -0.000000000000000000, -1.000000000000000000, -0.000000000000000000 ) ) ;
#218 = AXIS2_PLACEMENT_3D ( 'NONE', #88, #219, #90 ) ;
#219 = DIRECTION ( 'NONE',  ( -0.000000000000000000, -1.000000000000000000, -0.000000000000000000 ) ) ;
#220 = PRESENTATION_STYLE_ASSIGNMENT (( #309 ) ) ;
#221 = CARTESIAN_POINT ( 'NONE',  ( 0.000000000000000000, 0.000000000000000000, -0.3750000000000000555 ) ) ;
#222 =( LENGTH_UNIT ( ) NAMED_UNIT ( * ) SI_UNIT ( $, .METRE. ) );
#223 = CARTESIAN_POINT ( 'NONE',  ( -1.516480271171051896E-32, 2.750000000000000000, 0.000000000000000000 ) ) ;
#224 = SURFACE_STYLE_FILL_AREA ( #279 ) ;
#225 = FILL_AREA_STYLE ('',( #174 ) ) ;
#226 = ADVANCED_FACE ( 'NONE', ( #168 ), #145, .T. ) ;
#227 = SURFACE_STYLE_FILL_AREA ( #36 ) ;
#228 = CIRCLE ( 'NONE', #81, 0.3750000000000000555 ) ;
#229 =( GEOMETRIC_REPRESENTATION_CONTEXT ( 3 ) GLOBAL_UNCERTAINTY_ASSIGNED_CONTEXT ( ( #123 ) ) GLOBAL_UNIT_ASSIGNED_CONTEXT ( ( #114, #177, #199 ) ) REPRESENTATION_CONTEXT ( 'NONE', 'WORKASPACE' ) );
#230 =( GEOMETRIC_REPRESENTATION_CONTEXT ( 3 ) GLOBAL_UNCERTAINTY_ASSIGNED_CONTEXT ( ( #175 ) ) GLOBAL_UNIT_ASSIGNED_CONTEXT ( ( #39, #79, #20 ) ) REPRESENTATION_CONTEXT ( 'NONE', 'WORKASPACE' ) );
#231 = DIRECTION ( 'NONE',  ( 5.442874662877130022E-17, 1.000000000000000000, -0.000000000000000000 ) ) ;
#232 = EDGE_LOOP ( 'NONE', ( #180, #108 ) ) ;
#233 = CYLINDRICAL_SURFACE ( 'NONE', #7, 0.3749999999999999445 ) ;
#234 = ORIENTED_EDGE ( 'NONE', *, *, #67, .F. ) ;
#235 = UNCERTAINTY_MEASURE_WITH_UNIT (LENGTH_MEASURE( 1.000000000000000082E-05 ), #166, 'distance_accuracy_value', 'NONE');
#236 = ORIENTED_EDGE ( 'NONE', *, *, #260, .T. ) ;
#237 = LENGTH_MEASURE_WITH_UNIT ( LENGTH_MEASURE( 0.02539999999999999897 ), #91 );
#238 =( GEOMETRIC_REPRESENTATION_CONTEXT ( 3 ) GLOBAL_UNCERTAINTY_ASSIGNED_CONTEXT ( ( #191 ) ) GLOBAL_UNIT_ASSIGNED_CONTEXT ( ( #11, #155, #184 ) ) REPRESENTATION_CONTEXT ( 'NONE', 'WORKASPACE' ) );
#239 = CARTESIAN_POINT ( 'NONE',  ( 0.3750000000000000555, 5.000000000000000000, 4.592425496802574219E-17 ) ) ;
#240 = UNCERTAINTY_MEASURE_WITH_UNIT (LENGTH_MEASURE( 1.000000000000000082E-05 ), #32, 'distance_accuracy_value', 'NONE');
#241 = SURFACE_STYLE_FILL_AREA ( #243 ) ;
#242 = AXIS2_PLACEMENT_3D ( 'NONE', #152, #300, #203 ) ;
#243 = FILL_AREA_STYLE ('',( #194 ) ) ;
#244 = EDGE_CURVE ( 'NONE', #138, #263, #228, .T. ) ;
#245 = DIRECTION ( 'NONE',  ( -5.442874662877130022E-17, -1.000000000000000000, 0.000000000000000000 ) ) ;
#246 =( CONVERSION_BASED_UNIT ( 'INCH', #9 ) LENGTH_UNIT ( ) NAMED_UNIT ( #110 ) );
#247 =( GEOMETRIC_REPRESENTATION_CONTEXT ( 3 ) GLOBAL_UNCERTAINTY_ASSIGNED_CONTEXT ( ( #118 ) ) GLOBAL_UNIT_ASSIGNED_CONTEXT ( ( #246, #69, #52 ) ) REPRESENTATION_CONTEXT ( 'NONE', 'WORKASPACE' ) );
#248 = DIRECTION ( 'NONE',  ( 5.442874662877130638E-17, 1.000000000000000000, -0.000000000000000000 ) ) ;
#249 = SURFACE_STYLE_USAGE ( .BOTH. , #181 ) ;
#250 = CIRCLE ( 'NONE', #17, 0.3750000000000000555 ) ;
#251 =( LENGTH_UNIT ( ) NAMED_UNIT ( * ) SI_UNIT ( $, .METRE. ) );
#252 = ORIENTED_EDGE ( 'NONE', *, *, #244, .F. ) ;
#253 = CYLINDRICAL_SURFACE ( 'NONE', #50, 0.3750000000000000555 ) ;
#254 = EDGE_LOOP ( 'NONE', ( #252, #19 ) ) ;
#255 = LENGTH_MEASURE_WITH_UNIT ( LENGTH_MEASURE( 0.02539999999999999897 ), #280 );
#256 = ORIENTED_EDGE ( 'NONE', *, *, #190, .T. ) ;
#257 = CLOSED_SHELL ( 'NONE', ( #169, #226, #4, #128 ) ) ;
#258 = MECHANICAL_DESIGN_GEOMETRIC_PRESENTATION_REPRESENTATION (  '', ( #162 ), #229 ) ;
#259 = APPLICATION_CONTEXT ( 'automotive_design' ) ;
#260 = EDGE_CURVE ( 'NONE', #263, #138, #266, .T. ) ;
#261 = DIMENSIONAL_EXPONENTS ( 1.000000000000000000, 0.000000000000000000, 0.000000000000000000, 0.000000000000000000, 0.000000000000000000, 0.000000000000000000, 0.000000000000000000 ) ;
#262 = ORIENTED_EDGE ( 'NONE', *, *, #53, .F. ) ;
#263 = VERTEX_POINT ( 'NONE', #30 ) ;
#264 = DIRECTION ( 'NONE',  ( -0.000000000000000000, -1.000000000000000000, -0.000000000000000000 ) ) ;
#265 = AXIS2_PLACEMENT_3D ( 'NONE', #304, #275, #74 ) ;
#266 = CIRCLE ( 'NONE', #274, 0.3750000000000000555 ) ;
#267 = CARTESIAN_POINT ( 'NONE',  ( 1.224646799147354440E-16, 5.000000000000000000, 0.000000000000000000 ) ) ;
#268 = SURFACE_STYLE_USAGE ( .BOTH. , #66 ) ;
#269 = DIRECTION ( 'NONE',  ( 0.000000000000000000, 0.000000000000000000, -1.000000000000000000 ) ) ;
#270 = DIRECTION ( 'NONE',  ( 5.442874662877130638E-17, 1.000000000000000000, -0.000000000000000000 ) ) ;
#271 = VECTOR ( 'NONE', #85, 39.37007874015748143 ) ;
#272 = CYLINDRICAL_SURFACE ( 'NONE', #242, 0.3749999999999999445 ) ;
#273 = CARTESIAN_POINT ( 'NONE',  ( 1.224646799147354440E-16, 5.000000000000000000, 0.000000000000000000 ) ) ;
#274 = AXIS2_PLACEMENT_3D ( 'NONE', #21, #173, #269 ) ;
#275 = DIRECTION ( 'NONE',  ( 0.000000000000000000, 0.000000000000000000, 1.000000000000000000 ) ) ;
#276 = MANIFOLD_SOLID_BREP ( 'Revolve - Cutting Edge', #257 ) ;
#277 = CARTESIAN_POINT ( 'NONE',  ( 0.000000000000000000, 2.750000000000000000, -0.3750000000000000555 ) ) ;
#278 = SURFACE_SIDE_STYLE ('',( #183 ) ) ;
#279 = FILL_AREA_STYLE ('',( #75 ) ) ;
#280 =( LENGTH_UNIT ( ) NAMED_UNIT ( * ) SI_UNIT ( $, .METRE. ) );
#281 =( LENGTH_UNIT ( ) NAMED_UNIT ( * ) SI_UNIT ( $, .METRE. ) );
#282 = ORIENTED_EDGE ( 'NONE', *, *, #102, .T. ) ;
#283 = DIMENSIONAL_EXPONENTS ( 1.000000000000000000, 0.000000000000000000, 0.000000000000000000, 0.000000000000000000, 0.000000000000000000, 0.000000000000000000, 0.000000000000000000 ) ;
#284 = CYLINDRICAL_SURFACE ( 'NONE', #125, 0.3750000000000000555 ) ;
#285 = LINE ( 'NONE', #221, #271 ) ;
#286 = CARTESIAN_POINT ( 'NONE',  ( -1.516480271171051896E-32, 2.750000000000000000, 0.000000000000000000 ) ) ;
#287 = CARTESIAN_POINT ( 'NONE',  ( 0.000000000000000000, 0.000000000000000000, 0.000000000000000000 ) ) ;
#288 = ADVANCED_FACE ( 'NONE', ( #298 ), #127, .F. ) ;
#289 = APPLICATION_PROTOCOL_DEFINITION ( 'draft international standard', 'automotive_design', 1998, #119 ) ;
#290 = ADVANCED_FACE ( 'NONE', ( #37 ), #233, .T. ) ;
#291 = MECHANICAL_DESIGN_GEOMETRIC_PRESENTATION_REPRESENTATION (  '', ( #33 ), #51 ) ;
#292 = DIRECTION ( 'NONE',  ( 0.000000000000000000, 0.000000000000000000, -1.000000000000000000 ) ) ;
#293 = CARTESIAN_POINT ( 'NONE',  ( -0.3749999999999997780, 5.000000000000000000, 0.000000000000000000 ) ) ;
#294 = COLOUR_RGB ( '',1.000000000000000000, 0.000000000000000000, 0.000000000000000000 ) ;
#295 = CARTESIAN_POINT ( 'NONE',  ( 0.000000000000000000, 0.000000000000000000, -0.3750000000000000555 ) ) ;
#296 = COLOUR_RGB ( '',1.000000000000000000, 0.000000000000000000, 0.000000000000000000 ) ;
#297 = FACE_OUTER_BOUND ( 'NONE', #57, .T. ) ;
#298 = FACE_OUTER_BOUND ( 'NONE', #160, .T. ) ;
#299 = ORIENTED_EDGE ( 'NONE', *, *, #202, .T. ) ;
#300 = DIRECTION ( 'NONE',  ( 5.442874662877130638E-17, 1.000000000000000000, -0.000000000000000000 ) ) ;
#301 = DIRECTION ( 'NONE',  ( 0.000000000000000000, -0.000000000000000000, 1.000000000000000000 ) ) ;
#302 = MECHANICAL_DESIGN_GEOMETRIC_PRESENTATION_REPRESENTATION (  '', ( #124 ), #89 ) ;
#303 = FILL_AREA_STYLE ('',( #15 ) ) ;
#304 = CARTESIAN_POINT ( 'NONE',  ( 0.000000000000000000, 0.000000000000000000, 0.000000000000000000 ) ) ;
#305 = PRODUCT ( '83374', '83374', '', ( #185 ) ) ;
#306 = DIMENSIONAL_EXPONENTS ( 1.000000000000000000, 0.000000000000000000, 0.000000000000000000, 0.000000000000000000, 0.000000000000000000, 0.000000000000000000, 0.000000000000000000 ) ;
#307 = ORIENTED_EDGE ( 'NONE', *, *, #178, .T. ) ;
#308 =( NAMED_UNIT ( * ) SI_UNIT ( $, .STERADIAN. ) SOLID_ANGLE_UNIT ( ) );
#309 = SURFACE_STYLE_USAGE ( .BOTH. , #120 ) ;
ENDSEC;
END-ISO-10303-21;
