ISO-10303-21;
HEADER;
FILE_DESCRIPTION (( 'STEP AP214' ),
    '1' );
FILE_NAME ('56032.STEP',
    '2023-06-30T22:05:07',
    ( '' ),
    ( '' ),
    'SwSTEP 2.0',
    'SolidWorks 2023',
    '' );
FILE_SCHEMA (( 'AUTOMOTIVE_DESIGN' ));
ENDSEC;

DATA;
#1 = LENGTH_MEASURE_WITH_UNIT ( LENGTH_MEASURE( 0.02539999999999999897 ), #122 );
#2 = CIRCLE ( 'NONE', #149, 0.06249999999999993061 ) ;
#3 = COLOUR_RGB ( '',1.000000000000000000, 0.000000000000000000, 0.000000000000000000 ) ;
#4 =( NAMED_UNIT ( * ) SI_UNIT ( $, .STERADIAN. ) SOLID_ANGLE_UNIT ( ) );
#5 = AXIS2_PLACEMENT_3D ( 'NONE', #324, #236, #298 ) ;
#6 = DIRECTION ( 'NONE',  ( -1.224646799147353207E-16, 1.000000000000000000, -0.000000000000000000 ) ) ;
#7 = STYLED_ITEM ( 'NONE', ( #261 ), #152 ) ;
#8 = MECHANICAL_DESIGN_GEOMETRIC_PRESENTATION_REPRESENTATION (  '', ( #76 ), #292 ) ;
#9 = CARTESIAN_POINT ( 'NONE',  ( 0.000000000000000000, 0.5000000000000000000, 0.000000000000000000 ) ) ;
#10 = FILL_AREA_STYLE_COLOUR ( '', #180 ) ;
#11 = DIMENSIONAL_EXPONENTS ( 1.000000000000000000, 0.000000000000000000, 0.000000000000000000, 0.000000000000000000, 0.000000000000000000, 0.000000000000000000, 0.000000000000000000 ) ;
#12 = AXIS2_PLACEMENT_3D ( 'NONE', #44, #6, #355 ) ;
#13 =( LENGTH_UNIT ( ) NAMED_UNIT ( * ) SI_UNIT ( $, .METRE. ) );
#14 =( NAMED_UNIT ( * ) PLANE_ANGLE_UNIT ( ) SI_UNIT ( $, .RADIAN. ) );
#15 = ORIENTED_EDGE ( 'NONE', *, *, #20, .F. ) ;
#16 = AXIS2_PLACEMENT_3D ( 'NONE', #290, #18, #373 ) ;
#17 =( NAMED_UNIT ( * ) PLANE_ANGLE_UNIT ( ) SI_UNIT ( $, .RADIAN. ) );
#18 = DIRECTION ( 'NONE',  ( -0.000000000000000000, -1.000000000000000000, -0.000000000000000000 ) ) ;
#19 = MECHANICAL_DESIGN_GEOMETRIC_PRESENTATION_REPRESENTATION (  '', ( #285 ), #316 ) ;
#20 = EDGE_CURVE ( 'NONE', #145, #251, #55, .T. ) ;
#21 = FILL_AREA_STYLE_COLOUR ( '', #3 ) ;
#22 = SHAPE_DEFINITION_REPRESENTATION ( #299, #252 ) ;
#23 = ORIENTED_EDGE ( 'NONE', *, *, #20, .T. ) ;
#24 = CARTESIAN_POINT ( 'NONE',  ( 1.224646799147353207E-16, 0.5000000000000001110, 0.000000000000000000 ) ) ;
#25 = DIMENSIONAL_EXPONENTS ( 1.000000000000000000, 0.000000000000000000, 0.000000000000000000, 0.000000000000000000, 0.000000000000000000, 0.000000000000000000, 0.000000000000000000 ) ;
#26 = DIRECTION ( 'NONE',  ( 1.000000000000000000, 0.000000000000000000, 0.000000000000000000 ) ) ;
#27 = FILL_AREA_STYLE_COLOUR ( '', #30 ) ;
#28 = VERTEX_POINT ( 'NONE', #224 ) ;
#29 = EDGE_CURVE ( 'NONE', #251, #288, #228, .T. ) ;
#30 = COLOUR_RGB ( '',1.000000000000000000, 0.000000000000000000, 0.000000000000000000 ) ;
#31 = DIRECTION ( 'NONE',  ( -1.224646799147353207E-16, 1.000000000000000000, -0.000000000000000000 ) ) ;
#32 = DIRECTION ( 'NONE',  ( -1.224646799147353207E-16, 1.000000000000000000, -0.000000000000000000 ) ) ;
#33 = CARTESIAN_POINT ( 'NONE',  ( 0.000000000000000000, 0.000000000000000000, -0.06249999999999997224 ) ) ;
#34 = COLOUR_RGB ( '',1.000000000000000000, 0.000000000000000000, 0.000000000000000000 ) ;
#35 = PRODUCT_DEFINITION_FORMATION_WITH_SPECIFIED_SOURCE ( 'ANY', '', #308, .NOT_KNOWN. ) ;
#36 = LINE ( 'NONE', #323, #90 ) ;
#37 = CARTESIAN_POINT ( 'NONE',  ( -3.827021247335478002E-18, 0.000000000000000000, 0.000000000000000000 ) ) ;
#38 = PRESENTATION_STYLE_ASSIGNMENT (( #241 ) ) ;
#39 = SURFACE_SIDE_STYLE ('',( #243 ) ) ;
#40 =( GEOMETRIC_REPRESENTATION_CONTEXT ( 3 ) GLOBAL_UNCERTAINTY_ASSIGNED_CONTEXT ( ( #297 ) ) GLOBAL_UNIT_ASSIGNED_CONTEXT ( ( #214, #244, #274 ) ) REPRESENTATION_CONTEXT ( 'NONE', 'WORKASPACE' ) );
#41 = FILL_AREA_STYLE ('',( #48 ) ) ;
#42 =( NAMED_UNIT ( * ) SI_UNIT ( $, .STERADIAN. ) SOLID_ANGLE_UNIT ( ) );
#43 = UNCERTAINTY_MEASURE_WITH_UNIT (LENGTH_MEASURE( 1.000000000000000082E-05 ), #276, 'distance_accuracy_value', 'NONE');
#44 = CARTESIAN_POINT ( 'NONE',  ( -1.224646799147353207E-16, 2.500000000000000000, 0.000000000000000000 ) ) ;
#45 = CARTESIAN_POINT ( 'NONE',  ( 0.06249999999999992367, 0.5000000000000001110, 7.654042494670956004E-18 ) ) ;
#46 =( NAMED_UNIT ( * ) SI_UNIT ( $, .STERADIAN. ) SOLID_ANGLE_UNIT ( ) );
#47 = AXIS2_PLACEMENT_3D ( 'NONE', #137, #58, #337 ) ;
#48 = FILL_AREA_STYLE_COLOUR ( '', #82 ) ;
#49 = DIMENSIONAL_EXPONENTS ( 1.000000000000000000, 0.000000000000000000, 0.000000000000000000, 0.000000000000000000, 0.000000000000000000, 0.000000000000000000, 0.000000000000000000 ) ;
#50 = CARTESIAN_POINT ( 'NONE',  ( -7.654042494670957545E-18, 0.06250000000000001388, 0.000000000000000000 ) ) ;
#51 = ORIENTED_EDGE ( 'NONE', *, *, #133, .F. ) ;
#52 =( CONVERSION_BASED_UNIT ( 'INCH', #144 ) LENGTH_UNIT ( ) NAMED_UNIT ( #49 ) );
#53 = ORIENTED_EDGE ( 'NONE', *, *, #338, .T. ) ;
#54 = EDGE_CURVE ( 'NONE', #57, #145, #161, .T. ) ;
#55 = CIRCLE ( 'NONE', #100, 0.06250000000000001388 ) ;
#56 =( GEOMETRIC_REPRESENTATION_CONTEXT ( 3 ) GLOBAL_UNCERTAINTY_ASSIGNED_CONTEXT ( ( #182 ) ) GLOBAL_UNIT_ASSIGNED_CONTEXT ( ( #52, #17, #194 ) ) REPRESENTATION_CONTEXT ( 'NONE', 'WORKASPACE' ) );
#57 = VERTEX_POINT ( 'NONE', #227 ) ;
#58 = DIRECTION ( 'NONE',  ( 1.224646799147353207E-16, -1.000000000000000000, 0.000000000000000000 ) ) ;
#59 = ORIENTED_EDGE ( 'NONE', *, *, #54, .T. ) ;
#60 = DIMENSIONAL_EXPONENTS ( 1.000000000000000000, 0.000000000000000000, 0.000000000000000000, 0.000000000000000000, 0.000000000000000000, 0.000000000000000000, 0.000000000000000000 ) ;
#61 =( CONVERSION_BASED_UNIT ( 'INCH', #120 ) LENGTH_UNIT ( ) NAMED_UNIT ( #304 ) );
#62 = DIRECTION ( 'NONE',  ( -0.000000000000000000, -1.000000000000000000, -0.000000000000000000 ) ) ;
#63 = DIRECTION ( 'NONE',  ( 0.000000000000000000, 0.000000000000000000, -1.000000000000000000 ) ) ;
#64 = PRESENTATION_LAYER_ASSIGNMENT (  '', '', ( #332 ) ) ;
#65 = CARTESIAN_POINT ( 'NONE',  ( 0.000000000000000000, 0.5000000000000000000, 0.000000000000000000 ) ) ;
#66 = EDGE_CURVE ( 'NONE', #28, #367, #190, .T. ) ;
#67 = AXIS2_PLACEMENT_3D ( 'NONE', #203, #62, #175 ) ;
#68 = CARTESIAN_POINT ( 'NONE',  ( 0.06250000000000001388, 0.06250000000000001388, 0.000000000000000000 ) ) ;
#69 = UNCERTAINTY_MEASURE_WITH_UNIT (LENGTH_MEASURE( 1.000000000000000082E-05 ), #136, 'distance_accuracy_value', 'NONE');
#70 = UNCERTAINTY_MEASURE_WITH_UNIT (LENGTH_MEASURE( 1.000000000000000082E-05 ), #177, 'distance_accuracy_value', 'NONE');
#71 = FACE_OUTER_BOUND ( 'NONE', #250, .T. ) ;
#72 = CARTESIAN_POINT ( 'NONE',  ( 7.654042494670954463E-18, 0.000000000000000000, 0.06249999999999997224 ) ) ;
#73 = VECTOR ( 'NONE', #266, 39.37007874015748143 ) ;
#74 =( NAMED_UNIT ( * ) SI_UNIT ( $, .STERADIAN. ) SOLID_ANGLE_UNIT ( ) );
#75 = AXIS2_PLACEMENT_3D ( 'NONE', #24, #196, #310 ) ;
#76 = STYLED_ITEM ( 'NONE', ( #110 ), #363 ) ;
#77 = EDGE_CURVE ( 'NONE', #28, #91, #295, .T. ) ;
#78 = DIRECTION ( 'NONE',  ( 0.000000000000000000, 0.000000000000000000, -1.000000000000000000 ) ) ;
#79 = AXIS2_PLACEMENT_3D ( 'NONE', #176, #322, #211 ) ;
#80 =( LENGTH_UNIT ( ) NAMED_UNIT ( * ) SI_UNIT ( $, .METRE. ) );
#81 = SURFACE_STYLE_USAGE ( .BOTH. , #218 ) ;
#82 = COLOUR_RGB ( '',1.000000000000000000, 0.000000000000000000, 0.000000000000000000 ) ;
#83 =( LENGTH_UNIT ( ) NAMED_UNIT ( * ) SI_UNIT ( $, .METRE. ) );
#84 = PRODUCT_CONTEXT ( 'NONE', #260, 'mechanical' ) ;
#85 = ORIENTED_EDGE ( 'NONE', *, *, #66, .F. ) ;
#86 = PRESENTATION_STYLE_ASSIGNMENT (( #278 ) ) ;
#87 = EDGE_LOOP ( 'NONE', ( #118, #197, #15, #287, #253 ) ) ;
#88 = DIRECTION ( 'NONE',  ( -1.000000000000000000, 0.000000000000000000, 0.000000000000000000 ) ) ;
#89 = ORIENTED_EDGE ( 'NONE', *, *, #66, .T. ) ;
#90 = VECTOR ( 'NONE', #31, 39.37007874015748143 ) ;
#91 = VERTEX_POINT ( 'NONE', #181 ) ;
#92 = CARTESIAN_POINT ( 'NONE',  ( 0.06249999999999993061, 2.500000000000000000, 7.654042494670956004E-18 ) ) ;
#93 = DIRECTION ( 'NONE',  ( -0.000000000000000000, -1.000000000000000000, -0.000000000000000000 ) ) ;
#94 = EDGE_CURVE ( 'NONE', #288, #119, #198, .T. ) ;
#95 = FACE_OUTER_BOUND ( 'NONE', #147, .T. ) ;
#96 = CYLINDRICAL_SURFACE ( 'NONE', #102, 0.06249999999999993061 ) ;
#97 = PRESENTATION_LAYER_ASSIGNMENT (  '', '', ( #7 ) ) ;
#98 = FACE_OUTER_BOUND ( 'NONE', #336, .T. ) ;
#99 = DIRECTION ( 'NONE',  ( -1.224646799147353207E-16, 1.000000000000000000, 0.000000000000000000 ) ) ;
#100 = AXIS2_PLACEMENT_3D ( 'NONE', #343, #93, #311 ) ;
#101 = DIRECTION ( 'NONE',  ( 0.000000000000000000, -0.000000000000000000, 1.000000000000000000 ) ) ;
#102 = AXIS2_PLACEMENT_3D ( 'NONE', #207, #32, #208 ) ;
#103 = PRESENTATION_LAYER_ASSIGNMENT (  '', '', ( #285 ) ) ;
#104 = EDGE_CURVE ( 'NONE', #171, #57, #294, .T. ) ;
#105 = CARTESIAN_POINT ( 'NONE',  ( 7.654042494670959086E-18, 0.06250000000000001388, 0.06250000000000001388 ) ) ;
#106 = LENGTH_MEASURE_WITH_UNIT ( LENGTH_MEASURE( 0.02539999999999999897 ), #354 );
#107 =( NAMED_UNIT ( * ) PLANE_ANGLE_UNIT ( ) SI_UNIT ( $, .RADIAN. ) );
#108 = ADVANCED_FACE ( 'NONE', ( #95 ), #127, .F. ) ;
#109 = LINE ( 'NONE', #72, #219 ) ;
#110 = PRESENTATION_STYLE_ASSIGNMENT (( #81 ) ) ;
#111 = STYLED_ITEM ( 'NONE', ( #86 ), #349 ) ;
#112 = CARTESIAN_POINT ( 'NONE',  ( 0.000000000000000000, 0.000000000000000000, 0.000000000000000000 ) ) ;
#113 = EDGE_CURVE ( 'NONE', #283, #91, #124, .T. ) ;
#114 = CARTESIAN_POINT ( 'NONE',  ( -1.224646799147353207E-16, 2.500000000000000000, 0.000000000000000000 ) ) ;
#115 = EDGE_CURVE ( 'NONE', #121, #171, #2, .T. ) ;
#116 = SURFACE_SIDE_STYLE ('',( #139 ) ) ;
#117 = ORIENTED_EDGE ( 'NONE', *, *, #94, .T. ) ;
#118 = ORIENTED_EDGE ( 'NONE', *, *, #268, .T. ) ;
#119 = VERTEX_POINT ( 'NONE', #37 ) ;
#120 = LENGTH_MEASURE_WITH_UNIT ( LENGTH_MEASURE( 0.02539999999999999897 ), #142 );
#121 = VERTEX_POINT ( 'NONE', #293 ) ;
#122 =( LENGTH_UNIT ( ) NAMED_UNIT ( * ) SI_UNIT ( $, .METRE. ) );
#123 = CLOSED_SHELL ( 'NONE', ( #273, #217, #152, #363, #349 ) ) ;
#124 = CIRCLE ( 'NONE', #327, 0.06250000000000005551 ) ;
#125 = DIRECTION ( 'NONE',  ( -1.224646799147353207E-16, 1.000000000000000000, -0.000000000000000000 ) ) ;
#126 = DIRECTION ( 'NONE',  ( -1.000000000000000000, 0.000000000000000000, 0.000000000000000000 ) ) ;
#127 = PLANE ( 'NONE',  #282 ) ;
#128 = MECHANICAL_DESIGN_GEOMETRIC_PRESENTATION_REPRESENTATION (  '', ( #332 ), #56 ) ;
#129 = DIRECTION ( 'NONE',  ( 0.000000000000000000, 0.000000000000000000, -1.000000000000000000 ) ) ;
#130 = SURFACE_STYLE_USAGE ( .BOTH. , #39 ) ;
#131 = DIRECTION ( 'NONE',  ( -0.000000000000000000, -1.000000000000000000, -0.000000000000000000 ) ) ;
#132 = SURFACE_STYLE_FILL_AREA ( #220 ) ;
#133 = EDGE_CURVE ( 'NONE', #367, #283, #36, .T. ) ;
#134 =( GEOMETRIC_REPRESENTATION_CONTEXT ( 3 ) GLOBAL_UNCERTAINTY_ASSIGNED_CONTEXT ( ( #69 ) ) GLOBAL_UNIT_ASSIGNED_CONTEXT ( ( #136, #215, #42 ) ) REPRESENTATION_CONTEXT ( 'NONE', 'WORKASPACE' ) );
#135 = APPLICATION_CONTEXT ( 'automotive_design' ) ;
#136 =( CONVERSION_BASED_UNIT ( 'INCH', #272 ) LENGTH_UNIT ( ) NAMED_UNIT ( #11 ) );
#137 = CARTESIAN_POINT ( 'NONE',  ( 0.06249999999999993061, 2.500000000000000000, 0.000000000000000000 ) ) ;
#138 = DIMENSIONAL_EXPONENTS ( 1.000000000000000000, 0.000000000000000000, 0.000000000000000000, 0.000000000000000000, 0.000000000000000000, 0.000000000000000000, 0.000000000000000000 ) ;
#139 = SURFACE_STYLE_FILL_AREA ( #366 ) ;
#140 = ORIENTED_EDGE ( 'NONE', *, *, #77, .T. ) ;
#141 = PRESENTATION_LAYER_ASSIGNMENT (  '', '', ( #263 ) ) ;
#142 =( LENGTH_UNIT ( ) NAMED_UNIT ( * ) SI_UNIT ( $, .METRE. ) );
#143 = ORIENTED_EDGE ( 'NONE', *, *, #330, .F. ) ;
#144 = LENGTH_MEASURE_WITH_UNIT ( LENGTH_MEASURE( 0.02539999999999999897 ), #83 );
#145 = VERTEX_POINT ( 'NONE', #68 ) ;
#146 = FACE_OUTER_BOUND ( 'NONE', #341, .T. ) ;
#147 = EDGE_LOOP ( 'NONE', ( #85, #143 ) ) ;
#148 = SPHERICAL_SURFACE ( 'NONE', #158, 0.06250000000000001388 ) ;
#149 = AXIS2_PLACEMENT_3D ( 'NONE', #65, #205, #63 ) ;
#150 = AXIS2_PLACEMENT_3D ( 'NONE', #50, #280, #168 ) ;
#151 = ORIENTED_EDGE ( 'NONE', *, *, #268, .F. ) ;
#152 = ADVANCED_FACE ( 'NONE', ( #98 ), #238, .T. ) ;
#153 = DIRECTION ( 'NONE',  ( -1.000000000000000000, -1.224646799147353207E-16, 0.000000000000000000 ) ) ;
#154 = FILL_AREA_STYLE ('',( #267 ) ) ;
#155 = CLOSED_SHELL ( 'NONE', ( #165, #108, #187, #275 ) ) ;
#156 = CARTESIAN_POINT ( 'NONE',  ( -0.06250000000000005551, 2.500000000000000000, 0.000000000000000000 ) ) ;
#157 = AXIS2_PLACEMENT_3D ( 'NONE', #246, #183, #188 ) ;
#158 = AXIS2_PLACEMENT_3D ( 'NONE', #204, #233, #174 ) ;
#159 = SURFACE_SIDE_STYLE ('',( #221 ) ) ;
#160 = DIRECTION ( 'NONE',  ( 0.000000000000000000, 0.000000000000000000, -1.000000000000000000 ) ) ;
#161 = CIRCLE ( 'NONE', #16, 0.06250000000000001388 ) ;
#162 = DIRECTION ( 'NONE',  ( -0.000000000000000000, -1.000000000000000000, -0.000000000000000000 ) ) ;
#163 = MECHANICAL_DESIGN_GEOMETRIC_PRESENTATION_REPRESENTATION (  '', ( #7 ), #206 ) ;
#164 = APPLICATION_PROTOCOL_DEFINITION ( 'draft international standard', 'automotive_design', 1998, #260 ) ;
#165 = ADVANCED_FACE ( 'NONE', ( #71 ), #96, .T. ) ;
#166 = FACE_OUTER_BOUND ( 'NONE', #281, .T. ) ;
#167 = ORIENTED_EDGE ( 'NONE', *, *, #94, .F. ) ;
#168 = DIRECTION ( 'NONE',  ( -1.000000000000000000, 0.000000000000000000, 0.000000000000000000 ) ) ;
#169 = ORIENTED_EDGE ( 'NONE', *, *, #29, .F. ) ;
#170 = SURFACE_SIDE_STYLE ('',( #369 ) ) ;
#171 = VERTEX_POINT ( 'NONE', #264 ) ;
#172 = CARTESIAN_POINT ( 'NONE',  ( -0.06250000000000001388, 0.06250000000000001388, 7.654042494670959086E-18 ) ) ;
#173 = ORIENTED_EDGE ( 'NONE', *, *, #115, .T. ) ;
#174 = DIRECTION ( 'NONE',  ( 1.000000000000000000, 0.000000000000000000, 0.000000000000000000 ) ) ;
#175 = DIRECTION ( 'NONE',  ( 0.000000000000000000, 0.000000000000000000, -1.000000000000000000 ) ) ;
#176 = CARTESIAN_POINT ( 'NONE',  ( 1.224646799147353207E-16, 0.5000000000000001110, 0.000000000000000000 ) ) ;
#177 =( CONVERSION_BASED_UNIT ( 'INCH', #1 ) LENGTH_UNIT ( ) NAMED_UNIT ( #368 ) );
#178 = UNCERTAINTY_MEASURE_WITH_UNIT (LENGTH_MEASURE( 1.000000000000000082E-05 ), #213, 'distance_accuracy_value', 'NONE');
#179 =( NAMED_UNIT ( * ) PLANE_ANGLE_UNIT ( ) SI_UNIT ( $, .RADIAN. ) );
#180 = COLOUR_RGB ( '',0.7921568627450980005, 0.8196078431372548767, 0.9333333333333333481 ) ;
#181 = CARTESIAN_POINT ( 'NONE',  ( -0.06250000000000016653, 2.500000000000000000, 0.000000000000000000 ) ) ;
#182 = UNCERTAINTY_MEASURE_WITH_UNIT (LENGTH_MEASURE( 1.000000000000000082E-05 ), #52, 'distance_accuracy_value', 'NONE');
#183 = DIRECTION ( 'NONE',  ( -0.000000000000000000, -1.000000000000000000, -0.000000000000000000 ) ) ;
#184 =( NAMED_UNIT ( * ) PLANE_ANGLE_UNIT ( ) SI_UNIT ( $, .RADIAN. ) );
#185 = AXIS2_PLACEMENT_3D ( 'NONE', #9, #239, #129 ) ;
#186 =( LENGTH_UNIT ( ) NAMED_UNIT ( * ) SI_UNIT ( $, .METRE. ) );
#187 = ADVANCED_FACE ( 'NONE', ( #237 ), #216, .T. ) ;
#188 = DIRECTION ( 'NONE',  ( 0.000000000000000000, 0.000000000000000000, -1.000000000000000000 ) ) ;
#189 = LENGTH_MEASURE_WITH_UNIT ( LENGTH_MEASURE( 0.02539999999999999897 ), #186 );
#190 = CIRCLE ( 'NONE', #79, 0.06249999999999980571 ) ;
#191 = LENGTH_MEASURE_WITH_UNIT ( LENGTH_MEASURE( 0.02539999999999999897 ), #80 );
#192 =( NAMED_UNIT ( * ) PLANE_ANGLE_UNIT ( ) SI_UNIT ( $, .RADIAN. ) );
#193 = AXIS2_PLACEMENT_3D ( 'NONE', #335, #286, #340 ) ;
#194 =( NAMED_UNIT ( * ) SI_UNIT ( $, .STERADIAN. ) SOLID_ANGLE_UNIT ( ) );
#195 = ORIENTED_EDGE ( 'NONE', *, *, #222, .F. ) ;
#196 = DIRECTION ( 'NONE',  ( -1.224646799147353207E-16, 1.000000000000000000, -0.000000000000000000 ) ) ;
#197 = ORIENTED_EDGE ( 'NONE', *, *, #210, .T. ) ;
#198 = CIRCLE ( 'NONE', #5, 0.06250000000000001388 ) ;
#199 = EDGE_LOOP ( 'NONE', ( #51, #230, #140, #309 ) ) ;
#200 = PLANE ( 'NONE',  #47 ) ;
#201 = ORIENTED_EDGE ( 'NONE', *, *, #77, .F. ) ;
#202 = DIRECTION ( 'NONE',  ( -1.224646799147353207E-16, 1.000000000000000000, -0.000000000000000000 ) ) ;
#203 = CARTESIAN_POINT ( 'NONE',  ( 0.000000000000000000, 0.06250000000000001388, 0.000000000000000000 ) ) ;
#204 = CARTESIAN_POINT ( 'NONE',  ( -7.654042494670957545E-18, 0.06250000000000001388, 0.000000000000000000 ) ) ;
#205 = DIRECTION ( 'NONE',  ( -0.000000000000000000, -1.000000000000000000, -0.000000000000000000 ) ) ;
#206 =( GEOMETRIC_REPRESENTATION_CONTEXT ( 3 ) GLOBAL_UNCERTAINTY_ASSIGNED_CONTEXT ( ( #70 ) ) GLOBAL_UNIT_ASSIGNED_CONTEXT ( ( #177, #179, #4 ) ) REPRESENTATION_CONTEXT ( 'NONE', 'WORKASPACE' ) );
#207 = CARTESIAN_POINT ( 'NONE',  ( -1.224646799147353207E-16, 2.500000000000000000, 0.000000000000000000 ) ) ;
#208 = DIRECTION ( 'NONE',  ( -1.000000000000000000, 0.000000000000000000, 0.000000000000000000 ) ) ;
#209 = CARTESIAN_POINT ( 'NONE',  ( -1.224646799147353207E-16, 2.500000000000000000, 0.000000000000000000 ) ) ;
#210 = EDGE_CURVE ( 'NONE', #121, #251, #109, .T. ) ;
#211 = DIRECTION ( 'NONE',  ( -1.000000000000000000, 0.000000000000000000, 0.000000000000000000 ) ) ;
#212 = MECHANICAL_DESIGN_GEOMETRIC_PRESENTATION_REPRESENTATION (  '', ( #263 ), #345 ) ;
#213 =( CONVERSION_BASED_UNIT ( 'INCH', #106 ) LENGTH_UNIT ( ) NAMED_UNIT ( #138 ) );
#214 =( CONVERSION_BASED_UNIT ( 'INCH', #191 ) LENGTH_UNIT ( ) NAMED_UNIT ( #25 ) );
#215 =( NAMED_UNIT ( * ) PLANE_ANGLE_UNIT ( ) SI_UNIT ( $, .RADIAN. ) );
#216 = CYLINDRICAL_SURFACE ( 'NONE', #12, 0.06249999999999993061 ) ;
#217 = ADVANCED_FACE ( 'NONE', ( #329 ), #353, .T. ) ;
#218 = SURFACE_SIDE_STYLE ('',( #372 ) ) ;
#219 = VECTOR ( 'NONE', #357, 39.37007874015748143 ) ;
#220 = FILL_AREA_STYLE ('',( #10 ) ) ;
#221 = SURFACE_STYLE_FILL_AREA ( #41 ) ;
#222 = EDGE_CURVE ( 'NONE', #288, #57, #296, .T. ) ;
#223 = FACE_OUTER_BOUND ( 'NONE', #256, .T. ) ;
#224 = CARTESIAN_POINT ( 'NONE',  ( -0.06249999999999968081, 0.5000000000000001110, 0.000000000000000000 ) ) ;
#225 = STYLED_ITEM ( 'NONE', ( #38 ), #217 ) ;
#226 = ORIENTED_EDGE ( 'NONE', *, *, #133, .T. ) ;
#227 = CARTESIAN_POINT ( 'NONE',  ( 0.000000000000000000, 0.06250000000000001388, -0.06250000000000001388 ) ) ;
#228 = CIRCLE ( 'NONE', #67, 0.06250000000000001388 ) ;
#229 = PRESENTATION_STYLE_ASSIGNMENT (( #317 ) ) ;
#230 = ORIENTED_EDGE ( 'NONE', *, *, #330, .T. ) ;
#231 = AXIS2_PLACEMENT_3D ( 'NONE', #333, #249, #26 ) ;
#232 = ORIENTED_EDGE ( 'NONE', *, *, #222, .T. ) ;
#233 = DIRECTION ( 'NONE',  ( 0.000000000000000000, 0.000000000000000000, 1.000000000000000000 ) ) ;
#234 = DIRECTION ( 'NONE',  ( -1.224646799147353207E-16, 1.000000000000000000, -0.000000000000000000 ) ) ;
#235 = CARTESIAN_POINT ( 'NONE',  ( 0.000000000000000000, 0.5000000000000000000, 0.000000000000000000 ) ) ;
#236 = DIRECTION ( 'NONE',  ( 1.224646799147353207E-16, -0.000000000000000000, 1.000000000000000000 ) ) ;
#237 = FACE_OUTER_BOUND ( 'NONE', #199, .T. ) ;
#238 = PLANE ( 'NONE',  #277 ) ;
#239 = DIRECTION ( 'NONE',  ( -0.000000000000000000, -1.000000000000000000, -0.000000000000000000 ) ) ;
#240 = COLOUR_RGB ( '',1.000000000000000000, 0.000000000000000000, 0.000000000000000000 ) ;
#241 = SURFACE_STYLE_USAGE ( .BOTH. , #159 ) ;
#242 = FACE_OUTER_BOUND ( 'NONE', #314, .T. ) ;
#243 = SURFACE_STYLE_FILL_AREA ( #352 ) ;
#244 =( NAMED_UNIT ( * ) PLANE_ANGLE_UNIT ( ) SI_UNIT ( $, .RADIAN. ) );
#245 = PRESENTATION_LAYER_ASSIGNMENT (  '', '', ( #76 ) ) ;
#246 = CARTESIAN_POINT ( 'NONE',  ( 0.000000000000000000, 0.000000000000000000, 0.000000000000000000 ) ) ;
#247 = PRESENTATION_STYLE_ASSIGNMENT (( #130 ) ) ;
#248 = MANIFOLD_SOLID_BREP ( 'Revolve - Cutting Edge', #123 ) ;
#249 = DIRECTION ( 'NONE',  ( 0.000000000000000000, 0.000000000000000000, 1.000000000000000000 ) ) ;
#250 = EDGE_LOOP ( 'NONE', ( #89, #226, #339, #201 ) ) ;
#251 = VERTEX_POINT ( 'NONE', #105 ) ;
#252 = ADVANCED_BREP_SHAPE_REPRESENTATION ( '56032', ( #248, #365, #231 ), #134 ) ;
#253 = ORIENTED_EDGE ( 'NONE', *, *, #104, .F. ) ;
#254 = PRODUCT_DEFINITION ( 'UNKNOWN', '', #35, #321 ) ;
#255 = FILL_AREA_STYLE ('',( #21 ) ) ;
#256 = EDGE_LOOP ( 'NONE', ( #53, #334 ) ) ;
#257 = CIRCLE ( 'NONE', #75, 0.06249999999999980571 ) ;
#258 = FILL_AREA_STYLE ('',( #27 ) ) ;
#259 = ORIENTED_EDGE ( 'NONE', *, *, #115, .F. ) ;
#260 = APPLICATION_CONTEXT ( 'automotive_design' ) ;
#261 = PRESENTATION_STYLE_ASSIGNMENT (( #344 ) ) ;
#262 = SURFACE_SIDE_STYLE ('',( #325 ) ) ;
#263 = STYLED_ITEM ( 'NONE', ( #326 ), #248 ) ;
#264 = CARTESIAN_POINT ( 'NONE',  ( 0.000000000000000000, 0.5000000000000000000, -0.06249999999999993061 ) ) ;
#265 = UNCERTAINTY_MEASURE_WITH_UNIT (LENGTH_MEASURE( 1.000000000000000082E-05 ), #61, 'distance_accuracy_value', 'NONE');
#266 = DIRECTION ( 'NONE',  ( -0.000000000000000000, -1.000000000000000000, -0.000000000000000000 ) ) ;
#267 = FILL_AREA_STYLE_COLOUR ( '', #240 ) ;
#268 = EDGE_CURVE ( 'NONE', #171, #121, #307, .T. ) ;
#269 = CIRCLE ( 'NONE', #150, 0.06250000000000001388 ) ;
#270 = CARTESIAN_POINT ( 'NONE',  ( 0.000000000000000000, 0.06250000000000001388, 0.000000000000000000 ) ) ;
#271 = AXIS2_PLACEMENT_3D ( 'NONE', #112, #131, #78 ) ;
#272 = LENGTH_MEASURE_WITH_UNIT ( LENGTH_MEASURE( 0.02539999999999999897 ), #303 );
#273 = ADVANCED_FACE ( 'NONE', ( #242 ), #360, .T. ) ;
#274 =( NAMED_UNIT ( * ) SI_UNIT ( $, .STERADIAN. ) SOLID_ANGLE_UNIT ( ) );
#275 = ADVANCED_FACE ( 'NONE', ( #223 ), #200, .F. ) ;
#276 =( CONVERSION_BASED_UNIT ( 'INCH', #189 ) LENGTH_UNIT ( ) NAMED_UNIT ( #358 ) );
#277 = AXIS2_PLACEMENT_3D ( 'NONE', #235, #348, #101 ) ;
#278 = SURFACE_STYLE_USAGE ( .BOTH. , #170 ) ;
#279 = APPLICATION_PROTOCOL_DEFINITION ( 'draft international standard', 'automotive_design', 1998, #135 ) ;
#280 = DIRECTION ( 'NONE',  ( 0.000000000000000000, 0.000000000000000000, -1.000000000000000000 ) ) ;
#281 = EDGE_LOOP ( 'NONE', ( #167, #232, #59, #320 ) ) ;
#282 = AXIS2_PLACEMENT_3D ( 'NONE', #347, #99, #153 ) ;
#283 = VERTEX_POINT ( 'NONE', #92 ) ;
#284 = AXIS2_PLACEMENT_3D ( 'NONE', #114, #202, #88 ) ;
#285 = STYLED_ITEM ( 'NONE', ( #247 ), #365 ) ;
#286 = DIRECTION ( 'NONE',  ( 0.000000000000000000, 0.000000000000000000, 1.000000000000000000 ) ) ;
#287 = ORIENTED_EDGE ( 'NONE', *, *, #54, .F. ) ;
#288 = VERTEX_POINT ( 'NONE', #172 ) ;
#289 = CYLINDRICAL_SURFACE ( 'NONE', #271, 0.06249999999999997224 ) ;
#290 = CARTESIAN_POINT ( 'NONE',  ( 0.000000000000000000, 0.06250000000000001388, 0.000000000000000000 ) ) ;
#291 = CIRCLE ( 'NONE', #284, 0.06250000000000005551 ) ;
#292 =( GEOMETRIC_REPRESENTATION_CONTEXT ( 3 ) GLOBAL_UNCERTAINTY_ASSIGNED_CONTEXT ( ( #43 ) ) GLOBAL_UNIT_ASSIGNED_CONTEXT ( ( #276, #184, #74 ) ) REPRESENTATION_CONTEXT ( 'NONE', 'WORKASPACE' ) );
#293 = CARTESIAN_POINT ( 'NONE',  ( 7.654042494670952923E-18, 0.5000000000000000000, 0.06249999999999993061 ) ) ;
#294 = LINE ( 'NONE', #33, #73 ) ;
#295 = LINE ( 'NONE', #156, #312 ) ;
#296 = CIRCLE ( 'NONE', #361, 0.06250000000000001388 ) ;
#297 = UNCERTAINTY_MEASURE_WITH_UNIT (LENGTH_MEASURE( 1.000000000000000082E-05 ), #214, 'distance_accuracy_value', 'NONE');
#298 = DIRECTION ( 'NONE',  ( 1.000000000000000000, 0.000000000000000000, -1.224646799147353207E-16 ) ) ;
#299 = PRODUCT_DEFINITION_SHAPE ( 'NONE', 'NONE',  #254 ) ;
#300 = PRESENTATION_LAYER_ASSIGNMENT (  '', '', ( #225 ) ) ;
#301 =( GEOMETRIC_REPRESENTATION_CONTEXT ( 3 ) GLOBAL_UNCERTAINTY_ASSIGNED_CONTEXT ( ( #265 ) ) GLOBAL_UNIT_ASSIGNED_CONTEXT ( ( #61, #14, #313 ) ) REPRESENTATION_CONTEXT ( 'NONE', 'WORKASPACE' ) );
#302 = FILL_AREA_STYLE_COLOUR ( '', #350 ) ;
#303 =( LENGTH_UNIT ( ) NAMED_UNIT ( * ) SI_UNIT ( $, .METRE. ) );
#304 = DIMENSIONAL_EXPONENTS ( 1.000000000000000000, 0.000000000000000000, 0.000000000000000000, 0.000000000000000000, 0.000000000000000000, 0.000000000000000000, 0.000000000000000000 ) ;
#305 =( CONVERSION_BASED_UNIT ( 'INCH', #359 ) LENGTH_UNIT ( ) NAMED_UNIT ( #60 ) );
#306 =( NAMED_UNIT ( * ) SI_UNIT ( $, .STERADIAN. ) SOLID_ANGLE_UNIT ( ) );
#307 = CIRCLE ( 'NONE', #185, 0.06249999999999993061 ) ;
#308 = PRODUCT ( '56032', '56032', '', ( #84 ) ) ;
#309 = ORIENTED_EDGE ( 'NONE', *, *, #113, .F. ) ;
#310 = DIRECTION ( 'NONE',  ( -1.000000000000000000, 0.000000000000000000, 0.000000000000000000 ) ) ;
#311 = DIRECTION ( 'NONE',  ( 0.000000000000000000, 0.000000000000000000, -1.000000000000000000 ) ) ;
#312 = VECTOR ( 'NONE', #234, 39.37007874015748143 ) ;
#313 =( NAMED_UNIT ( * ) SI_UNIT ( $, .STERADIAN. ) SOLID_ANGLE_UNIT ( ) );
#314 = EDGE_LOOP ( 'NONE', ( #318, #117, #370, #23 ) ) ;
#315 = PRESENTATION_LAYER_ASSIGNMENT (  '', '', ( #111 ) ) ;
#316 =( GEOMETRIC_REPRESENTATION_CONTEXT ( 3 ) GLOBAL_UNCERTAINTY_ASSIGNED_CONTEXT ( ( #178 ) ) GLOBAL_UNIT_ASSIGNED_CONTEXT ( ( #213, #192, #46 ) ) REPRESENTATION_CONTEXT ( 'NONE', 'WORKASPACE' ) );
#317 = SURFACE_STYLE_USAGE ( .BOTH. , #116 ) ;
#318 = ORIENTED_EDGE ( 'NONE', *, *, #29, .T. ) ;
#319 = EDGE_CURVE ( 'NONE', #145, #119, #269, .T. ) ;
#320 = ORIENTED_EDGE ( 'NONE', *, *, #319, .T. ) ;
#321 = PRODUCT_DEFINITION_CONTEXT ( 'detailed design', #135, 'design' ) ;
#322 = DIRECTION ( 'NONE',  ( -1.224646799147353207E-16, 1.000000000000000000, -0.000000000000000000 ) ) ;
#323 = CARTESIAN_POINT ( 'NONE',  ( 0.06249999999999981265, 2.500000000000000000, 7.654042494670948300E-18 ) ) ;
#324 = CARTESIAN_POINT ( 'NONE',  ( -7.654042494670957545E-18, 0.06250000000000001388, 0.000000000000000000 ) ) ;
#325 = SURFACE_STYLE_FILL_AREA ( #154 ) ;
#326 = PRESENTATION_STYLE_ASSIGNMENT (( #351 ) ) ;
#327 = AXIS2_PLACEMENT_3D ( 'NONE', #209, #125, #126 ) ;
#328 = UNCERTAINTY_MEASURE_WITH_UNIT (LENGTH_MEASURE( 1.000000000000000082E-05 ), #305, 'distance_accuracy_value', 'NONE');
#329 = FACE_OUTER_BOUND ( 'NONE', #87, .T. ) ;
#330 = EDGE_CURVE ( 'NONE', #367, #28, #257, .T. ) ;
#331 = SURFACE_SIDE_STYLE ('',( #132 ) ) ;
#332 = STYLED_ITEM ( 'NONE', ( #229 ), #273 ) ;
#333 = CARTESIAN_POINT ( 'NONE',  ( 0.000000000000000000, 0.000000000000000000, 0.000000000000000000 ) ) ;
#334 = ORIENTED_EDGE ( 'NONE', *, *, #113, .T. ) ;
#335 = CARTESIAN_POINT ( 'NONE',  ( -7.654042494670957545E-18, 0.06250000000000001388, 0.000000000000000000 ) ) ;
#336 = EDGE_LOOP ( 'NONE', ( #151, #259 ) ) ;
#337 = DIRECTION ( 'NONE',  ( 1.000000000000000000, 1.224646799147353207E-16, 0.000000000000000000 ) ) ;
#338 = EDGE_CURVE ( 'NONE', #91, #283, #291, .T. ) ;
#339 = ORIENTED_EDGE ( 'NONE', *, *, #338, .F. ) ;
#340 = DIRECTION ( 'NONE',  ( 1.000000000000000000, 0.000000000000000000, 0.000000000000000000 ) ) ;
#341 = EDGE_LOOP ( 'NONE', ( #362, #173, #364, #195, #169 ) ) ;
#342 = FILL_AREA_STYLE_COLOUR ( '', #34 ) ;
#343 = CARTESIAN_POINT ( 'NONE',  ( 0.000000000000000000, 0.06250000000000001388, 0.000000000000000000 ) ) ;
#344 = SURFACE_STYLE_USAGE ( .BOTH. , #262 ) ;
#345 =( GEOMETRIC_REPRESENTATION_CONTEXT ( 3 ) GLOBAL_UNCERTAINTY_ASSIGNED_CONTEXT ( ( #328 ) ) GLOBAL_UNIT_ASSIGNED_CONTEXT ( ( #305, #107, #306 ) ) REPRESENTATION_CONTEXT ( 'NONE', 'WORKASPACE' ) );
#346 = PRODUCT_RELATED_PRODUCT_CATEGORY ( 'part', '', ( #308 ) ) ;
#347 = CARTESIAN_POINT ( 'NONE',  ( 1.224646799147353207E-16, 0.5000000000000000000, 0.000000000000000000 ) ) ;
#348 = DIRECTION ( 'NONE',  ( 0.000000000000000000, 1.000000000000000000, 0.000000000000000000 ) ) ;
#349 = ADVANCED_FACE ( 'NONE', ( #166 ), #148, .T. ) ;
#350 = COLOUR_RGB ( '',0.7921568627450980005, 0.8196078431372548767, 0.9333333333333333481 ) ;
#351 = SURFACE_STYLE_USAGE ( .BOTH. , #331 ) ;
#352 = FILL_AREA_STYLE ('',( #302 ) ) ;
#353 = CYLINDRICAL_SURFACE ( 'NONE', #157, 0.06249999999999997224 ) ;
#354 =( LENGTH_UNIT ( ) NAMED_UNIT ( * ) SI_UNIT ( $, .METRE. ) );
#355 = DIRECTION ( 'NONE',  ( -1.000000000000000000, 0.000000000000000000, 0.000000000000000000 ) ) ;
#356 = MECHANICAL_DESIGN_GEOMETRIC_PRESENTATION_REPRESENTATION (  '', ( #111 ), #301 ) ;
#357 = DIRECTION ( 'NONE',  ( -0.000000000000000000, -1.000000000000000000, -0.000000000000000000 ) ) ;
#358 = DIMENSIONAL_EXPONENTS ( 1.000000000000000000, 0.000000000000000000, 0.000000000000000000, 0.000000000000000000, 0.000000000000000000, 0.000000000000000000, 0.000000000000000000 ) ;
#359 = LENGTH_MEASURE_WITH_UNIT ( LENGTH_MEASURE( 0.02539999999999999897 ), #13 );
#360 = SPHERICAL_SURFACE ( 'NONE', #193, 0.06250000000000001388 ) ;
#361 = AXIS2_PLACEMENT_3D ( 'NONE', #270, #162, #160 ) ;
#362 = ORIENTED_EDGE ( 'NONE', *, *, #210, .F. ) ;
#363 = ADVANCED_FACE ( 'NONE', ( #146 ), #289, .T. ) ;
#364 = ORIENTED_EDGE ( 'NONE', *, *, #104, .T. ) ;
#365 = MANIFOLD_SOLID_BREP ( 'Revolve - Tool Body (Straight Shanked)', #155 ) ;
#366 = FILL_AREA_STYLE ('',( #342 ) ) ;
#367 = VERTEX_POINT ( 'NONE', #45 ) ;
#368 = DIMENSIONAL_EXPONENTS ( 1.000000000000000000, 0.000000000000000000, 0.000000000000000000, 0.000000000000000000, 0.000000000000000000, 0.000000000000000000, 0.000000000000000000 ) ;
#369 = SURFACE_STYLE_FILL_AREA ( #255 ) ;
#370 = ORIENTED_EDGE ( 'NONE', *, *, #319, .F. ) ;
#371 = MECHANICAL_DESIGN_GEOMETRIC_PRESENTATION_REPRESENTATION (  '', ( #225 ), #40 ) ;
#372 = SURFACE_STYLE_FILL_AREA ( #258 ) ;
#373 = DIRECTION ( 'NONE',  ( 0.000000000000000000, 0.000000000000000000, -1.000000000000000000 ) ) ;
ENDSEC;
END-ISO-10303-21;
