ISO-10303-21;
HEADER;
FILE_DESCRIPTION (( 'STEP AP214' ),
    '1' );
FILE_NAME ('44047.STEP',
    '2023-06-22T19:15:10',
    ( '' ),
    ( '' ),
    'SwSTEP 2.0',
    'SolidWorks 2023',
    '' );
FILE_SCHEMA (( 'AUTOMOTIVE_DESIGN' ));
ENDSEC;

DATA;
#1 =( CONVERSION_BASED_UNIT ( 'INCH', #127 ) LENGTH_UNIT ( ) NAMED_UNIT ( #282 ) );
#2 = EDGE_CURVE ( 'NONE', #102, #135, #4, .T. ) ;
#3 = STYLED_ITEM ( 'NONE', ( #183 ), #241 ) ;
#4 = CIRCLE ( 'NONE', #185, 0.06250000000000012490 ) ;
#5 = UNCERTAINTY_MEASURE_WITH_UNIT (LENGTH_MEASURE( 1.000000000000000082E-05 ), #170, 'distance_accuracy_value', 'NONE');
#6 =( CONVERSION_BASED_UNIT ( 'INCH', #253 ) LENGTH_UNIT ( ) NAMED_UNIT ( #306 ) );
#7 = ADVANCED_FACE ( 'NONE', ( #250 ), #62, .T. ) ;
#8 = DIRECTION ( 'NONE',  ( -1.000000000000000000, 0.000000000000000000, 0.000000000000000000 ) ) ;
#9 = DIRECTION ( 'NONE',  ( 6.997981709413445489E-17, -1.000000000000000000, 0.000000000000000000 ) ) ;
#10 = ORIENTED_EDGE ( 'NONE', *, *, #230, .T. ) ;
#11 = VECTOR ( 'NONE', #104, 39.37007874015748143 ) ;
#12 = PRESENTATION_LAYER_ASSIGNMENT (  '', '', ( #25 ) ) ;
#13 = DIRECTION ( 'NONE',  ( -6.997981709413445489E-17, 1.000000000000000000, -0.000000000000000000 ) ) ;
#14 =( NAMED_UNIT ( * ) SI_UNIT ( $, .STERADIAN. ) SOLID_ANGLE_UNIT ( ) );
#15 = DIRECTION ( 'NONE',  ( 0.000000000000000000, 0.000000000000000000, -1.000000000000000000 ) ) ;
#16 =( LENGTH_UNIT ( ) NAMED_UNIT ( * ) SI_UNIT ( $, .METRE. ) );
#17 =( LENGTH_UNIT ( ) NAMED_UNIT ( * ) SI_UNIT ( $, .METRE. ) );
#18 = DIRECTION ( 'NONE',  ( 1.000000000000000000, 6.997981709413445489E-17, 0.000000000000000000 ) ) ;
#19 = ORIENTED_EDGE ( 'NONE', *, *, #32, .F. ) ;
#20 = FILL_AREA_STYLE_COLOUR ( '', #214 ) ;
#21 = PRESENTATION_LAYER_ASSIGNMENT (  '', '', ( #77 ) ) ;
#22 = FACE_OUTER_BOUND ( 'NONE', #264, .T. ) ;
#23 = DIRECTION ( 'NONE',  ( -0.000000000000000000, -1.000000000000000000, -0.000000000000000000 ) ) ;
#24 =( GEOMETRIC_REPRESENTATION_CONTEXT ( 3 ) GLOBAL_UNCERTAINTY_ASSIGNED_CONTEXT ( ( #268 ) ) GLOBAL_UNIT_ASSIGNED_CONTEXT ( ( #228, #208, #86 ) ) REPRESENTATION_CONTEXT ( 'NONE', 'WORKASPACE' ) );
#25 = STYLED_ITEM ( 'NONE', ( #288 ), #270 ) ;
#26 = DIMENSIONAL_EXPONENTS ( 1.000000000000000000, 0.000000000000000000, 0.000000000000000000, 0.000000000000000000, 0.000000000000000000, 0.000000000000000000, 0.000000000000000000 ) ;
#27 = CARTESIAN_POINT ( 'NONE',  ( 0.06249999999999993755, 2.500000000000000000, 7.654042494670965249E-18 ) ) ;
#28 = DIRECTION ( 'NONE',  ( -0.000000000000000000, -1.000000000000000000, -0.000000000000000000 ) ) ;
#29 = ORIENTED_EDGE ( 'NONE', *, *, #144, .T. ) ;
#30 = COLOUR_RGB ( '',0.7921568627450980005, 0.8196078431372548767, 0.9333333333333333481 ) ;
#31 = UNCERTAINTY_MEASURE_WITH_UNIT (LENGTH_MEASURE( 1.000000000000000082E-05 ), #205, 'distance_accuracy_value', 'NONE');
#32 = EDGE_CURVE ( 'NONE', #245, #135, #158, .T. ) ;
#33 = APPLICATION_CONTEXT ( 'automotive_design' ) ;
#34 = VECTOR ( 'NONE', #13, 39.37007874015748143 ) ;
#35 = VERTEX_POINT ( 'NONE', #172 ) ;
#36 = SHAPE_DEFINITION_REPRESENTATION ( #48, #126 ) ;
#37 = DIRECTION ( 'NONE',  ( -1.000000000000000000, 0.000000000000000000, 0.000000000000000000 ) ) ;
#38 = CARTESIAN_POINT ( 'NONE',  ( 7.654042494670960626E-18, 0.000000000000000000, 0.06250000000000002776 ) ) ;
#39 = AXIS2_PLACEMENT_3D ( 'NONE', #303, #276, #82 ) ;
#40 = ORIENTED_EDGE ( 'NONE', *, *, #194, .F. ) ;
#41 = SURFACE_STYLE_USAGE ( .BOTH. , #111 ) ;
#42 = SURFACE_STYLE_USAGE ( .BOTH. , #151 ) ;
#43 = PRESENTATION_STYLE_ASSIGNMENT (( #41 ) ) ;
#44 = ADVANCED_FACE ( 'NONE', ( #297 ), #257, .T. ) ;
#45 = FILL_AREA_STYLE_COLOUR ( '', #244 ) ;
#46 = VECTOR ( 'NONE', #94, 39.37007874015748143 ) ;
#47 = FILL_AREA_STYLE_COLOUR ( '', #30 ) ;
#48 = PRODUCT_DEFINITION_SHAPE ( 'NONE', 'NONE',  #255 ) ;
#49 =( LENGTH_UNIT ( ) NAMED_UNIT ( * ) SI_UNIT ( $, .METRE. ) );
#50 = ORIENTED_EDGE ( 'NONE', *, *, #230, .F. ) ;
#51 =( NAMED_UNIT ( * ) SI_UNIT ( $, .STERADIAN. ) SOLID_ANGLE_UNIT ( ) );
#52 = SURFACE_STYLE_FILL_AREA ( #190 ) ;
#53 =( LENGTH_UNIT ( ) NAMED_UNIT ( * ) SI_UNIT ( $, .METRE. ) );
#54 = ORIENTED_EDGE ( 'NONE', *, *, #144, .F. ) ;
#55 = ADVANCED_FACE ( 'NONE', ( #59 ), #176, .T. ) ;
#56 = EDGE_LOOP ( 'NONE', ( #199, #192, #191, #269 ) ) ;
#57 = CARTESIAN_POINT ( 'NONE',  ( 7.654042494670959086E-18, 0.7500000000000001110, 0.06250000000000000000 ) ) ;
#58 = CARTESIAN_POINT ( 'NONE',  ( 0.000000000000000000, 0.000000000000000000, 0.000000000000000000 ) ) ;
#59 = FACE_OUTER_BOUND ( 'NONE', #167, .T. ) ;
#60 = LENGTH_MEASURE_WITH_UNIT ( LENGTH_MEASURE( 0.02539999999999999897 ), #53 );
#61 = CARTESIAN_POINT ( 'NONE',  ( 0.000000000000000000, 0.000000000000000000, -0.06250000000000001388 ) ) ;
#62 = CYLINDRICAL_SURFACE ( 'NONE', #307, 0.06250000000000005551 ) ;
#63 = CYLINDRICAL_SURFACE ( 'NONE', #121, 0.06250000000000001388 ) ;
#64 = DIRECTION ( 'NONE',  ( -0.000000000000000000, -1.000000000000000000, -0.000000000000000000 ) ) ;
#65 = AXIS2_PLACEMENT_3D ( 'NONE', #224, #64, #15 ) ;
#66 = EDGE_LOOP ( 'NONE', ( #50, #29, #218, #179 ) ) ;
#67 = FACE_OUTER_BOUND ( 'NONE', #162, .T. ) ;
#68 = SURFACE_STYLE_USAGE ( .BOTH. , #93 ) ;
#69 = CYLINDRICAL_SURFACE ( 'NONE', #293, 0.06250000000000001388 ) ;
#70 = SURFACE_STYLE_FILL_AREA ( #212 ) ;
#71 = MANIFOLD_SOLID_BREP ( 'Revolve - Cutting Edge', #73 ) ;
#72 = MECHANICAL_DESIGN_GEOMETRIC_PRESENTATION_REPRESENTATION (  '', ( #146 ), #215 ) ;
#73 = CLOSED_SHELL ( 'NONE', ( #148, #85, #241, #55 ) ) ;
#74 = EDGE_CURVE ( 'NONE', #245, #35, #106, .T. ) ;
#75 = AXIS2_PLACEMENT_3D ( 'NONE', #78, #118, #261 ) ;
#76 =( GEOMETRIC_REPRESENTATION_CONTEXT ( 3 ) GLOBAL_UNCERTAINTY_ASSIGNED_CONTEXT ( ( #5 ) ) GLOBAL_UNIT_ASSIGNED_CONTEXT ( ( #170, #271, #134 ) ) REPRESENTATION_CONTEXT ( 'NONE', 'WORKASPACE' ) );
#77 = STYLED_ITEM ( 'NONE', ( #43 ), #148 ) ;
#78 = CARTESIAN_POINT ( 'NONE',  ( 0.000000000000000000, 0.000000000000000000, 0.000000000000000000 ) ) ;
#79 = SURFACE_STYLE_FILL_AREA ( #294 ) ;
#80 = CIRCLE ( 'NONE', #263, 0.06250000000000000000 ) ;
#81 = AXIS2_PLACEMENT_3D ( 'NONE', #274, #9, #18 ) ;
#82 = DIRECTION ( 'NONE',  ( 0.000000000000000000, 0.000000000000000000, -1.000000000000000000 ) ) ;
#83 = PRESENTATION_STYLE_ASSIGNMENT (( #42 ) ) ;
#84 = DIRECTION ( 'NONE',  ( -6.997981709413445489E-17, 1.000000000000000000, 0.000000000000000000 ) ) ;
#85 = ADVANCED_FACE ( 'NONE', ( #22 ), #115, .T. ) ;
#86 =( NAMED_UNIT ( * ) SI_UNIT ( $, .STERADIAN. ) SOLID_ANGLE_UNIT ( ) );
#87 = VERTEX_POINT ( 'NONE', #61 ) ;
#88 = FACE_OUTER_BOUND ( 'NONE', #105, .T. ) ;
#89 = AXIS2_PLACEMENT_3D ( 'NONE', #291, #226, #107 ) ;
#90 = DIRECTION ( 'NONE',  ( -1.000000000000000000, 0.000000000000000000, 0.000000000000000000 ) ) ;
#91 = EDGE_CURVE ( 'NONE', #35, #245, #217, .T. ) ;
#92 = UNCERTAINTY_MEASURE_WITH_UNIT (LENGTH_MEASURE( 1.000000000000000082E-05 ), #114, 'distance_accuracy_value', 'NONE');
#93 = SURFACE_SIDE_STYLE ('',( #70 ) ) ;
#94 = DIRECTION ( 'NONE',  ( -6.997981709413445489E-17, 1.000000000000000000, -0.000000000000000000 ) ) ;
#95 = STYLED_ITEM ( 'NONE', ( #142 ), #85 ) ;
#96 =( GEOMETRIC_REPRESENTATION_CONTEXT ( 3 ) GLOBAL_UNCERTAINTY_ASSIGNED_CONTEXT ( ( #152 ) ) GLOBAL_UNIT_ASSIGNED_CONTEXT ( ( #1, #98, #242 ) ) REPRESENTATION_CONTEXT ( 'NONE', 'WORKASPACE' ) );
#97 = DIRECTION ( 'NONE',  ( 0.000000000000000000, 1.000000000000000000, 0.000000000000000000 ) ) ;
#98 =( NAMED_UNIT ( * ) PLANE_ANGLE_UNIT ( ) SI_UNIT ( $, .RADIAN. ) );
#99 = CIRCLE ( 'NONE', #65, 0.06250000000000000000 ) ;
#100 = ADVANCED_FACE ( 'NONE', ( #67 ), #200, .F. ) ;
#101 = FILL_AREA_STYLE_COLOUR ( '', #229 ) ;
#102 = VERTEX_POINT ( 'NONE', #133 ) ;
#103 = ORIENTED_EDGE ( 'NONE', *, *, #194, .T. ) ;
#104 = DIRECTION ( 'NONE',  ( -0.000000000000000000, -1.000000000000000000, -0.000000000000000000 ) ) ;
#105 = EDGE_LOOP ( 'NONE', ( #103, #10, #299, #216 ) ) ;
#106 = CIRCLE ( 'NONE', #232, 0.06250000000000000000 ) ;
#107 = DIRECTION ( 'NONE',  ( -1.000000000000000000, 0.000000000000000000, 0.000000000000000000 ) ) ;
#108 = DIRECTION ( 'NONE',  ( -6.997981709413445489E-17, 1.000000000000000000, -0.000000000000000000 ) ) ;
#109 = DIRECTION ( 'NONE',  ( 0.000000000000000000, 0.000000000000000000, -1.000000000000000000 ) ) ;
#110 = DIRECTION ( 'NONE',  ( -6.997981709413445489E-17, 1.000000000000000000, -0.000000000000000000 ) ) ;
#111 = SURFACE_SIDE_STYLE ('',( #247 ) ) ;
#112 = PRESENTATION_LAYER_ASSIGNMENT (  '', '', ( #95 ) ) ;
#113 = SURFACE_STYLE_USAGE ( .BOTH. , #260 ) ;
#114 =( CONVERSION_BASED_UNIT ( 'INCH', #139 ) LENGTH_UNIT ( ) NAMED_UNIT ( #251 ) );
#115 = PLANE ( 'NONE',  #168 ) ;
#116 = EDGE_CURVE ( 'NONE', #220, #87, #219, .T. ) ;
#117 = CIRCLE ( 'NONE', #132, 0.06250000000000001388 ) ;
#118 = DIRECTION ( 'NONE',  ( 0.000000000000000000, -1.000000000000000000, -0.000000000000000000 ) ) ;
#119 = EDGE_CURVE ( 'NONE', #135, #102, #222, .T. ) ;
#120 = DIRECTION ( 'NONE',  ( 0.000000000000000000, 0.000000000000000000, -1.000000000000000000 ) ) ;
#121 = AXIS2_PLACEMENT_3D ( 'NONE', #278, #150, #254 ) ;
#122 = ORIENTED_EDGE ( 'NONE', *, *, #2, .T. ) ;
#123 = UNCERTAINTY_MEASURE_WITH_UNIT (LENGTH_MEASURE( 1.000000000000000082E-05 ), #248, 'distance_accuracy_value', 'NONE');
#124 = EDGE_CURVE ( 'NONE', #189, #87, #117, .T. ) ;
#125 = COLOUR_RGB ( '',1.000000000000000000, 0.000000000000000000, 0.000000000000000000 ) ;
#126 = ADVANCED_BREP_SHAPE_REPRESENTATION ( '44047', ( #71, #270, #308 ), #233 ) ;
#127 = LENGTH_MEASURE_WITH_UNIT ( LENGTH_MEASURE( 0.02539999999999999897 ), #163 );
#128 = CARTESIAN_POINT ( 'NONE',  ( -1.224646799147353207E-16, 2.500000000000000000, 0.000000000000000000 ) ) ;
#129 = DIRECTION ( 'NONE',  ( 0.000000000000000000, 0.000000000000000000, -1.000000000000000000 ) ) ;
#130 = ORIENTED_EDGE ( 'NONE', *, *, #119, .T. ) ;
#131 = DIRECTION ( 'NONE',  ( -6.997981709413445489E-17, 1.000000000000000000, -0.000000000000000000 ) ) ;
#132 = AXIS2_PLACEMENT_3D ( 'NONE', #58, #177, #109 ) ;
#133 = CARTESIAN_POINT ( 'NONE',  ( 0.06249999999999999306, 2.500000000000000000, 7.654042494670968330E-18 ) ) ;
#134 =( NAMED_UNIT ( * ) SI_UNIT ( $, .STERADIAN. ) SOLID_ANGLE_UNIT ( ) );
#135 = VERTEX_POINT ( 'NONE', #204 ) ;
#136 = EDGE_CURVE ( 'NONE', #87, #189, #285, .T. ) ;
#137 = LENGTH_MEASURE_WITH_UNIT ( LENGTH_MEASURE( 0.02539999999999999897 ), #249 );
#138 = MECHANICAL_DESIGN_GEOMETRIC_PRESENTATION_REPRESENTATION (  '', ( #77 ), #24 ) ;
#139 = LENGTH_MEASURE_WITH_UNIT ( LENGTH_MEASURE( 0.02539999999999999897 ), #49 );
#140 = APPLICATION_CONTEXT ( 'automotive_design' ) ;
#141 = ORIENTED_EDGE ( 'NONE', *, *, #74, .T. ) ;
#142 = PRESENTATION_STYLE_ASSIGNMENT (( #113 ) ) ;
#143 = MECHANICAL_DESIGN_GEOMETRIC_PRESENTATION_REPRESENTATION (  '', ( #292 ), #198 ) ;
#144 = EDGE_CURVE ( 'NONE', #273, #220, #80, .T. ) ;
#145 = ADVANCED_FACE ( 'NONE', ( #300 ), #258, .F. ) ;
#146 = STYLED_ITEM ( 'NONE', ( #231 ), #71 ) ;
#147 = SURFACE_STYLE_USAGE ( .BOTH. , #237 ) ;
#148 = ADVANCED_FACE ( 'NONE', ( #88 ), #63, .T. ) ;
#149 = CARTESIAN_POINT ( 'NONE',  ( -1.224646799147353207E-16, 2.500000000000000000, 0.000000000000000000 ) ) ;
#150 = DIRECTION ( 'NONE',  ( -0.000000000000000000, -1.000000000000000000, -0.000000000000000000 ) ) ;
#151 = SURFACE_SIDE_STYLE ('',( #79 ) ) ;
#152 = UNCERTAINTY_MEASURE_WITH_UNIT (LENGTH_MEASURE( 1.000000000000000082E-05 ), #1, 'distance_accuracy_value', 'NONE');
#153 = DIMENSIONAL_EXPONENTS ( 1.000000000000000000, 0.000000000000000000, 0.000000000000000000, 0.000000000000000000, 0.000000000000000000, 0.000000000000000000, 0.000000000000000000 ) ;
#154 = CARTESIAN_POINT ( 'NONE',  ( 1.530367125165160174E-34, 0.7500000000000001110, 0.000000000000000000 ) ) ;
#155 =( NAMED_UNIT ( * ) SI_UNIT ( $, .STERADIAN. ) SOLID_ANGLE_UNIT ( ) );
#156 = MECHANICAL_DESIGN_GEOMETRIC_PRESENTATION_REPRESENTATION (  '', ( #25 ), #76 ) ;
#157 = CARTESIAN_POINT ( 'NONE',  ( 0.000000000000000000, 0.7500000000000001110, -0.06250000000000000000 ) ) ;
#158 = LINE ( 'NONE', #223, #34 ) ;
#159 = DIRECTION ( 'NONE',  ( -0.000000000000000000, -1.000000000000000000, -0.000000000000000000 ) ) ;
#160 = CARTESIAN_POINT ( 'NONE',  ( 7.654042494670959086E-18, 0.000000000000000000, 0.06250000000000001388 ) ) ;
#161 = CARTESIAN_POINT ( 'NONE',  ( -1.516480271171051896E-32, 0.7499999999999998890, 0.000000000000000000 ) ) ;
#162 = EDGE_LOOP ( 'NONE', ( #130, #122 ) ) ;
#163 =( LENGTH_UNIT ( ) NAMED_UNIT ( * ) SI_UNIT ( $, .METRE. ) );
#164 =( LENGTH_UNIT ( ) NAMED_UNIT ( * ) SI_UNIT ( $, .METRE. ) );
#165 = FACE_OUTER_BOUND ( 'NONE', #66, .T. ) ;
#166 = PRESENTATION_LAYER_ASSIGNMENT (  '', '', ( #146 ) ) ;
#167 = EDGE_LOOP ( 'NONE', ( #280, #239 ) ) ;
#168 = AXIS2_PLACEMENT_3D ( 'NONE', #210, #97, #284 ) ;
#169 = FILL_AREA_STYLE_COLOUR ( '', #283 ) ;
#170 =( CONVERSION_BASED_UNIT ( 'INCH', #60 ) LENGTH_UNIT ( ) NAMED_UNIT ( #26 ) );
#171 = DIRECTION ( 'NONE',  ( -1.000000000000000000, 0.000000000000000000, 0.000000000000000000 ) ) ;
#172 = CARTESIAN_POINT ( 'NONE',  ( 0.06249999999999999306, 0.7499999999999998890, 7.654042494670968330E-18 ) ) ;
#173 = PRESENTATION_LAYER_ASSIGNMENT (  '', '', ( #3 ) ) ;
#174 = MECHANICAL_DESIGN_GEOMETRIC_PRESENTATION_REPRESENTATION (  '', ( #3 ), #96 ) ;
#175 = FILL_AREA_STYLE ('',( #20 ) ) ;
#176 = PLANE ( 'NONE',  #75 ) ;
#177 = DIRECTION ( 'NONE',  ( -0.000000000000000000, -1.000000000000000000, -0.000000000000000000 ) ) ;
#178 = CARTESIAN_POINT ( 'NONE',  ( 0.000000000000000000, 0.000000000000000000, 0.000000000000000000 ) ) ;
#179 = ORIENTED_EDGE ( 'NONE', *, *, #124, .F. ) ;
#180 = MECHANICAL_DESIGN_GEOMETRIC_PRESENTATION_REPRESENTATION (  '', ( #95 ), #272 ) ;
#181 = DIRECTION ( 'NONE',  ( -1.000000000000000000, -6.997981709413445489E-17, 0.000000000000000000 ) ) ;
#182 = SURFACE_STYLE_FILL_AREA ( #281 ) ;
#183 = PRESENTATION_STYLE_ASSIGNMENT (( #262 ) ) ;
#184 =( NAMED_UNIT ( * ) SI_UNIT ( $, .STERADIAN. ) SOLID_ANGLE_UNIT ( ) );
#185 = AXIS2_PLACEMENT_3D ( 'NONE', #225, #131, #201 ) ;
#186 = CLOSED_SHELL ( 'NONE', ( #44, #145, #7, #100 ) ) ;
#187 = LINE ( 'NONE', #160, #279 ) ;
#188 = CARTESIAN_POINT ( 'NONE',  ( -0.06250000000000000000, 0.7499999999999998890, 0.000000000000000000 ) ) ;
#189 = VERTEX_POINT ( 'NONE', #38 ) ;
#190 = FILL_AREA_STYLE ('',( #101 ) ) ;
#191 = ORIENTED_EDGE ( 'NONE', *, *, #32, .T. ) ;
#192 = ORIENTED_EDGE ( 'NONE', *, *, #91, .T. ) ;
#193 = APPLICATION_PROTOCOL_DEFINITION ( 'draft international standard', 'automotive_design', 1998, #33 ) ;
#194 = EDGE_CURVE ( 'NONE', #220, #273, #99, .T. ) ;
#195 = EDGE_LOOP ( 'NONE', ( #287, #236 ) ) ;
#196 = APPLICATION_PROTOCOL_DEFINITION ( 'draft international standard', 'automotive_design', 1998, #140 ) ;
#197 = CARTESIAN_POINT ( 'NONE',  ( -1.224646799147353207E-16, 2.500000000000000000, 0.000000000000000000 ) ) ;
#198 =( GEOMETRIC_REPRESENTATION_CONTEXT ( 3 ) GLOBAL_UNCERTAINTY_ASSIGNED_CONTEXT ( ( #123 ) ) GLOBAL_UNIT_ASSIGNED_CONTEXT ( ( #248, #277, #155 ) ) REPRESENTATION_CONTEXT ( 'NONE', 'WORKASPACE' ) );
#199 = ORIENTED_EDGE ( 'NONE', *, *, #227, .F. ) ;
#200 = PLANE ( 'NONE',  #81 ) ;
#201 = DIRECTION ( 'NONE',  ( -1.000000000000000000, 0.000000000000000000, 0.000000000000000000 ) ) ;
#202 = DIRECTION ( 'NONE',  ( 0.000000000000000000, 0.000000000000000000, 1.000000000000000000 ) ) ;
#203 = CARTESIAN_POINT ( 'NONE',  ( 0.000000000000000000, 0.000000000000000000, -0.06250000000000001388 ) ) ;
#204 = CARTESIAN_POINT ( 'NONE',  ( -0.06250000000000023592, 2.500000000000000000, 0.000000000000000000 ) ) ;
#205 =( CONVERSION_BASED_UNIT ( 'INCH', #305 ) LENGTH_UNIT ( ) NAMED_UNIT ( #221 ) );
#206 = UNCERTAINTY_MEASURE_WITH_UNIT (LENGTH_MEASURE( 1.000000000000000082E-05 ), #6, 'distance_accuracy_value', 'NONE');
#207 = PRESENTATION_LAYER_ASSIGNMENT (  '', '', ( #292 ) ) ;
#208 =( NAMED_UNIT ( * ) PLANE_ANGLE_UNIT ( ) SI_UNIT ( $, .RADIAN. ) );
#209 =( NAMED_UNIT ( * ) PLANE_ANGLE_UNIT ( ) SI_UNIT ( $, .RADIAN. ) );
#210 = CARTESIAN_POINT ( 'NONE',  ( 0.000000000000000000, 0.7500000000000001110, 0.000000000000000000 ) ) ;
#211 = AXIS2_PLACEMENT_3D ( 'NONE', #154, #84, #181 ) ;
#212 = FILL_AREA_STYLE ('',( #47 ) ) ;
#213 = SURFACE_SIDE_STYLE ('',( #259 ) ) ;
#214 = COLOUR_RGB ( '',1.000000000000000000, 0.000000000000000000, 0.000000000000000000 ) ;
#215 =( GEOMETRIC_REPRESENTATION_CONTEXT ( 3 ) GLOBAL_UNCERTAINTY_ASSIGNED_CONTEXT ( ( #31 ) ) GLOBAL_UNIT_ASSIGNED_CONTEXT ( ( #205, #309, #51 ) ) REPRESENTATION_CONTEXT ( 'NONE', 'WORKASPACE' ) );
#216 = ORIENTED_EDGE ( 'NONE', *, *, #116, .F. ) ;
#217 = CIRCLE ( 'NONE', #89, 0.06250000000000000000 ) ;
#218 = ORIENTED_EDGE ( 'NONE', *, *, #116, .T. ) ;
#219 = LINE ( 'NONE', #203, #11 ) ;
#220 = VERTEX_POINT ( 'NONE', #157 ) ;
#221 = DIMENSIONAL_EXPONENTS ( 1.000000000000000000, 0.000000000000000000, 0.000000000000000000, 0.000000000000000000, 0.000000000000000000, 0.000000000000000000, 0.000000000000000000 ) ;
#222 = CIRCLE ( 'NONE', #266, 0.06250000000000012490 ) ;
#223 = CARTESIAN_POINT ( 'NONE',  ( -0.06250000000000018041, 2.500000000000000000, 0.000000000000000000 ) ) ;
#224 = CARTESIAN_POINT ( 'NONE',  ( 0.000000000000000000, 0.7500000000000001110, 0.000000000000000000 ) ) ;
#225 = CARTESIAN_POINT ( 'NONE',  ( -1.224646799147353207E-16, 2.500000000000000000, 0.000000000000000000 ) ) ;
#226 = DIRECTION ( 'NONE',  ( -6.997981709413445489E-17, 1.000000000000000000, -0.000000000000000000 ) ) ;
#227 = EDGE_CURVE ( 'NONE', #35, #102, #256, .T. ) ;
#228 =( CONVERSION_BASED_UNIT ( 'INCH', #137 ) LENGTH_UNIT ( ) NAMED_UNIT ( #240 ) );
#229 = COLOUR_RGB ( '',0.7921568627450980005, 0.8196078431372548767, 0.9333333333333333481 ) ;
#230 = EDGE_CURVE ( 'NONE', #273, #189, #187, .T. ) ;
#231 = PRESENTATION_STYLE_ASSIGNMENT (( #68 ) ) ;
#232 = AXIS2_PLACEMENT_3D ( 'NONE', #161, #301, #90 ) ;
#233 =( GEOMETRIC_REPRESENTATION_CONTEXT ( 3 ) GLOBAL_UNCERTAINTY_ASSIGNED_CONTEXT ( ( #206 ) ) GLOBAL_UNIT_ASSIGNED_CONTEXT ( ( #6, #246, #14 ) ) REPRESENTATION_CONTEXT ( 'NONE', 'WORKASPACE' ) );
#234 = FILL_AREA_STYLE_COLOUR ( '', #125 ) ;
#235 = CARTESIAN_POINT ( 'NONE',  ( 0.000000000000000000, 0.000000000000000000, 0.000000000000000000 ) ) ;
#236 = ORIENTED_EDGE ( 'NONE', *, *, #91, .F. ) ;
#237 = SURFACE_SIDE_STYLE ('',( #52 ) ) ;
#238 = AXIS2_PLACEMENT_3D ( 'NONE', #128, #110, #8 ) ;
#239 = ORIENTED_EDGE ( 'NONE', *, *, #124, .T. ) ;
#240 = DIMENSIONAL_EXPONENTS ( 1.000000000000000000, 0.000000000000000000, 0.000000000000000000, 0.000000000000000000, 0.000000000000000000, 0.000000000000000000, 0.000000000000000000 ) ;
#241 = ADVANCED_FACE ( 'NONE', ( #165 ), #69, .T. ) ;
#242 =( NAMED_UNIT ( * ) SI_UNIT ( $, .STERADIAN. ) SOLID_ANGLE_UNIT ( ) );
#243 = ORIENTED_EDGE ( 'NONE', *, *, #119, .F. ) ;
#244 = COLOUR_RGB ( '',1.000000000000000000, 0.000000000000000000, 0.000000000000000000 ) ;
#245 = VERTEX_POINT ( 'NONE', #188 ) ;
#246 =( NAMED_UNIT ( * ) PLANE_ANGLE_UNIT ( ) SI_UNIT ( $, .RADIAN. ) );
#247 = SURFACE_STYLE_FILL_AREA ( #175 ) ;
#248 =( CONVERSION_BASED_UNIT ( 'INCH', #275 ) LENGTH_UNIT ( ) NAMED_UNIT ( #153 ) );
#249 =( LENGTH_UNIT ( ) NAMED_UNIT ( * ) SI_UNIT ( $, .METRE. ) );
#250 = FACE_OUTER_BOUND ( 'NONE', #56, .T. ) ;
#251 = DIMENSIONAL_EXPONENTS ( 1.000000000000000000, 0.000000000000000000, 0.000000000000000000, 0.000000000000000000, 0.000000000000000000, 0.000000000000000000, 0.000000000000000000 ) ;
#252 = PRODUCT_DEFINITION_CONTEXT ( 'detailed design', #33, 'design' ) ;
#253 = LENGTH_MEASURE_WITH_UNIT ( LENGTH_MEASURE( 0.02539999999999999897 ), #17 );
#254 = DIRECTION ( 'NONE',  ( 0.000000000000000000, 0.000000000000000000, -1.000000000000000000 ) ) ;
#255 = PRODUCT_DEFINITION ( 'UNKNOWN', '', #302, #252 ) ;
#256 = LINE ( 'NONE', #27, #46 ) ;
#257 = CYLINDRICAL_SURFACE ( 'NONE', #238, 0.06250000000000005551 ) ;
#258 = PLANE ( 'NONE',  #211 ) ;
#259 = SURFACE_STYLE_FILL_AREA ( #304 ) ;
#260 = SURFACE_SIDE_STYLE ('',( #182 ) ) ;
#261 = DIRECTION ( 'NONE',  ( 0.000000000000000000, 0.000000000000000000, -1.000000000000000000 ) ) ;
#262 = SURFACE_STYLE_USAGE ( .BOTH. , #213 ) ;
#263 = AXIS2_PLACEMENT_3D ( 'NONE', #296, #159, #129 ) ;
#264 = EDGE_LOOP ( 'NONE', ( #40, #54 ) ) ;
#265 = PRODUCT ( '44047', '44047', '', ( #295 ) ) ;
#266 = AXIS2_PLACEMENT_3D ( 'NONE', #197, #108, #171 ) ;
#267 = ORIENTED_EDGE ( 'NONE', *, *, #227, .T. ) ;
#268 = UNCERTAINTY_MEASURE_WITH_UNIT (LENGTH_MEASURE( 1.000000000000000082E-05 ), #228, 'distance_accuracy_value', 'NONE');
#269 = ORIENTED_EDGE ( 'NONE', *, *, #2, .F. ) ;
#270 = MANIFOLD_SOLID_BREP ( 'Revolve - Tool Body (Straight Shanked)', #186 ) ;
#271 =( NAMED_UNIT ( * ) PLANE_ANGLE_UNIT ( ) SI_UNIT ( $, .RADIAN. ) );
#272 =( GEOMETRIC_REPRESENTATION_CONTEXT ( 3 ) GLOBAL_UNCERTAINTY_ASSIGNED_CONTEXT ( ( #92 ) ) GLOBAL_UNIT_ASSIGNED_CONTEXT ( ( #114, #209, #184 ) ) REPRESENTATION_CONTEXT ( 'NONE', 'WORKASPACE' ) );
#273 = VERTEX_POINT ( 'NONE', #57 ) ;
#274 = CARTESIAN_POINT ( 'NONE',  ( 0.06250000000000000000, 2.500000000000000000, 0.000000000000000000 ) ) ;
#275 = LENGTH_MEASURE_WITH_UNIT ( LENGTH_MEASURE( 0.02539999999999999897 ), #16 );
#276 = DIRECTION ( 'NONE',  ( -0.000000000000000000, -1.000000000000000000, -0.000000000000000000 ) ) ;
#277 =( NAMED_UNIT ( * ) PLANE_ANGLE_UNIT ( ) SI_UNIT ( $, .RADIAN. ) );
#278 = CARTESIAN_POINT ( 'NONE',  ( 0.000000000000000000, 0.000000000000000000, 0.000000000000000000 ) ) ;
#279 = VECTOR ( 'NONE', #23, 39.37007874015748143 ) ;
#280 = ORIENTED_EDGE ( 'NONE', *, *, #136, .T. ) ;
#281 = FILL_AREA_STYLE ('',( #45 ) ) ;
#282 = DIMENSIONAL_EXPONENTS ( 1.000000000000000000, 0.000000000000000000, 0.000000000000000000, 0.000000000000000000, 0.000000000000000000, 0.000000000000000000, 0.000000000000000000 ) ;
#283 = COLOUR_RGB ( '',1.000000000000000000, 0.000000000000000000, 0.000000000000000000 ) ;
#284 = DIRECTION ( 'NONE',  ( 0.000000000000000000, -0.000000000000000000, 1.000000000000000000 ) ) ;
#285 = CIRCLE ( 'NONE', #39, 0.06250000000000001388 ) ;
#286 = PRODUCT_RELATED_PRODUCT_CATEGORY ( 'part', '', ( #265 ) ) ;
#287 = ORIENTED_EDGE ( 'NONE', *, *, #74, .F. ) ;
#288 = PRESENTATION_STYLE_ASSIGNMENT (( #147 ) ) ;
#289 = EDGE_LOOP ( 'NONE', ( #141, #267, #243, #19 ) ) ;
#290 = DIRECTION ( 'NONE',  ( -6.997981709413445489E-17, 1.000000000000000000, -0.000000000000000000 ) ) ;
#291 = CARTESIAN_POINT ( 'NONE',  ( -1.516480271171051896E-32, 0.7499999999999998890, 0.000000000000000000 ) ) ;
#292 = STYLED_ITEM ( 'NONE', ( #83 ), #55 ) ;
#293 = AXIS2_PLACEMENT_3D ( 'NONE', #235, #28, #120 ) ;
#294 = FILL_AREA_STYLE ('',( #169 ) ) ;
#295 = PRODUCT_CONTEXT ( 'NONE', #140, 'mechanical' ) ;
#296 = CARTESIAN_POINT ( 'NONE',  ( 0.000000000000000000, 0.7500000000000001110, 0.000000000000000000 ) ) ;
#297 = FACE_OUTER_BOUND ( 'NONE', #289, .T. ) ;
#298 = DIRECTION ( 'NONE',  ( 1.000000000000000000, 0.000000000000000000, 0.000000000000000000 ) ) ;
#299 = ORIENTED_EDGE ( 'NONE', *, *, #136, .F. ) ;
#300 = FACE_OUTER_BOUND ( 'NONE', #195, .T. ) ;
#301 = DIRECTION ( 'NONE',  ( -6.997981709413445489E-17, 1.000000000000000000, -0.000000000000000000 ) ) ;
#302 = PRODUCT_DEFINITION_FORMATION_WITH_SPECIFIED_SOURCE ( 'ANY', '', #265, .NOT_KNOWN. ) ;
#303 = CARTESIAN_POINT ( 'NONE',  ( 0.000000000000000000, 0.000000000000000000, 0.000000000000000000 ) ) ;
#304 = FILL_AREA_STYLE ('',( #234 ) ) ;
#305 = LENGTH_MEASURE_WITH_UNIT ( LENGTH_MEASURE( 0.02539999999999999897 ), #164 );
#306 = DIMENSIONAL_EXPONENTS ( 1.000000000000000000, 0.000000000000000000, 0.000000000000000000, 0.000000000000000000, 0.000000000000000000, 0.000000000000000000, 0.000000000000000000 ) ;
#307 = AXIS2_PLACEMENT_3D ( 'NONE', #149, #290, #37 ) ;
#308 = AXIS2_PLACEMENT_3D ( 'NONE', #178, #202, #298 ) ;
#309 =( NAMED_UNIT ( * ) PLANE_ANGLE_UNIT ( ) SI_UNIT ( $, .RADIAN. ) );
ENDSEC;
END-ISO-10303-21;
