ISO-10303-21;
HEADER;
FILE_DESCRIPTION (( 'STEP AP214' ),
    '1' );
FILE_NAME ('00555.STEP',
    '2023-06-22T14:10:48',
    ( '' ),
    ( '' ),
    'SwSTEP 2.0',
    'SolidWorks 2023',
    '' );
FILE_SCHEMA (( 'AUTOMOTIVE_DESIGN' ));
ENDSEC;

DATA;
#1 = PRODUCT_RELATED_PRODUCT_CATEGORY ( 'part', '', ( #254 ) ) ;
#2 =( NAMED_UNIT ( * ) PLANE_ANGLE_UNIT ( ) SI_UNIT ( $, .RADIAN. ) );
#3 =( NAMED_UNIT ( * ) SI_UNIT ( $, .STERADIAN. ) SOLID_ANGLE_UNIT ( ) );
#4 = DIRECTION ( 'NONE',  ( -1.000000000000000000, 1.632862398863137774E-16, 0.000000000000000000 ) ) ;
#5 = CIRCLE ( 'NONE', #83, 0.3124999999999996669 ) ;
#6 = VERTEX_POINT ( 'NONE', #135 ) ;
#7 = DIRECTION ( 'NONE',  ( 1.632862398863137774E-16, 1.000000000000000000, -0.000000000000000000 ) ) ;
#8 = SURFACE_STYLE_FILL_AREA ( #31 ) ;
#9 = ORIENTED_EDGE ( 'NONE', *, *, #308, .F. ) ;
#10 = DIRECTION ( 'NONE',  ( 1.632862398863137774E-16, 1.000000000000000000, -0.000000000000000000 ) ) ;
#11 =( CONVERSION_BASED_UNIT ( 'INCH', #232 ) LENGTH_UNIT ( ) NAMED_UNIT ( #35 ) );
#12 = CYLINDRICAL_SURFACE ( 'NONE', #34, 0.3125000000000000000 ) ;
#13 = PRESENTATION_STYLE_ASSIGNMENT (( #194 ) ) ;
#14 = ORIENTED_EDGE ( 'NONE', *, *, #176, .T. ) ;
#15 = DIRECTION ( 'NONE',  ( 0.000000000000000000, -1.000000000000000000, -0.000000000000000000 ) ) ;
#16 = UNCERTAINTY_MEASURE_WITH_UNIT (LENGTH_MEASURE( 1.000000000000000082E-05 ), #262, 'distance_accuracy_value', 'NONE');
#17 = LINE ( 'NONE', #138, #41 ) ;
#18 = CARTESIAN_POINT ( 'NONE',  ( 0.000000000000000000, 0.000000000000000000, 0.000000000000000000 ) ) ;
#19 = SURFACE_STYLE_FILL_AREA ( #93 ) ;
#20 = DIRECTION ( 'NONE',  ( -0.000000000000000000, -1.000000000000000000, -0.000000000000000000 ) ) ;
#21 =( GEOMETRIC_REPRESENTATION_CONTEXT ( 3 ) GLOBAL_UNCERTAINTY_ASSIGNED_CONTEXT ( ( #22 ) ) GLOBAL_UNIT_ASSIGNED_CONTEXT ( ( #189, #219, #187 ) ) REPRESENTATION_CONTEXT ( 'NONE', 'WORKASPACE' ) );
#22 = UNCERTAINTY_MEASURE_WITH_UNIT (LENGTH_MEASURE( 1.000000000000000082E-05 ), #189, 'distance_accuracy_value', 'NONE');
#23 = PRESENTATION_STYLE_ASSIGNMENT (( #26 ) ) ;
#24 = PRESENTATION_STYLE_ASSIGNMENT (( #45 ) ) ;
#25 = SURFACE_SIDE_STYLE ('',( #193 ) ) ;
#26 = SURFACE_STYLE_USAGE ( .BOTH. , #239 ) ;
#27 = CARTESIAN_POINT ( 'NONE',  ( 3.827021247335478926E-17, 0.000000000000000000, 0.3125000000000000000 ) ) ;
#28 = UNCERTAINTY_MEASURE_WITH_UNIT (LENGTH_MEASURE( 1.000000000000000082E-05 ), #292, 'distance_accuracy_value', 'NONE');
#29 = CARTESIAN_POINT ( 'NONE',  ( 3.827021247335478926E-17, 0.000000000000000000, 0.3125000000000000000 ) ) ;
#30 = EDGE_CURVE ( 'NONE', #159, #61, #51, .T. ) ;
#31 = FILL_AREA_STYLE ('',( #224 ) ) ;
#32 = AXIS2_PLACEMENT_3D ( 'NONE', #220, #269, #98 ) ;
#33 = VERTEX_POINT ( 'NONE', #257 ) ;
#34 = AXIS2_PLACEMENT_3D ( 'NONE', #265, #306, #92 ) ;
#35 = DIMENSIONAL_EXPONENTS ( 1.000000000000000000, 0.000000000000000000, 0.000000000000000000, 0.000000000000000000, 0.000000000000000000, 0.000000000000000000, 0.000000000000000000 ) ;
#36 = CARTESIAN_POINT ( 'NONE',  ( 3.827021247335478926E-17, 0.7499999999999998890, 0.3125000000000000000 ) ) ;
#37 = APPLICATION_PROTOCOL_DEFINITION ( 'draft international standard', 'automotive_design', 1998, #294 ) ;
#38 = ORIENTED_EDGE ( 'NONE', *, *, #55, .T. ) ;
#39 = DIRECTION ( 'NONE',  ( 1.632862398863137774E-16, 1.000000000000000000, -0.000000000000000000 ) ) ;
#40 = FILL_AREA_STYLE_COLOUR ( '', #288 ) ;
#41 = VECTOR ( 'NONE', #140, 39.37007874015748143 ) ;
#42 = DIRECTION ( 'NONE',  ( 0.000000000000000000, 0.000000000000000000, -1.000000000000000000 ) ) ;
#43 = DIRECTION ( 'NONE',  ( 0.000000000000000000, 1.000000000000000000, 0.000000000000000000 ) ) ;
#44 = CARTESIAN_POINT ( 'NONE',  ( 0.3125000000000000000, 3.000000000000000444, 0.000000000000000000 ) ) ;
#45 = SURFACE_STYLE_USAGE ( .BOTH. , #209 ) ;
#46 = PRESENTATION_STYLE_ASSIGNMENT (( #290 ) ) ;
#47 = STYLED_ITEM ( 'NONE', ( #46 ), #221 ) ;
#48 =( NAMED_UNIT ( * ) SI_UNIT ( $, .STERADIAN. ) SOLID_ANGLE_UNIT ( ) );
#49 = LENGTH_MEASURE_WITH_UNIT ( LENGTH_MEASURE( 0.02539999999999999897 ), #168 );
#50 = STYLED_ITEM ( 'NONE', ( #24 ), #271 ) ;
#51 = LINE ( 'NONE', #29, #137 ) ;
#52 = DIRECTION ( 'NONE',  ( -1.000000000000000000, 0.000000000000000000, 0.000000000000000000 ) ) ;
#53 = SHAPE_DEFINITION_REPRESENTATION ( #236, #103 ) ;
#54 = DIRECTION ( 'NONE',  ( -0.000000000000000000, -1.000000000000000000, -0.000000000000000000 ) ) ;
#55 = EDGE_CURVE ( 'NONE', #192, #302, #227, .T. ) ;
#56 = DIMENSIONAL_EXPONENTS ( 1.000000000000000000, 0.000000000000000000, 0.000000000000000000, 0.000000000000000000, 0.000000000000000000, 0.000000000000000000, 0.000000000000000000 ) ;
#57 = ORIENTED_EDGE ( 'NONE', *, *, #217, .T. ) ;
#58 = DIMENSIONAL_EXPONENTS ( 1.000000000000000000, 0.000000000000000000, 0.000000000000000000, 0.000000000000000000, 0.000000000000000000, 0.000000000000000000, 0.000000000000000000 ) ;
#59 = ORIENTED_EDGE ( 'NONE', *, *, #266, .F. ) ;
#60 = CARTESIAN_POINT ( 'NONE',  ( 0.000000000000000000, 0.000000000000000000, 0.000000000000000000 ) ) ;
#61 = VERTEX_POINT ( 'NONE', #27 ) ;
#62 =( NAMED_UNIT ( * ) SI_UNIT ( $, .STERADIAN. ) SOLID_ANGLE_UNIT ( ) );
#63 = CARTESIAN_POINT ( 'NONE',  ( 3.673940397442060361E-16, 3.000000000000000444, 0.000000000000000000 ) ) ;
#64 = PRESENTATION_LAYER_ASSIGNMENT (  '', '', ( #124 ) ) ;
#65 =( NAMED_UNIT ( * ) PLANE_ANGLE_UNIT ( ) SI_UNIT ( $, .RADIAN. ) );
#66 = STYLED_ITEM ( 'NONE', ( #13 ), #228 ) ;
#67 = EDGE_LOOP ( 'NONE', ( #229, #162 ) ) ;
#68 =( LENGTH_UNIT ( ) NAMED_UNIT ( * ) SI_UNIT ( $, .METRE. ) );
#69 =( LENGTH_UNIT ( ) NAMED_UNIT ( * ) SI_UNIT ( $, .METRE. ) );
#70 = CARTESIAN_POINT ( 'NONE',  ( 0.000000000000000000, 0.7499999999999998890, 0.000000000000000000 ) ) ;
#71 = APPLICATION_CONTEXT ( 'automotive_design' ) ;
#72 = CLOSED_SHELL ( 'NONE', ( #199, #155, #172, #143 ) ) ;
#73 = CARTESIAN_POINT ( 'NONE',  ( 0.000000000000000000, 0.000000000000000000, -0.3125000000000000000 ) ) ;
#74 = PRODUCT_DEFINITION_FORMATION_WITH_SPECIFIED_SOURCE ( 'ANY', '', #254, .NOT_KNOWN. ) ;
#75 = CLOSED_SHELL ( 'NONE', ( #81, #271, #228, #202 ) ) ;
#76 = CIRCLE ( 'NONE', #309, 0.3124999999999996669 ) ;
#77 = DIRECTION ( 'NONE',  ( -1.000000000000000000, 0.000000000000000000, 0.000000000000000000 ) ) ;
#78 = AXIS2_PLACEMENT_3D ( 'NONE', #275, #7, #52 ) ;
#79 = DIMENSIONAL_EXPONENTS ( 1.000000000000000000, 0.000000000000000000, 0.000000000000000000, 0.000000000000000000, 0.000000000000000000, 0.000000000000000000, 0.000000000000000000 ) ;
#80 = ORIENTED_EDGE ( 'NONE', *, *, #101, .F. ) ;
#81 = ADVANCED_FACE ( 'NONE', ( #204 ), #134, .T. ) ;
#82 =( NAMED_UNIT ( * ) PLANE_ANGLE_UNIT ( ) SI_UNIT ( $, .RADIAN. ) );
#83 = AXIS2_PLACEMENT_3D ( 'NONE', #241, #211, #304 ) ;
#84 = EDGE_LOOP ( 'NONE', ( #165, #57, #38, #184 ) ) ;
#85 = DIRECTION ( 'NONE',  ( 1.632862398863137774E-16, 1.000000000000000000, -0.000000000000000000 ) ) ;
#86 = DIRECTION ( 'NONE',  ( 0.000000000000000000, 0.000000000000000000, -1.000000000000000000 ) ) ;
#87 = EDGE_LOOP ( 'NONE', ( #188, #278 ) ) ;
#88 = DIRECTION ( 'NONE',  ( 0.000000000000000000, 0.000000000000000000, -1.000000000000000000 ) ) ;
#89 = EDGE_LOOP ( 'NONE', ( #282, #14, #260, #59 ) ) ;
#90 = STYLED_ITEM ( 'NONE', ( #279 ), #202 ) ;
#91 = PLANE ( 'NONE',  #153 ) ;
#92 = DIRECTION ( 'NONE',  ( 0.000000000000000000, 0.000000000000000000, -1.000000000000000000 ) ) ;
#93 = FILL_AREA_STYLE ('',( #243 ) ) ;
#94 = DIRECTION ( 'NONE',  ( 1.000000000000000000, -1.632862398863137774E-16, 0.000000000000000000 ) ) ;
#95 = SURFACE_STYLE_FILL_AREA ( #163 ) ;
#96 = PRODUCT_DEFINITION ( 'UNKNOWN', '', #74, #246 ) ;
#97 = MECHANICAL_DESIGN_GEOMETRIC_PRESENTATION_REPRESENTATION (  '', ( #200 ), #174 ) ;
#98 = DIRECTION ( 'NONE',  ( 0.000000000000000000, 0.000000000000000000, -1.000000000000000000 ) ) ;
#99 = UNCERTAINTY_MEASURE_WITH_UNIT (LENGTH_MEASURE( 1.000000000000000082E-05 ), #285, 'distance_accuracy_value', 'NONE');
#100 =( GEOMETRIC_REPRESENTATION_CONTEXT ( 3 ) GLOBAL_UNCERTAINTY_ASSIGNED_CONTEXT ( ( #28 ) ) GLOBAL_UNIT_ASSIGNED_CONTEXT ( ( #292, #258, #307 ) ) REPRESENTATION_CONTEXT ( 'NONE', 'WORKASPACE' ) );
#101 = EDGE_CURVE ( 'NONE', #108, #159, #178, .T. ) ;
#102 = UNCERTAINTY_MEASURE_WITH_UNIT (LENGTH_MEASURE( 1.000000000000000082E-05 ), #122, 'distance_accuracy_value', 'NONE');
#103 = ADVANCED_BREP_SHAPE_REPRESENTATION ( '00555', ( #107, #221, #207 ), #170 ) ;
#104 =( GEOMETRIC_REPRESENTATION_CONTEXT ( 3 ) GLOBAL_UNCERTAINTY_ASSIGNED_CONTEXT ( ( #16 ) ) GLOBAL_UNIT_ASSIGNED_CONTEXT ( ( #262, #267, #48 ) ) REPRESENTATION_CONTEXT ( 'NONE', 'WORKASPACE' ) );
#105 = CARTESIAN_POINT ( 'NONE',  ( -0.3124999999999995559, 3.000000000000000444, 0.000000000000000000 ) ) ;
#106 = ORIENTED_EDGE ( 'NONE', *, *, #30, .T. ) ;
#107 = MANIFOLD_SOLID_BREP ( 'Revolve - Cutting Edge', #75 ) ;
#108 = VERTEX_POINT ( 'NONE', #145 ) ;
#109 = VECTOR ( 'NONE', #85, 39.37007874015748143 ) ;
#110 =( GEOMETRIC_REPRESENTATION_CONTEXT ( 3 ) GLOBAL_UNCERTAINTY_ASSIGNED_CONTEXT ( ( #99 ) ) GLOBAL_UNIT_ASSIGNED_CONTEXT ( ( #285, #65, #62 ) ) REPRESENTATION_CONTEXT ( 'NONE', 'WORKASPACE' ) );
#111 = ORIENTED_EDGE ( 'NONE', *, *, #112, .F. ) ;
#112 = EDGE_CURVE ( 'NONE', #108, #33, #196, .T. ) ;
#113 = CYLINDRICAL_SURFACE ( 'NONE', #222, 0.3124999999999998890 ) ;
#114 = DIRECTION ( 'NONE',  ( -0.000000000000000000, -1.000000000000000000, -0.000000000000000000 ) ) ;
#115 = VERTEX_POINT ( 'NONE', #146 ) ;
#116 = FILL_AREA_STYLE ('',( #40 ) ) ;
#117 = DIRECTION ( 'NONE',  ( -0.000000000000000000, -1.000000000000000000, -0.000000000000000000 ) ) ;
#118 = COLOUR_RGB ( '',1.000000000000000000, 0.000000000000000000, 0.000000000000000000 ) ;
#119 = FILL_AREA_STYLE_COLOUR ( '', #214 ) ;
#120 = LENGTH_MEASURE_WITH_UNIT ( LENGTH_MEASURE( 0.02539999999999999897 ), #69 );
#121 = EDGE_CURVE ( 'NONE', #6, #115, #17, .T. ) ;
#122 =( CONVERSION_BASED_UNIT ( 'INCH', #49 ) LENGTH_UNIT ( ) NAMED_UNIT ( #56 ) );
#123 = AXIS2_PLACEMENT_3D ( 'NONE', #240, #263, #195 ) ;
#124 = STYLED_ITEM ( 'NONE', ( #23 ), #107 ) ;
#125 = EDGE_CURVE ( 'NONE', #302, #115, #5, .T. ) ;
#126 = SURFACE_SIDE_STYLE ('',( #8 ) ) ;
#127 = MECHANICAL_DESIGN_GEOMETRIC_PRESENTATION_REPRESENTATION (  '', ( #66 ), #215 ) ;
#128 = CARTESIAN_POINT ( 'NONE',  ( 4.165999396282938712E-33, 0.7499999999999998890, 0.000000000000000000 ) ) ;
#129 = DIRECTION ( 'NONE',  ( 0.000000000000000000, 0.000000000000000000, 1.000000000000000000 ) ) ;
#130 = FACE_OUTER_BOUND ( 'NONE', #84, .T. ) ;
#131 = FILL_AREA_STYLE ('',( #273 ) ) ;
#132 = APPLICATION_PROTOCOL_DEFINITION ( 'draft international standard', 'automotive_design', 1998, #71 ) ;
#133 = ORIENTED_EDGE ( 'NONE', *, *, #101, .T. ) ;
#134 = CYLINDRICAL_SURFACE ( 'NONE', #32, 0.3125000000000000000 ) ;
#135 = CARTESIAN_POINT ( 'NONE',  ( 0.3125000000000000000, 0.7499999999999998890, 3.827021247335477694E-17 ) ) ;
#136 = PLANE ( 'NONE',  #280 ) ;
#137 = VECTOR ( 'NONE', #281, 39.37007874015748143 ) ;
#138 = CARTESIAN_POINT ( 'NONE',  ( 0.3125000000000002220, 3.000000000000000444, 3.827021247335477078E-17 ) ) ;
#139 =( LENGTH_UNIT ( ) NAMED_UNIT ( * ) SI_UNIT ( $, .METRE. ) );
#140 = DIRECTION ( 'NONE',  ( 1.632862398863137774E-16, 1.000000000000000000, -0.000000000000000000 ) ) ;
#141 = DIRECTION ( 'NONE',  ( 0.000000000000000000, -0.000000000000000000, 1.000000000000000000 ) ) ;
#142 = LENGTH_MEASURE_WITH_UNIT ( LENGTH_MEASURE( 0.02539999999999999897 ), #166 );
#143 = ADVANCED_FACE ( 'NONE', ( #264 ), #91, .F. ) ;
#144 = DIRECTION ( 'NONE',  ( -1.632862398863137774E-16, -1.000000000000000000, 0.000000000000000000 ) ) ;
#145 = CARTESIAN_POINT ( 'NONE',  ( 0.000000000000000000, 0.7499999999999998890, -0.3125000000000000000 ) ) ;
#146 = CARTESIAN_POINT ( 'NONE',  ( 0.3125000000000000000, 3.000000000000000444, 3.827021247335477694E-17 ) ) ;
#147 = EDGE_CURVE ( 'NONE', #192, #6, #151, .T. ) ;
#148 = FACE_OUTER_BOUND ( 'NONE', #67, .T. ) ;
#149 = MECHANICAL_DESIGN_GEOMETRIC_PRESENTATION_REPRESENTATION (  '', ( #50 ), #104 ) ;
#150 = UNCERTAINTY_MEASURE_WITH_UNIT (LENGTH_MEASURE( 1.000000000000000082E-05 ), #11, 'distance_accuracy_value', 'NONE');
#151 = CIRCLE ( 'NONE', #225, 0.3125000000000000000 ) ;
#152 = FACE_OUTER_BOUND ( 'NONE', #231, .T. ) ;
#153 = AXIS2_PLACEMENT_3D ( 'NONE', #44, #144, #94 ) ;
#154 = CARTESIAN_POINT ( 'NONE',  ( -0.3125000000000000000, 0.7499999999999998890, 0.000000000000000000 ) ) ;
#155 = ADVANCED_FACE ( 'NONE', ( #148 ), #295, .F. ) ;
#156 = EDGE_LOOP ( 'NONE', ( #133, #106, #9, #111 ) ) ;
#157 = FACE_OUTER_BOUND ( 'NONE', #252, .T. ) ;
#158 = DIMENSIONAL_EXPONENTS ( 1.000000000000000000, 0.000000000000000000, 0.000000000000000000, 0.000000000000000000, 0.000000000000000000, 0.000000000000000000, 0.000000000000000000 ) ;
#159 = VERTEX_POINT ( 'NONE', #36 ) ;
#160 = FILL_AREA_STYLE_COLOUR ( '', #118 ) ;
#161 = PRESENTATION_LAYER_ASSIGNMENT (  '', '', ( #90 ) ) ;
#162 = ORIENTED_EDGE ( 'NONE', *, *, #217, .F. ) ;
#163 = FILL_AREA_STYLE ('',( #119 ) ) ;
#164 = DIRECTION ( 'NONE',  ( -1.000000000000000000, 0.000000000000000000, 0.000000000000000000 ) ) ;
#165 = ORIENTED_EDGE ( 'NONE', *, *, #121, .F. ) ;
#166 =( LENGTH_UNIT ( ) NAMED_UNIT ( * ) SI_UNIT ( $, .METRE. ) );
#167 = LENGTH_MEASURE_WITH_UNIT ( LENGTH_MEASURE( 0.02539999999999999897 ), #198 );
#168 =( LENGTH_UNIT ( ) NAMED_UNIT ( * ) SI_UNIT ( $, .METRE. ) );
#169 =( NAMED_UNIT ( * ) PLANE_ANGLE_UNIT ( ) SI_UNIT ( $, .RADIAN. ) );
#170 =( GEOMETRIC_REPRESENTATION_CONTEXT ( 3 ) GLOBAL_UNCERTAINTY_ASSIGNED_CONTEXT ( ( #173 ) ) GLOBAL_UNIT_ASSIGNED_CONTEXT ( ( #299, #82, #3 ) ) REPRESENTATION_CONTEXT ( 'NONE', 'WORKASPACE' ) );
#171 =( NAMED_UNIT ( * ) SI_UNIT ( $, .STERADIAN. ) SOLID_ANGLE_UNIT ( ) );
#172 = ADVANCED_FACE ( 'NONE', ( #130 ), #113, .T. ) ;
#173 = UNCERTAINTY_MEASURE_WITH_UNIT (LENGTH_MEASURE( 1.000000000000000082E-05 ), #299, 'distance_accuracy_value', 'NONE');
#174 =( GEOMETRIC_REPRESENTATION_CONTEXT ( 3 ) GLOBAL_UNCERTAINTY_ASSIGNED_CONTEXT ( ( #150 ) ) GLOBAL_UNIT_ASSIGNED_CONTEXT ( ( #11, #169, #171 ) ) REPRESENTATION_CONTEXT ( 'NONE', 'WORKASPACE' ) );
#175 = COLOUR_RGB ( '',1.000000000000000000, 0.000000000000000000, 0.000000000000000000 ) ;
#176 = EDGE_CURVE ( 'NONE', #159, #108, #253, .T. ) ;
#177 = CYLINDRICAL_SURFACE ( 'NONE', #78, 0.3124999999999998890 ) ;
#178 = CIRCLE ( 'NONE', #287, 0.3125000000000000000 ) ;
#179 = PRESENTATION_LAYER_ASSIGNMENT (  '', '', ( #50 ) ) ;
#180 = DIMENSIONAL_EXPONENTS ( 1.000000000000000000, 0.000000000000000000, 0.000000000000000000, 0.000000000000000000, 0.000000000000000000, 0.000000000000000000, 0.000000000000000000 ) ;
#181 = SURFACE_STYLE_USAGE ( .BOTH. , #126 ) ;
#182 = CIRCLE ( 'NONE', #123, 0.3125000000000000000 ) ;
#183 = DIRECTION ( 'NONE',  ( 1.000000000000000000, 0.000000000000000000, 0.000000000000000000 ) ) ;
#184 = ORIENTED_EDGE ( 'NONE', *, *, #245, .F. ) ;
#185 =( LENGTH_UNIT ( ) NAMED_UNIT ( * ) SI_UNIT ( $, .METRE. ) );
#186 = EDGE_LOOP ( 'NONE', ( #210, #284, #205, #289 ) ) ;
#187 =( NAMED_UNIT ( * ) SI_UNIT ( $, .STERADIAN. ) SOLID_ANGLE_UNIT ( ) );
#188 = ORIENTED_EDGE ( 'NONE', *, *, #125, .T. ) ;
#189 =( CONVERSION_BASED_UNIT ( 'INCH', #261 ) LENGTH_UNIT ( ) NAMED_UNIT ( #79 ) );
#190 = CARTESIAN_POINT ( 'NONE',  ( 0.000000000000000000, 0.7499999999999998890, 0.000000000000000000 ) ) ;
#191 = AXIS2_PLACEMENT_3D ( 'NONE', #18, #117, #213 ) ;
#192 = VERTEX_POINT ( 'NONE', #154 ) ;
#193 = SURFACE_STYLE_FILL_AREA ( #116 ) ;
#194 = SURFACE_STYLE_USAGE ( .BOTH. , #216 ) ;
#195 = DIRECTION ( 'NONE',  ( -1.000000000000000000, 0.000000000000000000, 0.000000000000000000 ) ) ;
#196 = LINE ( 'NONE', #73, #206 ) ;
#197 = CIRCLE ( 'NONE', #301, 0.3125000000000000000 ) ;
#198 =( LENGTH_UNIT ( ) NAMED_UNIT ( * ) SI_UNIT ( $, .METRE. ) );
#199 = ADVANCED_FACE ( 'NONE', ( #230 ), #177, .T. ) ;
#200 = STYLED_ITEM ( 'NONE', ( #201 ), #81 ) ;
#201 = PRESENTATION_STYLE_ASSIGNMENT (( #300 ) ) ;
#202 = ADVANCED_FACE ( 'NONE', ( #152 ), #249, .T. ) ;
#203 = AXIS2_PLACEMENT_3D ( 'NONE', #283, #15, #42 ) ;
#204 = FACE_OUTER_BOUND ( 'NONE', #156, .T. ) ;
#205 = ORIENTED_EDGE ( 'NONE', *, *, #125, .F. ) ;
#206 = VECTOR ( 'NONE', #244, 39.37007874015748143 ) ;
#207 = AXIS2_PLACEMENT_3D ( 'NONE', #255, #129, #183 ) ;
#208 = CARTESIAN_POINT ( 'NONE',  ( 3.673940397442060361E-16, 3.000000000000000444, 0.000000000000000000 ) ) ;
#209 = SURFACE_SIDE_STYLE ('',( #235 ) ) ;
#210 = ORIENTED_EDGE ( 'NONE', *, *, #147, .T. ) ;
#211 = DIRECTION ( 'NONE',  ( 1.632862398863137774E-16, 1.000000000000000000, -0.000000000000000000 ) ) ;
#212 = MECHANICAL_DESIGN_GEOMETRIC_PRESENTATION_REPRESENTATION (  '', ( #124 ), #100 ) ;
#213 = DIRECTION ( 'NONE',  ( 0.000000000000000000, 0.000000000000000000, -1.000000000000000000 ) ) ;
#214 = COLOUR_RGB ( '',0.7921568627450980005, 0.8196078431372548767, 0.9333333333333333481 ) ;
#215 =( GEOMETRIC_REPRESENTATION_CONTEXT ( 3 ) GLOBAL_UNCERTAINTY_ASSIGNED_CONTEXT ( ( #102 ) ) GLOBAL_UNIT_ASSIGNED_CONTEXT ( ( #122, #2, #218 ) ) REPRESENTATION_CONTEXT ( 'NONE', 'WORKASPACE' ) );
#216 = SURFACE_SIDE_STYLE ('',( #19 ) ) ;
#217 = EDGE_CURVE ( 'NONE', #6, #192, #182, .T. ) ;
#218 =( NAMED_UNIT ( * ) SI_UNIT ( $, .STERADIAN. ) SOLID_ANGLE_UNIT ( ) );
#219 =( NAMED_UNIT ( * ) PLANE_ANGLE_UNIT ( ) SI_UNIT ( $, .RADIAN. ) );
#220 = CARTESIAN_POINT ( 'NONE',  ( 0.000000000000000000, 0.000000000000000000, 0.000000000000000000 ) ) ;
#221 = MANIFOLD_SOLID_BREP ( 'Revolve - Tool Body (Straight Shanked)', #72 ) ;
#222 = AXIS2_PLACEMENT_3D ( 'NONE', #208, #226, #77 ) ;
#223 = CIRCLE ( 'NONE', #191, 0.3125000000000000000 ) ;
#224 = FILL_AREA_STYLE_COLOUR ( '', #175 ) ;
#225 = AXIS2_PLACEMENT_3D ( 'NONE', #70, #293, #272 ) ;
#226 = DIRECTION ( 'NONE',  ( 1.632862398863137774E-16, 1.000000000000000000, -0.000000000000000000 ) ) ;
#227 = LINE ( 'NONE', #105, #109 ) ;
#228 = ADVANCED_FACE ( 'NONE', ( #238 ), #12, .T. ) ;
#229 = ORIENTED_EDGE ( 'NONE', *, *, #147, .F. ) ;
#230 = FACE_OUTER_BOUND ( 'NONE', #186, .T. ) ;
#231 = EDGE_LOOP ( 'NONE', ( #303, #237 ) ) ;
#232 = LENGTH_MEASURE_WITH_UNIT ( LENGTH_MEASURE( 0.02539999999999999897 ), #185 );
#233 = COLOUR_RGB ( '',1.000000000000000000, 0.000000000000000000, 0.000000000000000000 ) ;
#234 = MECHANICAL_DESIGN_GEOMETRIC_PRESENTATION_REPRESENTATION (  '', ( #47 ), #110 ) ;
#235 = SURFACE_STYLE_FILL_AREA ( #305 ) ;
#236 = PRODUCT_DEFINITION_SHAPE ( 'NONE', 'NONE',  #96 ) ;
#237 = ORIENTED_EDGE ( 'NONE', *, *, #266, .T. ) ;
#238 = FACE_OUTER_BOUND ( 'NONE', #89, .T. ) ;
#239 = SURFACE_SIDE_STYLE ('',( #95 ) ) ;
#240 = CARTESIAN_POINT ( 'NONE',  ( 0.000000000000000000, 0.7499999999999998890, 0.000000000000000000 ) ) ;
#241 = CARTESIAN_POINT ( 'NONE',  ( 3.673940397442060361E-16, 3.000000000000000444, 0.000000000000000000 ) ) ;
#242 = CARTESIAN_POINT ( 'NONE',  ( -0.3124999999999993339, 3.000000000000000444, 0.000000000000000000 ) ) ;
#243 = FILL_AREA_STYLE_COLOUR ( '', #270 ) ;
#244 = DIRECTION ( 'NONE',  ( -0.000000000000000000, -1.000000000000000000, -0.000000000000000000 ) ) ;
#245 = EDGE_CURVE ( 'NONE', #115, #302, #76, .T. ) ;
#246 = PRODUCT_DEFINITION_CONTEXT ( 'detailed design', #71, 'design' ) ;
#247 = SURFACE_STYLE_FILL_AREA ( #131 ) ;
#248 = AXIS2_PLACEMENT_3D ( 'NONE', #128, #10, #4 ) ;
#249 = PLANE ( 'NONE',  #203 ) ;
#250 = DIRECTION ( 'NONE',  ( 0.000000000000000000, 0.000000000000000000, -1.000000000000000000 ) ) ;
#251 = DIMENSIONAL_EXPONENTS ( 1.000000000000000000, 0.000000000000000000, 0.000000000000000000, 0.000000000000000000, 0.000000000000000000, 0.000000000000000000, 0.000000000000000000 ) ;
#252 = EDGE_LOOP ( 'NONE', ( #80, #256 ) ) ;
#253 = CIRCLE ( 'NONE', #268, 0.3125000000000000000 ) ;
#254 = PRODUCT ( '00555', '00555', '', ( #276 ) ) ;
#255 = CARTESIAN_POINT ( 'NONE',  ( 0.000000000000000000, 0.000000000000000000, 0.000000000000000000 ) ) ;
#256 = ORIENTED_EDGE ( 'NONE', *, *, #176, .F. ) ;
#257 = CARTESIAN_POINT ( 'NONE',  ( 0.000000000000000000, 0.000000000000000000, -0.3125000000000000000 ) ) ;
#258 =( NAMED_UNIT ( * ) PLANE_ANGLE_UNIT ( ) SI_UNIT ( $, .RADIAN. ) );
#259 = MECHANICAL_DESIGN_GEOMETRIC_PRESENTATION_REPRESENTATION (  '', ( #90 ), #21 ) ;
#260 = ORIENTED_EDGE ( 'NONE', *, *, #112, .T. ) ;
#261 = LENGTH_MEASURE_WITH_UNIT ( LENGTH_MEASURE( 0.02539999999999999897 ), #68 );
#262 =( CONVERSION_BASED_UNIT ( 'INCH', #291 ) LENGTH_UNIT ( ) NAMED_UNIT ( #251 ) );
#263 = DIRECTION ( 'NONE',  ( 1.632862398863137774E-16, 1.000000000000000000, -0.000000000000000000 ) ) ;
#264 = FACE_OUTER_BOUND ( 'NONE', #87, .T. ) ;
#265 = CARTESIAN_POINT ( 'NONE',  ( 0.000000000000000000, 0.000000000000000000, 0.000000000000000000 ) ) ;
#266 = EDGE_CURVE ( 'NONE', #61, #33, #197, .T. ) ;
#267 =( NAMED_UNIT ( * ) PLANE_ANGLE_UNIT ( ) SI_UNIT ( $, .RADIAN. ) );
#268 = AXIS2_PLACEMENT_3D ( 'NONE', #277, #54, #250 ) ;
#269 = DIRECTION ( 'NONE',  ( -0.000000000000000000, -1.000000000000000000, -0.000000000000000000 ) ) ;
#270 = COLOUR_RGB ( '',1.000000000000000000, 0.000000000000000000, 0.000000000000000000 ) ;
#271 = ADVANCED_FACE ( 'NONE', ( #157 ), #136, .T. ) ;
#272 = DIRECTION ( 'NONE',  ( -1.000000000000000000, 0.000000000000000000, 0.000000000000000000 ) ) ;
#273 = FILL_AREA_STYLE_COLOUR ( '', #233 ) ;
#274 = PRESENTATION_LAYER_ASSIGNMENT (  '', '', ( #66 ) ) ;
#275 = CARTESIAN_POINT ( 'NONE',  ( 3.673940397442060361E-16, 3.000000000000000444, 0.000000000000000000 ) ) ;
#276 = PRODUCT_CONTEXT ( 'NONE', #294, 'mechanical' ) ;
#277 = CARTESIAN_POINT ( 'NONE',  ( 0.000000000000000000, 0.7499999999999998890, 0.000000000000000000 ) ) ;
#278 = ORIENTED_EDGE ( 'NONE', *, *, #245, .T. ) ;
#279 = PRESENTATION_STYLE_ASSIGNMENT (( #181 ) ) ;
#280 = AXIS2_PLACEMENT_3D ( 'NONE', #190, #43, #141 ) ;
#281 = DIRECTION ( 'NONE',  ( -0.000000000000000000, -1.000000000000000000, -0.000000000000000000 ) ) ;
#282 = ORIENTED_EDGE ( 'NONE', *, *, #30, .F. ) ;
#283 = CARTESIAN_POINT ( 'NONE',  ( 0.000000000000000000, 0.000000000000000000, 0.000000000000000000 ) ) ;
#284 = ORIENTED_EDGE ( 'NONE', *, *, #121, .T. ) ;
#285 =( CONVERSION_BASED_UNIT ( 'INCH', #142 ) LENGTH_UNIT ( ) NAMED_UNIT ( #180 ) );
#286 = CARTESIAN_POINT ( 'NONE',  ( 0.000000000000000000, 0.7499999999999998890, 0.000000000000000000 ) ) ;
#287 = AXIS2_PLACEMENT_3D ( 'NONE', #286, #20, #88 ) ;
#288 = COLOUR_RGB ( '',0.7921568627450980005, 0.8196078431372548767, 0.9333333333333333481 ) ;
#289 = ORIENTED_EDGE ( 'NONE', *, *, #55, .F. ) ;
#290 = SURFACE_STYLE_USAGE ( .BOTH. , #25 ) ;
#291 = LENGTH_MEASURE_WITH_UNIT ( LENGTH_MEASURE( 0.02539999999999999897 ), #139 );
#292 =( CONVERSION_BASED_UNIT ( 'INCH', #167 ) LENGTH_UNIT ( ) NAMED_UNIT ( #158 ) );
#293 = DIRECTION ( 'NONE',  ( 1.632862398863137774E-16, 1.000000000000000000, -0.000000000000000000 ) ) ;
#294 = APPLICATION_CONTEXT ( 'automotive_design' ) ;
#295 = PLANE ( 'NONE',  #248 ) ;
#296 = PRESENTATION_LAYER_ASSIGNMENT (  '', '', ( #200 ) ) ;
#297 = PRESENTATION_LAYER_ASSIGNMENT (  '', '', ( #47 ) ) ;
#298 = SURFACE_SIDE_STYLE ('',( #247 ) ) ;
#299 =( CONVERSION_BASED_UNIT ( 'INCH', #120 ) LENGTH_UNIT ( ) NAMED_UNIT ( #58 ) );
#300 = SURFACE_STYLE_USAGE ( .BOTH. , #298 ) ;
#301 = AXIS2_PLACEMENT_3D ( 'NONE', #60, #114, #86 ) ;
#302 = VERTEX_POINT ( 'NONE', #242 ) ;
#303 = ORIENTED_EDGE ( 'NONE', *, *, #308, .T. ) ;
#304 = DIRECTION ( 'NONE',  ( -1.000000000000000000, 0.000000000000000000, 0.000000000000000000 ) ) ;
#305 = FILL_AREA_STYLE ('',( #160 ) ) ;
#306 = DIRECTION ( 'NONE',  ( -0.000000000000000000, -1.000000000000000000, -0.000000000000000000 ) ) ;
#307 =( NAMED_UNIT ( * ) SI_UNIT ( $, .STERADIAN. ) SOLID_ANGLE_UNIT ( ) );
#308 = EDGE_CURVE ( 'NONE', #33, #61, #223, .T. ) ;
#309 = AXIS2_PLACEMENT_3D ( 'NONE', #63, #39, #164 ) ;
ENDSEC;
END-ISO-10303-21;
