ISO-10303-21;
HEADER;
FILE_DESCRIPTION (( 'STEP AP214' ),
    '1' );
FILE_NAME ('Micro_SHL-500-4X.STEP',
    '2021-09-02T08:03:04',
    ( '' ),
    ( '' ),
    'SwSTEP 2.0',
    'SolidWorks 2020',
    '' );
FILE_SCHEMA (( 'AUTOMOTIVE_DESIGN' ));
ENDSEC;

DATA;
#1 = CIRCLE ( 'NONE', #282, 0.2350000000000000977 ) ;
#2 = VECTOR ( 'NONE', #159, 39.37007874015748143 ) ;
#3 = CARTESIAN_POINT ( 'NONE',  ( 0.0000000000000000000, 0.0000000000000000000, 4.500000000000000000 ) ) ;
#4 = CARTESIAN_POINT ( 'NONE',  ( 0.0000000000000000000, 0.0000000000000000000, 0.0000000000000000000 ) ) ;
#5 = CARTESIAN_POINT ( 'NONE',  ( 3.745650057197990990E-33, 0.0000000000000000000, 3.058555380870515566E-17 ) ) ;
#6 = VERTEX_POINT ( 'NONE', #233 ) ;
#7 = SHAPE_DEFINITION_REPRESENTATION ( #38, #196 ) ;
#8 = SURFACE_STYLE_FILL_AREA ( #210 ) ;
#9 = SURFACE_SIDE_STYLE ('',( #8 ) ) ;
#10 =( GEOMETRIC_REPRESENTATION_CONTEXT ( 3 ) GLOBAL_UNCERTAINTY_ASSIGNED_CONTEXT ( ( #291 ) ) GLOBAL_UNIT_ASSIGNED_CONTEXT ( ( #102, #27, #30 ) ) REPRESENTATION_CONTEXT ( 'NONE', 'WORKASPACE' ) );
#11 = CARTESIAN_POINT ( 'NONE',  ( 0.2497500000000002496, 0.0000000000000000000, 2.000000000000000000 ) ) ;
#12 = EDGE_CURVE ( 'NONE', #103, #251, #29, .T. ) ;
#13 = CARTESIAN_POINT ( 'NONE',  ( 2.451029927576571400E-16, 0.0000000000000000000, 2.001417820454904462 ) ) ;
#14 = PRESENTATION_LAYER_ASSIGNMENT (  '', '', ( #270 ) ) ;
#15 = CIRCLE ( 'NONE', #198, 0.2497499999999999998 ) ;
#16 = DIRECTION ( 'NONE',  ( -0.7071067811865523467, 0.0000000000000000000, -0.7071067811865426878 ) ) ;
#17 = ORIENTED_EDGE ( 'NONE', *, *, #225, .T. ) ;
#18 = LINE ( 'NONE', #294, #112 ) ;
#19 = EDGE_CURVE ( 'NONE', #224, #114, #83, .T. ) ;
#20 = SURFACE_STYLE_FILL_AREA ( #24 ) ;
#21 = CIRCLE ( 'NONE', #163, 0.2497499999999999998 ) ;
#22 = EDGE_CURVE ( 'NONE', #240, #160, #120, .T. ) ;
#23 = DIRECTION ( 'NONE',  ( -1.224646799147353454E-16, -0.0000000000000000000, -1.000000000000000000 ) ) ;
#24 = FILL_AREA_STYLE ('',( #254 ) ) ;
#25 = MANIFOLD_SOLID_BREP ( 'Cut-Revolve1', #84 ) ;
#26 = ORIENTED_EDGE ( 'NONE', *, *, #87, .F. ) ;
#27 =( NAMED_UNIT ( * ) PLANE_ANGLE_UNIT ( ) SI_UNIT ( $, .RADIAN. ) );
#28 = DIRECTION ( 'NONE',  ( 0.7071067811865523467, 8.659560562354990790E-17, -0.7071067811865426878 ) ) ;
#29 = LINE ( 'NONE', #231, #243 ) ;
#30 =( NAMED_UNIT ( * ) SI_UNIT ( $, .STERADIAN. ) SOLID_ANGLE_UNIT ( ) );
#31 = ORIENTED_EDGE ( 'NONE', *, *, #12, .F. ) ;
#32 = ORIENTED_EDGE ( 'NONE', *, *, #101, .F. ) ;
#33 = AXIS2_PLACEMENT_3D ( 'NONE', #116, #183, #200 ) ;
#34 = EDGE_CURVE ( 'NONE', #114, #6, #189, .T. ) ;
#35 = CARTESIAN_POINT ( 'NONE',  ( 0.0000000000000000000, 0.0000000000000000000, 4.485000000000000320 ) ) ;
#36 = LINE ( 'NONE', #177, #2 ) ;
#37 = LINE ( 'NONE', #191, #263 ) ;
#38 = PRODUCT_DEFINITION_SHAPE ( 'NONE', 'NONE',  #284 ) ;
#39 = CONICAL_SURFACE ( 'NONE', #241, 0.2350000000000000977, 0.7853981633974551624 ) ;
#40 = LINE ( 'NONE', #292, #276 ) ;
#41 = DIMENSIONAL_EXPONENTS ( 1.000000000000000000, 0.0000000000000000000, 0.0000000000000000000, 0.0000000000000000000, 0.0000000000000000000, 0.0000000000000000000, 0.0000000000000000000 ) ;
#42 = ADVANCED_FACE ( 'NONE', ( #257 ), #55, .F. ) ;
#43 = DIRECTION ( 'NONE',  ( -1.224646799147353454E-16, -0.0000000000000000000, -1.000000000000000000 ) ) ;
#44 = ORIENTED_EDGE ( 'NONE', *, *, #213, .F. ) ;
#45 = FACE_OUTER_BOUND ( 'NONE', #95, .T. ) ;
#46 = VERTEX_POINT ( 'NONE', #11 ) ;
#47 = MECHANICAL_DESIGN_GEOMETRIC_PRESENTATION_REPRESENTATION (  '', ( #121 ), #10 ) ;
#48 = EDGE_CURVE ( 'NONE', #251, #6, #52, .T. ) ;
#49 = ORIENTED_EDGE ( 'NONE', *, *, #74, .T. ) ;
#50 = CARTESIAN_POINT ( 'NONE',  ( 0.0000000000000000000, 0.0000000000000000000, 4.500000000000000000 ) ) ;
#51 =( CONVERSION_BASED_UNIT ( 'INCH', #98 ) LENGTH_UNIT ( ) NAMED_UNIT ( #106 ) );
#52 = CIRCLE ( 'NONE', #229, 0.2500000000000000000 ) ;
#53 =( LENGTH_UNIT ( ) NAMED_UNIT ( * ) SI_UNIT ( $, .METRE. ) );
#54 = ORIENTED_EDGE ( 'NONE', *, *, #69, .T. ) ;
#55 = PLANE ( 'NONE',  #72 ) ;
#56 = CIRCLE ( 'NONE', #125, 0.2497499999999999998 ) ;
#57 = ORIENTED_EDGE ( 'NONE', *, *, #12, .T. ) ;
#58 = LENGTH_MEASURE_WITH_UNIT ( LENGTH_MEASURE( 0.02539999999999999897 ), #273 );
#59 =( NAMED_UNIT ( * ) PLANE_ANGLE_UNIT ( ) SI_UNIT ( $, .RADIAN. ) );
#60 = ORIENTED_EDGE ( 'NONE', *, *, #22, .F. ) ;
#61 = DIRECTION ( 'NONE',  ( -1.224646799147353454E-16, -0.0000000000000000000, -1.000000000000000000 ) ) ;
#62 = DIRECTION ( 'NONE',  ( -1.000000000000000000, 0.0000000000000000000, 0.0000000000000000000 ) ) ;
#63 = APPLICATION_CONTEXT ( 'automotive_design' ) ;
#64 = DIRECTION ( 'NONE',  ( 0.0000000000000000000, 0.0000000000000000000, 1.000000000000000000 ) ) ;
#65 = EDGE_LOOP ( 'NONE', ( #204, #258, #181, #26 ) ) ;
#66 = DIRECTION ( 'NONE',  ( 1.000000000000000000, 0.0000000000000000000, 0.0000000000000000000 ) ) ;
#67 = CARTESIAN_POINT ( 'NONE',  ( -0.2350000000000000977, 0.0000000000000000000, 4.500000000000000000 ) ) ;
#68 = VERTEX_POINT ( 'NONE', #67 ) ;
#69 = EDGE_CURVE ( 'NONE', #6, #251, #110, .T. ) ;
#70 = CYLINDRICAL_SURFACE ( 'NONE', #149, 0.2497499999999999998 ) ;
#71 = ORIENTED_EDGE ( 'NONE', *, *, #74, .F. ) ;
#72 = AXIS2_PLACEMENT_3D ( 'NONE', #214, #89, #157 ) ;
#73 = AXIS2_PLACEMENT_3D ( 'NONE', #35, #237, #135 ) ;
#74 = EDGE_CURVE ( 'NONE', #46, #6, #40, .T. ) ;
#75 = DIRECTION ( 'NONE',  ( -1.224646799147353454E-16, -0.0000000000000000000, -1.000000000000000000 ) ) ;
#76 = FACE_OUTER_BOUND ( 'NONE', #187, .T. ) ;
#77 = PRODUCT_RELATED_PRODUCT_CATEGORY ( 'part', '', ( #218 ) ) ;
#78 =( GEOMETRIC_REPRESENTATION_CONTEXT ( 3 ) GLOBAL_UNCERTAINTY_ASSIGNED_CONTEXT ( ( #269 ) ) GLOBAL_UNIT_ASSIGNED_CONTEXT ( ( #51, #144, #141 ) ) REPRESENTATION_CONTEXT ( 'NONE', 'WORKASPACE' ) );
#79 = ADVANCED_FACE ( 'NONE', ( #111 ), #184, .T. ) ;
#80 = DIRECTION ( 'NONE',  ( -0.0000000000000000000, -0.0000000000000000000, -1.000000000000000000 ) ) ;
#81 =( NAMED_UNIT ( * ) SI_UNIT ( $, .STERADIAN. ) SOLID_ANGLE_UNIT ( ) );
#82 = AXIS2_PLACEMENT_3D ( 'NONE', #199, #297, #146 ) ;
#83 = LINE ( 'NONE', #206, #105 ) ;
#84 = CLOSED_SHELL ( 'NONE', ( #152, #140, #147, #248, #288, #264, #280, #79, #275, #42 ) ) ;
#85 = ORIENTED_EDGE ( 'NONE', *, *, #87, .T. ) ;
#86 = DIRECTION ( 'NONE',  ( -1.000000000000000000, 0.0000000000000000000, 1.224646799147353700E-16 ) ) ;
#87 = EDGE_CURVE ( 'NONE', #222, #251, #36, .T. ) ;
#88 = DIRECTION ( 'NONE',  ( -1.000000000000000000, 0.0000000000000000000, 1.224646799147353700E-16 ) ) ;
#89 = DIRECTION ( 'NONE',  ( 0.0000000000000000000, 0.0000000000000000000, 1.000000000000000000 ) ) ;
#90 = CARTESIAN_POINT ( 'NONE',  ( 0.0000000000000000000, 0.0000000000000000000, 4.500000000000000000 ) ) ;
#91 = DIRECTION ( 'NONE',  ( -1.224646799147353454E-16, -0.0000000000000000000, -1.000000000000000000 ) ) ;
#92 = ORIENTED_EDGE ( 'NONE', *, *, #201, .T. ) ;
#93 = CARTESIAN_POINT ( 'NONE',  ( -0.2497499999999999998, 0.0000000000000000000, 6.117110761741031132E-17 ) ) ;
#94 = EDGE_CURVE ( 'NONE', #68, #224, #1, .T. ) ;
#95 = EDGE_LOOP ( 'NONE', ( #295, #126, #85, #247 ) ) ;
#96 = CYLINDRICAL_SURFACE ( 'NONE', #33, 0.2500000000000000000 ) ;
#97 = AXIS2_PLACEMENT_3D ( 'NONE', #5, #130, #100 ) ;
#98 = LENGTH_MEASURE_WITH_UNIT ( LENGTH_MEASURE( 0.02539999999999999897 ), #53 );
#99 = SURFACE_STYLE_USAGE ( .BOTH. , #203 ) ;
#100 = DIRECTION ( 'NONE',  ( -1.000000000000000000, 0.0000000000000000000, 1.224646799147353700E-16 ) ) ;
#101 = EDGE_CURVE ( 'NONE', #46, #103, #15, .T. ) ;
#102 =( CONVERSION_BASED_UNIT ( 'INCH', #58 ) LENGTH_UNIT ( ) NAMED_UNIT ( #209 ) );
#103 = VERTEX_POINT ( 'NONE', #138 ) ;
#104 = PRESENTATION_STYLE_ASSIGNMENT (( #212 ) ) ;
#105 = VECTOR ( 'NONE', #28, 39.37007874015748143 ) ;
#106 = DIMENSIONAL_EXPONENTS ( 1.000000000000000000, 0.0000000000000000000, 0.0000000000000000000, 0.0000000000000000000, 0.0000000000000000000, 0.0000000000000000000, 0.0000000000000000000 ) ;
#107 = ORIENTED_EDGE ( 'NONE', *, *, #94, .T. ) ;
#108 = CYLINDRICAL_SURFACE ( 'NONE', #211, 0.2497499999999999998 ) ;
#109 = DIRECTION ( 'NONE',  ( 1.224646799147353454E-16, 0.0000000000000000000, 1.000000000000000000 ) ) ;
#110 = CIRCLE ( 'NONE', #134, 0.2500000000000000000 ) ;
#111 = FACE_OUTER_BOUND ( 'NONE', #168, .T. ) ;
#112 = VECTOR ( 'NONE', #91, 39.37007874015748143 ) ;
#113 = CARTESIAN_POINT ( 'NONE',  ( 3.745650057197990990E-33, 0.0000000000000000000, 3.058555380870515566E-17 ) ) ;
#114 = VERTEX_POINT ( 'NONE', #272 ) ;
#115 = DIRECTION ( 'NONE',  ( 1.000000000000000000, 0.0000000000000000000, 0.0000000000000000000 ) ) ;
#116 = CARTESIAN_POINT ( 'NONE',  ( 0.0000000000000000000, 0.0000000000000000000, 4.500000000000000000 ) ) ;
#117 = ORIENTED_EDGE ( 'NONE', *, *, #129, .F. ) ;
#118 = FACE_OUTER_BOUND ( 'NONE', #139, .T. ) ;
#119 = DIRECTION ( 'NONE',  ( -1.000000000000000000, 0.0000000000000000000, 0.0000000000000000000 ) ) ;
#120 = CIRCLE ( 'NONE', #97, 0.2497499999999999998 ) ;
#121 = STYLED_ITEM ( 'NONE', ( #185 ), #196 ) ;
#122 = DIRECTION ( 'NONE',  ( -1.000000000000000000, 0.0000000000000000000, 0.0000000000000000000 ) ) ;
#123 = ORIENTED_EDGE ( 'NONE', *, *, #201, .F. ) ;
#124 = ORIENTED_EDGE ( 'NONE', *, *, #94, .F. ) ;
#125 = AXIS2_PLACEMENT_3D ( 'NONE', #113, #194, #88 ) ;
#126 = ORIENTED_EDGE ( 'NONE', *, *, #261, .T. ) ;
#127 = FILL_AREA_STYLE_COLOUR ( '', #192 ) ;
#128 = EDGE_LOOP ( 'NONE', ( #117, #208, #164, #123 ) ) ;
#129 = EDGE_CURVE ( 'NONE', #224, #68, #259, .T. ) ;
#130 = DIRECTION ( 'NONE',  ( -1.224646799147353454E-16, -0.0000000000000000000, -1.000000000000000000 ) ) ;
#131 = CARTESIAN_POINT ( 'NONE',  ( 0.0000000000000000000, 0.0000000000000000000, 4.500000000000000000 ) ) ;
#132 = DIRECTION ( 'NONE',  ( -1.000000000000000000, 0.0000000000000000000, 0.0000000000000000000 ) ) ;
#133 = AXIS2_PLACEMENT_3D ( 'NONE', #215, #109, #190 ) ;
#134 = AXIS2_PLACEMENT_3D ( 'NONE', #236, #158, #262 ) ;
#135 = DIRECTION ( 'NONE',  ( 1.000000000000000000, 0.0000000000000000000, 0.0000000000000000000 ) ) ;
#136 = CONICAL_SURFACE ( 'NONE', #170, 0.2497499999999999998, 0.1745329251994339192 ) ;
#137 = DIRECTION ( 'NONE',  ( 0.0000000000000000000, 0.0000000000000000000, 1.000000000000000000 ) ) ;
#138 = CARTESIAN_POINT ( 'NONE',  ( -0.2497499999999997777, 3.060086189369449292E-17, 2.000000000000000000 ) ) ;
#139 = EDGE_LOOP ( 'NONE', ( #107, #182 ) ) ;
#140 = ADVANCED_FACE ( 'NONE', ( #265 ), #136, .T. ) ;
#141 =( NAMED_UNIT ( * ) SI_UNIT ( $, .STERADIAN. ) SOLID_ANGLE_UNIT ( ) );
#142 =( GEOMETRIC_REPRESENTATION_CONTEXT ( 3 ) GLOBAL_UNCERTAINTY_ASSIGNED_CONTEXT ( ( #239 ) ) GLOBAL_UNIT_ASSIGNED_CONTEXT ( ( #186, #59, #81 ) ) REPRESENTATION_CONTEXT ( 'NONE', 'WORKASPACE' ) );
#143 = AXIS2_PLACEMENT_3D ( 'NONE', #50, #277, #274 ) ;
#144 =( NAMED_UNIT ( * ) PLANE_ANGLE_UNIT ( ) SI_UNIT ( $, .RADIAN. ) );
#145 = APPLICATION_PROTOCOL_DEFINITION ( 'draft international standard', 'automotive_design', 1998, #63 ) ;
#146 = DIRECTION ( 'NONE',  ( 1.000000000000000000, 0.0000000000000000000, 0.0000000000000000000 ) ) ;
#147 = ADVANCED_FACE ( 'NONE', ( #155 ), #230, .T. ) ;
#148 = ORIENTED_EDGE ( 'NONE', *, *, #219, .F. ) ;
#149 = AXIS2_PLACEMENT_3D ( 'NONE', #4, #75, #165 ) ;
#150 = ORIENTED_EDGE ( 'NONE', *, *, #256, .F. ) ;
#151 =( LENGTH_UNIT ( ) NAMED_UNIT ( * ) SI_UNIT ( $, .METRE. ) );
#152 = ADVANCED_FACE ( 'NONE', ( #285 ), #108, .T. ) ;
#153 = ORIENTED_EDGE ( 'NONE', *, *, #256, .T. ) ;
#154 = MECHANICAL_DESIGN_GEOMETRIC_PRESENTATION_REPRESENTATION (  '', ( #270 ), #142 ) ;
#155 = FACE_OUTER_BOUND ( 'NONE', #128, .T. ) ;
#156 = DIRECTION ( 'NONE',  ( 1.224646799147353454E-16, 0.0000000000000000000, 1.000000000000000000 ) ) ;
#157 = DIRECTION ( 'NONE',  ( 1.000000000000000000, 0.0000000000000000000, -0.0000000000000000000 ) ) ;
#158 = DIRECTION ( 'NONE',  ( -1.224646799147353454E-16, -0.0000000000000000000, -1.000000000000000000 ) ) ;
#159 = DIRECTION ( 'NONE',  ( -0.0000000000000000000, -0.0000000000000000000, -1.000000000000000000 ) ) ;
#160 = VERTEX_POINT ( 'NONE', #234 ) ;
#161 = DIRECTION ( 'NONE',  ( -0.0000000000000000000, -0.0000000000000000000, -1.000000000000000000 ) ) ;
#162 = FACE_OUTER_BOUND ( 'NONE', #65, .T. ) ;
#163 = AXIS2_PLACEMENT_3D ( 'NONE', #286, #176, #178 ) ;
#164 = ORIENTED_EDGE ( 'NONE', *, *, #174, .F. ) ;
#165 = DIRECTION ( 'NONE',  ( -1.000000000000000000, 0.0000000000000000000, 1.224646799147353700E-16 ) ) ;
#166 = ORIENTED_EDGE ( 'NONE', *, *, #261, .F. ) ;
#167 = EDGE_LOOP ( 'NONE', ( #150, #197, #17, #44 ) ) ;
#168 = EDGE_LOOP ( 'NONE', ( #31, #32, #49, #54 ) ) ;
#169 = AXIS2_PLACEMENT_3D ( 'NONE', #253, #161, #119 ) ;
#170 = AXIS2_PLACEMENT_3D ( 'NONE', #242, #156, #217 ) ;
#171 = PRODUCT_CONTEXT ( 'NONE', #63, 'mechanical' ) ;
#172 = LENGTH_MEASURE_WITH_UNIT ( LENGTH_MEASURE( 0.02539999999999999897 ), #151 );
#173 = DIRECTION ( 'NONE',  ( -1.224646799147353454E-16, -0.0000000000000000000, -1.000000000000000000 ) ) ;
#174 = EDGE_CURVE ( 'NONE', #222, #114, #289, .T. ) ;
#175 = PRESENTATION_LAYER_ASSIGNMENT (  '', '', ( #121 ) ) ;
#176 = DIRECTION ( 'NONE',  ( -1.224646799147353454E-16, -0.0000000000000000000, -1.000000000000000000 ) ) ;
#177 = CARTESIAN_POINT ( 'NONE',  ( -0.2500000000000000000, 0.0000000000000000000, 4.500000000000000000 ) ) ;
#178 = DIRECTION ( 'NONE',  ( -1.000000000000000000, 0.0000000000000000000, 0.0000000000000000000 ) ) ;
#179 = DIRECTION ( 'NONE',  ( 0.0000000000000000000, 0.0000000000000000000, -1.000000000000000000 ) ) ;
#180 = FACE_OUTER_BOUND ( 'NONE', #167, .T. ) ;
#181 = ORIENTED_EDGE ( 'NONE', *, *, #48, .F. ) ;
#182 = ORIENTED_EDGE ( 'NONE', *, *, #129, .T. ) ;
#183 = DIRECTION ( 'NONE',  ( -0.0000000000000000000, -0.0000000000000000000, -1.000000000000000000 ) ) ;
#184 = CONICAL_SURFACE ( 'NONE', #133, 0.2497499999999999998, 0.1745329251994339192 ) ;
#185 = PRESENTATION_STYLE_ASSIGNMENT (( #99 ) ) ;
#186 =( CONVERSION_BASED_UNIT ( 'INCH', #172 ) LENGTH_UNIT ( ) NAMED_UNIT ( #41 ) );
#187 = EDGE_LOOP ( 'NONE', ( #293, #124, #92, #166 ) ) ;
#188 = COLOUR_RGB ( '',0.7921568627450980005, 0.8196078431372548767, 0.9333333333333333481 ) ;
#189 = LINE ( 'NONE', #226, #287 ) ;
#190 = DIRECTION ( 'NONE',  ( 1.000000000000000000, 0.0000000000000000000, 0.0000000000000000000 ) ) ;
#191 = CARTESIAN_POINT ( 'NONE',  ( -0.2350000000000000977, 0.0000000000000000000, 4.500000000000000000 ) ) ;
#192 = COLOUR_RGB ( '',0.7921568627450980005, 0.8196078431372548767, 0.9333333333333333481 ) ;
#193 = DIRECTION ( 'NONE',  ( 0.1736481776669314137, 0.0000000000000000000, 0.9848077530122077983 ) ) ;
#194 = DIRECTION ( 'NONE',  ( -1.224646799147353454E-16, -0.0000000000000000000, -1.000000000000000000 ) ) ;
#195 = DIRECTION ( 'NONE',  ( 1.000000000000000000, 0.0000000000000000000, 0.0000000000000000000 ) ) ;
#196 = ADVANCED_BREP_SHAPE_REPRESENTATION ( 'Micro_SHL-500-4X', ( #25, #220 ), #78 ) ;
#197 = ORIENTED_EDGE ( 'NONE', *, *, #101, .T. ) ;
#198 = AXIS2_PLACEMENT_3D ( 'NONE', #266, #61, #62 ) ;
#199 = CARTESIAN_POINT ( 'NONE',  ( 0.0000000000000000000, 0.0000000000000000000, 4.485000000000000320 ) ) ;
#200 = DIRECTION ( 'NONE',  ( -1.000000000000000000, 0.0000000000000000000, 0.0000000000000000000 ) ) ;
#201 = EDGE_CURVE ( 'NONE', #68, #222, #37, .T. ) ;
#202 = AXIS2_PLACEMENT_3D ( 'NONE', #90, #64, #195 ) ;
#203 = SURFACE_SIDE_STYLE ('',( #20 ) ) ;
#204 = ORIENTED_EDGE ( 'NONE', *, *, #174, .T. ) ;
#205 = CARTESIAN_POINT ( 'NONE',  ( 0.0000000000000000000, 0.0000000000000000000, 0.0000000000000000000 ) ) ;
#206 = CARTESIAN_POINT ( 'NONE',  ( 0.2350000000000000977, 2.877919977996281060E-17, 4.500000000000000000 ) ) ;
#207 = DIRECTION ( 'NONE',  ( 0.0000000000000000000, 0.0000000000000000000, 1.000000000000000000 ) ) ;
#208 = ORIENTED_EDGE ( 'NONE', *, *, #19, .T. ) ;
#209 = DIMENSIONAL_EXPONENTS ( 1.000000000000000000, 0.0000000000000000000, 0.0000000000000000000, 0.0000000000000000000, 0.0000000000000000000, 0.0000000000000000000, 0.0000000000000000000 ) ;
#210 = FILL_AREA_STYLE ('',( #127 ) ) ;
#211 = AXIS2_PLACEMENT_3D ( 'NONE', #290, #43, #86 ) ;
#212 = SURFACE_STYLE_USAGE ( .BOTH. , #9 ) ;
#213 = EDGE_CURVE ( 'NONE', #160, #240, #56, .T. ) ;
#214 = CARTESIAN_POINT ( 'NONE',  ( 0.0000000000000000000, 0.0000000000000000000, 0.0000000000000000000 ) ) ;
#215 = CARTESIAN_POINT ( 'NONE',  ( 2.449293598294706907E-16, 0.0000000000000000000, 2.000000000000000000 ) ) ;
#216 = CARTESIAN_POINT ( 'NONE',  ( 0.2350000000000000977, 2.969768487932331731E-17, 4.500000000000000000 ) ) ;
#217 = DIRECTION ( 'NONE',  ( 1.000000000000000000, 0.0000000000000000000, 0.0000000000000000000 ) ) ;
#218 = PRODUCT ( 'Micro_SHL-500-4X', 'Micro_SHL-500-4X', '', ( #171 ) ) ;
#219 = EDGE_CURVE ( 'NONE', #103, #46, #21, .T. ) ;
#220 = AXIS2_PLACEMENT_3D ( 'NONE', #205, #207, #281 ) ;
#221 = LINE ( 'NONE', #250, #249 ) ;
#222 = VERTEX_POINT ( 'NONE', #268 ) ;
#223 = CARTESIAN_POINT ( 'NONE',  ( -0.2499999999999997502, 0.0000000000000000000, 2.001417820454904462 ) ) ;
#224 = VERTEX_POINT ( 'NONE', #216 ) ;
#225 = EDGE_CURVE ( 'NONE', #103, #240, #18, .T. ) ;
#226 = CARTESIAN_POINT ( 'NONE',  ( 0.2500000000000000000, 3.061616997868383018E-17, 4.500000000000000000 ) ) ;
#227 = APPLICATION_PROTOCOL_DEFINITION ( 'draft international standard', 'automotive_design', 1998, #238 ) ;
#228 = ORIENTED_EDGE ( 'NONE', *, *, #225, .F. ) ;
#229 = AXIS2_PLACEMENT_3D ( 'NONE', #13, #173, #66 ) ;
#230 = CONICAL_SURFACE ( 'NONE', #278, 0.2350000000000000977, 0.7853981633974551624 ) ;
#231 = CARTESIAN_POINT ( 'NONE',  ( -0.2497499999999997777, 3.058555380870514950E-17, 2.000000000000000000 ) ) ;
#232 = EDGE_LOOP ( 'NONE', ( #298, #245 ) ) ;
#233 = CARTESIAN_POINT ( 'NONE',  ( 0.2500000000000002220, 3.061616997868385483E-17, 2.001417820454904462 ) ) ;
#234 = CARTESIAN_POINT ( 'NONE',  ( 0.2497499999999999998, 3.058555380870514950E-17, 0.0000000000000000000 ) ) ;
#235 = PRODUCT_DEFINITION_CONTEXT ( 'detailed design', #238, 'design' ) ;
#236 = CARTESIAN_POINT ( 'NONE',  ( 2.451029927576571400E-16, 0.0000000000000000000, 2.001417820454904462 ) ) ;
#237 = DIRECTION ( 'NONE',  ( 0.0000000000000000000, 0.0000000000000000000, -1.000000000000000000 ) ) ;
#238 = APPLICATION_CONTEXT ( 'automotive_design' ) ;
#239 = UNCERTAINTY_MEASURE_WITH_UNIT (LENGTH_MEASURE( 1.000000000000000082E-05 ), #186, 'distance_accuracy_value', 'NONE');
#240 = VERTEX_POINT ( 'NONE', #93 ) ;
#241 = AXIS2_PLACEMENT_3D ( 'NONE', #3, #252, #122 ) ;
#242 = CARTESIAN_POINT ( 'NONE',  ( 2.449293598294706907E-16, 0.0000000000000000000, 2.000000000000000000 ) ) ;
#243 = VECTOR ( 'NONE', #255, 39.37007874015747433 ) ;
#244 = CARTESIAN_POINT ( 'NONE',  ( 0.0000000000000000000, 0.0000000000000000000, 4.500000000000000000 ) ) ;
#245 = ORIENTED_EDGE ( 'NONE', *, *, #213, .T. ) ;
#246 = PLANE ( 'NONE',  #143 ) ;
#247 = ORIENTED_EDGE ( 'NONE', *, *, #69, .F. ) ;
#248 = ADVANCED_FACE ( 'NONE', ( #162 ), #96, .T. ) ;
#249 = VECTOR ( 'NONE', #23, 39.37007874015748143 ) ;
#250 = CARTESIAN_POINT ( 'NONE',  ( 0.2497499999999999998, 3.058555380870514950E-17, -3.058555380870515566E-17 ) ) ;
#251 = VERTEX_POINT ( 'NONE', #223 ) ;
#252 = DIRECTION ( 'NONE',  ( 0.0000000000000000000, 0.0000000000000000000, -1.000000000000000000 ) ) ;
#253 = CARTESIAN_POINT ( 'NONE',  ( 0.0000000000000000000, 0.0000000000000000000, 4.500000000000000000 ) ) ;
#254 = FILL_AREA_STYLE_COLOUR ( '', #188 ) ;
#255 = DIRECTION ( 'NONE',  ( -0.1736481776669312194, 2.126576849575783625E-17, 0.9848077530122080203 ) ) ;
#256 = EDGE_CURVE ( 'NONE', #46, #160, #221, .T. ) ;
#257 = FACE_OUTER_BOUND ( 'NONE', #232, .T. ) ;
#258 = ORIENTED_EDGE ( 'NONE', *, *, #34, .T. ) ;
#259 = CIRCLE ( 'NONE', #202, 0.2350000000000000977 ) ;
#260 = EDGE_LOOP ( 'NONE', ( #267, #153, #60, #228 ) ) ;
#261 = EDGE_CURVE ( 'NONE', #114, #222, #271, .T. ) ;
#262 = DIRECTION ( 'NONE',  ( 1.000000000000000000, 0.0000000000000000000, 0.0000000000000000000 ) ) ;
#263 = VECTOR ( 'NONE', #16, 39.37007874015748143 ) ;
#264 = ADVANCED_FACE ( 'NONE', ( #118 ), #246, .T. ) ;
#265 = FACE_OUTER_BOUND ( 'NONE', #296, .T. ) ;
#266 = CARTESIAN_POINT ( 'NONE',  ( 2.449293598294706907E-16, 0.0000000000000000000, 2.000000000000000000 ) ) ;
#267 = ORIENTED_EDGE ( 'NONE', *, *, #219, .T. ) ;
#268 = CARTESIAN_POINT ( 'NONE',  ( -0.2500000000000000000, 0.0000000000000000000, 4.485000000000000320 ) ) ;
#269 = UNCERTAINTY_MEASURE_WITH_UNIT (LENGTH_MEASURE( 1.000000000000000082E-05 ), #51, 'distance_accuracy_value', 'NONE');
#270 = STYLED_ITEM ( 'NONE', ( #104 ), #25 ) ;
#271 = CIRCLE ( 'NONE', #82, 0.2500000000000000000 ) ;
#272 = CARTESIAN_POINT ( 'NONE',  ( 0.2500000000000000000, 3.061616997868383018E-17, 4.485000000000000320 ) ) ;
#273 =( LENGTH_UNIT ( ) NAMED_UNIT ( * ) SI_UNIT ( $, .METRE. ) );
#274 = DIRECTION ( 'NONE',  ( 1.000000000000000000, 0.0000000000000000000, -0.0000000000000000000 ) ) ;
#275 = ADVANCED_FACE ( 'NONE', ( #180 ), #70, .T. ) ;
#276 = VECTOR ( 'NONE', #193, 39.37007874015748143 ) ;
#277 = DIRECTION ( 'NONE',  ( 0.0000000000000000000, 0.0000000000000000000, 1.000000000000000000 ) ) ;
#278 = AXIS2_PLACEMENT_3D ( 'NONE', #131, #179, #132 ) ;
#279 = ORIENTED_EDGE ( 'NONE', *, *, #48, .T. ) ;
#280 = ADVANCED_FACE ( 'NONE', ( #76 ), #39, .T. ) ;
#281 = DIRECTION ( 'NONE',  ( 1.000000000000000000, 0.0000000000000000000, 0.0000000000000000000 ) ) ;
#282 = AXIS2_PLACEMENT_3D ( 'NONE', #244, #137, #115 ) ;
#283 = PRODUCT_DEFINITION_FORMATION_WITH_SPECIFIED_SOURCE ( 'ANY', '', #218, .NOT_KNOWN. ) ;
#284 = PRODUCT_DEFINITION ( 'UNKNOWN', '', #283, #235 ) ;
#285 = FACE_OUTER_BOUND ( 'NONE', #260, .T. ) ;
#286 = CARTESIAN_POINT ( 'NONE',  ( 2.449293598294706907E-16, 0.0000000000000000000, 2.000000000000000000 ) ) ;
#287 = VECTOR ( 'NONE', #80, 39.37007874015748143 ) ;
#288 = ADVANCED_FACE ( 'NONE', ( #45 ), #299, .T. ) ;
#289 = CIRCLE ( 'NONE', #73, 0.2500000000000000000 ) ;
#290 = CARTESIAN_POINT ( 'NONE',  ( 0.0000000000000000000, 0.0000000000000000000, 0.0000000000000000000 ) ) ;
#291 = UNCERTAINTY_MEASURE_WITH_UNIT (LENGTH_MEASURE( 1.000000000000000082E-05 ), #102, 'distance_accuracy_value', 'NONE');
#292 = CARTESIAN_POINT ( 'NONE',  ( 0.2497500000000002496, 0.0000000000000000000, 2.000000000000000000 ) ) ;
#293 = ORIENTED_EDGE ( 'NONE', *, *, #19, .F. ) ;
#294 = CARTESIAN_POINT ( 'NONE',  ( -0.2497499999999999998, 0.0000000000000000000, 3.058555380870515566E-17 ) ) ;
#295 = ORIENTED_EDGE ( 'NONE', *, *, #34, .F. ) ;
#296 = EDGE_LOOP ( 'NONE', ( #148, #57, #279, #71 ) ) ;
#297 = DIRECTION ( 'NONE',  ( 0.0000000000000000000, 0.0000000000000000000, -1.000000000000000000 ) ) ;
#298 = ORIENTED_EDGE ( 'NONE', *, *, #22, .T. ) ;
#299 = CYLINDRICAL_SURFACE ( 'NONE', #169, 0.2500000000000000000 ) ;
ENDSEC;
END-ISO-10303-21;
