ISO-10303-21;
HEADER;
FILE_DESCRIPTION (( 'STEP AP214' ),
    '1' );
FILE_NAME ('Micro_BEM-218-02.STEP',
    '2021-09-03T13:06:25',
    ( '' ),
    ( '' ),
    'SwSTEP 2.0',
    'SolidWorks 2020',
    '' );
FILE_SCHEMA (( 'AUTOMOTIVE_DESIGN' ));
ENDSEC;

DATA;
#1 = ORIENTED_EDGE ( 'NONE', *, *, #139, .F. ) ;
#2 = DIRECTION ( 'NONE',  ( -1.224646799147353207E-16, -0.0000000000000000000, -1.000000000000000000 ) ) ;
#3 = CARTESIAN_POINT ( 'NONE',  ( 0.1092406500000000502, 0.0000000000000000000, 0.6250000000000000000 ) ) ;
#4 = DIRECTION ( 'NONE',  ( -1.000000000000000000, 0.0000000000000000000, 1.224646799147353207E-16 ) ) ;
#5 = CARTESIAN_POINT ( 'NONE',  ( 0.1250000000000000833, 1.530808498934192433E-17, 0.7143757151439918962 ) ) ;
#6 = ORIENTED_EDGE ( 'NONE', *, *, #139, .T. ) ;
#7 = EDGE_CURVE ( 'NONE', #71, #70, #173, .T. ) ;
#8 = LINE ( 'NONE', #156, #183 ) ;
#9 = AXIS2_PLACEMENT_3D ( 'NONE', #325, #252, #25 ) ;
#10 = CARTESIAN_POINT ( 'NONE',  ( 0.0000000000000000000, 0.0000000000000000000, 0.0000000000000000000 ) ) ;
#11 = PLANE ( 'NONE',  #60 ) ;
#12 = CARTESIAN_POINT ( 'NONE',  ( 0.0000000000000000000, 0.0000000000000000000, 2.500000000000000000 ) ) ;
#13 = EDGE_CURVE ( 'NONE', #97, #143, #271, .T. ) ;
#14 = CARTESIAN_POINT ( 'NONE',  ( -0.1249999999999999167, 0.0000000000000000000, 0.7143757151439918962 ) ) ;
#15 = EDGE_CURVE ( 'NONE', #150, #50, #133, .T. ) ;
#16 = ADVANCED_FACE ( 'NONE', ( #274 ), #321, .T. ) ;
#17 = DIRECTION ( 'NONE',  ( 1.000000000000000000, 0.0000000000000000000, 0.0000000000000000000 ) ) ;
#18 = ORIENTED_EDGE ( 'NONE', *, *, #303, .T. ) ;
#19 = LENGTH_MEASURE_WITH_UNIT ( LENGTH_MEASURE( 0.02539999999999999897 ), #280 );
#20 = ORIENTED_EDGE ( 'NONE', *, *, #57, .T. ) ;
#21 = FILL_AREA_STYLE_COLOUR ( '', #241 ) ;
#22 = DIRECTION ( 'NONE',  ( 1.000000000000000000, 0.0000000000000000000, 0.0000000000000000000 ) ) ;
#23 = ORIENTED_EDGE ( 'NONE', *, *, #180, .F. ) ;
#24 =( NAMED_UNIT ( * ) PLANE_ANGLE_UNIT ( ) SI_UNIT ( $, .RADIAN. ) );
#25 = DIRECTION ( 'NONE',  ( -1.000000000000000000, 0.0000000000000000000, 1.562975866621229869E-16 ) ) ;
#26 = EDGE_LOOP ( 'NONE', ( #94, #293, #28, #249 ) ) ;
#27 = DIRECTION ( 'NONE',  ( 0.0000000000000000000, 1.000000000000000000, 0.0000000000000000000 ) ) ;
#28 = ORIENTED_EDGE ( 'NONE', *, *, #205, .F. ) ;
#29 = DIRECTION ( 'NONE',  ( -1.224646799147353207E-16, -0.0000000000000000000, -1.000000000000000000 ) ) ;
#30 = DIRECTION ( 'NONE',  ( -1.000000000000000000, 0.0000000000000000000, 1.224646799147353207E-16 ) ) ;
#31 = CARTESIAN_POINT ( 'NONE',  ( -0.1250000000000000000, 0.0000000000000000000, 2.500000000000000000 ) ) ;
#32 = DIRECTION ( 'NONE',  ( 0.7071067811865499042, 8.659560562354961208E-17, -0.7071067811865451302 ) ) ;
#33 = LINE ( 'NONE', #31, #81 ) ;
#34 = CONICAL_SURFACE ( 'NONE', #185, 0.1100000000000001948, 0.7853981633974517207 ) ;
#35 =( GEOMETRIC_REPRESENTATION_CONTEXT ( 3 ) GLOBAL_UNCERTAINTY_ASSIGNED_CONTEXT ( ( #170 ) ) GLOBAL_UNIT_ASSIGNED_CONTEXT ( ( #196, #24, #98 ) ) REPRESENTATION_CONTEXT ( 'NONE', 'WORKASPACE' ) );
#36 = FACE_OUTER_BOUND ( 'NONE', #172, .T. ) ;
#37 = UNCERTAINTY_MEASURE_WITH_UNIT (LENGTH_MEASURE( 1.000000000000000082E-05 ), #225, 'distance_accuracy_value', 'NONE');
#38 = ORIENTED_EDGE ( 'NONE', *, *, #216, .F. ) ;
#39 = CIRCLE ( 'NONE', #157, 0.1092406499999999947 ) ;
#40 = VERTEX_POINT ( 'NONE', #165 ) ;
#41 = DIRECTION ( 'NONE',  ( -1.000000000000000000, 0.0000000000000000000, 0.0000000000000000000 ) ) ;
#42 = EDGE_LOOP ( 'NONE', ( #48, #18, #6, #268 ) ) ;
#43 = DIRECTION ( 'NONE',  ( 0.0000000000000000000, -1.000000000000000000, 0.0000000000000000000 ) ) ;
#44 = ORIENTED_EDGE ( 'NONE', *, *, #54, .F. ) ;
#45 = DIRECTION ( 'NONE',  ( 0.0000000000000000000, 0.0000000000000000000, -1.000000000000000000 ) ) ;
#46 = ORIENTED_EDGE ( 'NONE', *, *, #87, .F. ) ;
#47 = AXIS2_PLACEMENT_3D ( 'NONE', #297, #209, #307 ) ;
#48 = ORIENTED_EDGE ( 'NONE', *, *, #7, .F. ) ;
#49 = DIRECTION ( 'NONE',  ( -0.7071067811865499042, 0.0000000000000000000, -0.7071067811865451302 ) ) ;
#50 = VERTEX_POINT ( 'NONE', #272 ) ;
#51 = SHAPE_DEFINITION_REPRESENTATION ( #135, #66 ) ;
#52 = DIRECTION ( 'NONE',  ( 0.0000000000000000000, 0.0000000000000000000, 1.000000000000000000 ) ) ;
#53 = LINE ( 'NONE', #129, #269 ) ;
#54 = EDGE_CURVE ( 'NONE', #50, #150, #55, .T. ) ;
#55 = CIRCLE ( 'NONE', #9, 0.1092406499999999947 ) ;
#56 = LENGTH_MEASURE_WITH_UNIT ( LENGTH_MEASURE( 0.02539999999999999897 ), #231 );
#57 = EDGE_CURVE ( 'NONE', #70, #143, #224, .T. ) ;
#58 = PRODUCT ( 'Micro_BEM-218-02', 'Micro_BEM-218-02', '', ( #259 ) ) ;
#59 = VECTOR ( 'NONE', #125, 39.37007874015748143 ) ;
#60 = AXIS2_PLACEMENT_3D ( 'NONE', #266, #283, #132 ) ;
#61 = DIRECTION ( 'NONE',  ( 1.224646799147353207E-16, 0.0000000000000000000, 1.000000000000000000 ) ) ;
#62 = MECHANICAL_DESIGN_GEOMETRIC_PRESENTATION_REPRESENTATION (  '', ( #309 ), #235 ) ;
#63 = STYLED_ITEM ( 'NONE', ( #294 ), #66 ) ;
#64 = CARTESIAN_POINT ( 'NONE',  ( 7.654042494670957853E-17, 0.0000000000000000000, 0.6250000000000000000 ) ) ;
#65 = ORIENTED_EDGE ( 'NONE', *, *, #313, .F. ) ;
#66 = ADVANCED_BREP_SHAPE_REPRESENTATION ( 'Micro_BEM-218-02', ( #187, #229 ), #35 ) ;
#67 = DIRECTION ( 'NONE',  ( 0.0000000000000000000, 1.000000000000000000, 0.0000000000000000000 ) ) ;
#68 = ADVANCED_FACE ( 'NONE', ( #200 ), #285, .T. ) ;
#69 = CARTESIAN_POINT ( 'NONE',  ( 2.006718185389144496E-17, 0.0000000000000000000, 0.0000000000000000000 ) ) ;
#70 = VERTEX_POINT ( 'NONE', #144 ) ;
#71 = VERTEX_POINT ( 'NONE', #310 ) ;
#72 = SURFACE_SIDE_STYLE ('',( #257 ) ) ;
#73 = CARTESIAN_POINT ( 'NONE',  ( 0.0000000000000000000, 0.0000000000000000000, 2.500000000000000000 ) ) ;
#74 = ORIENTED_EDGE ( 'NONE', *, *, #180, .T. ) ;
#75 =( LENGTH_UNIT ( ) NAMED_UNIT ( * ) SI_UNIT ( $, .METRE. ) );
#76 = LINE ( 'NONE', #90, #137 ) ;
#77 = ORIENTED_EDGE ( 'NONE', *, *, #228, .T. ) ;
#78 = CARTESIAN_POINT ( 'NONE',  ( 8.748579329396911086E-17, 0.0000000000000000000, 0.7143757151439918962 ) ) ;
#79 = APPLICATION_CONTEXT ( 'automotive_design' ) ;
#80 = DIRECTION ( 'NONE',  ( -1.224646799147353207E-16, -0.0000000000000000000, -1.000000000000000000 ) ) ;
#81 = VECTOR ( 'NONE', #247, 39.37007874015748143 ) ;
#82 = DIRECTION ( 'NONE',  ( -0.1736481776669311639, 2.126576849575783008E-17, 0.9848077530122080203 ) ) ;
#83 = DIRECTION ( 'NONE',  ( 1.000000000000000000, 0.0000000000000000000, 0.0000000000000000000 ) ) ;
#84 = CARTESIAN_POINT ( 'NONE',  ( 0.0000000000000000000, 0.0000000000000000000, 2.500000000000000000 ) ) ;
#85 = AXIS2_PLACEMENT_3D ( 'NONE', #193, #248, #175 ) ;
#86 = CIRCLE ( 'NONE', #149, 0.1100000000000001948 ) ;
#87 = EDGE_CURVE ( 'NONE', #97, #127, #232, .T. ) ;
#88 = PRODUCT_DEFINITION_CONTEXT ( 'detailed design', #122, 'design' ) ;
#89 = ADVANCED_FACE ( 'NONE', ( #238 ), #34, .T. ) ;
#90 = CARTESIAN_POINT ( 'NONE',  ( -0.1100000000000001948, 0.0000000000000000000, 2.500000000000000000 ) ) ;
#91 = ORIENTED_EDGE ( 'NONE', *, *, #261, .F. ) ;
#92 = CIRCLE ( 'NONE', #120, 0.1250000000000000000 ) ;
#93 = CARTESIAN_POINT ( 'NONE',  ( 1.337812123592763100E-17, 0.0000000000000000000, 0.1092406499999999947 ) ) ;
#94 = ORIENTED_EDGE ( 'NONE', *, *, #234, .F. ) ;
#95 = APPLICATION_PROTOCOL_DEFINITION ( 'draft international standard', 'automotive_design', 1998, #79 ) ;
#96 = VERTEX_POINT ( 'NONE', #14 ) ;
#97 = VERTEX_POINT ( 'NONE', #113 ) ;
#98 =( NAMED_UNIT ( * ) SI_UNIT ( $, .STERADIAN. ) SOLID_ANGLE_UNIT ( ) );
#99 = DIRECTION ( 'NONE',  ( -1.224646799147353207E-16, -0.0000000000000000000, -1.000000000000000000 ) ) ;
#100 = DIRECTION ( 'NONE',  ( 0.1736481776669313581, 0.0000000000000000000, 0.9848077530122077983 ) ) ;
#101 = FILL_AREA_STYLE ('',( #21 ) ) ;
#102 = DIRECTION ( 'NONE',  ( 1.000000000000000000, 0.0000000000000000000, 0.0000000000000000000 ) ) ;
#103 = ORIENTED_EDGE ( 'NONE', *, *, #313, .T. ) ;
#104 = PRODUCT_RELATED_PRODUCT_CATEGORY ( 'part', '', ( #58 ) ) ;
#105 = EDGE_CURVE ( 'NONE', #194, #50, #312, .T. ) ;
#106 = VECTOR ( 'NONE', #100, 39.37007874015748143 ) ;
#107 = CIRCLE ( 'NONE', #236, 0.1250000000000000000 ) ;
#108 = CARTESIAN_POINT ( 'NONE',  ( 0.0000000000000000000, 0.0000000000000000000, 2.500000000000000000 ) ) ;
#109 = DIRECTION ( 'NONE',  ( 1.000000000000000000, 0.0000000000000000000, 0.0000000000000000000 ) ) ;
#110 = FACE_OUTER_BOUND ( 'NONE', #302, .T. ) ;
#111 = ADVANCED_FACE ( 'NONE', ( #251 ), #260, .T. ) ;
#112 = DIRECTION ( 'NONE',  ( 0.0000000000000000000, 0.0000000000000000000, -1.000000000000000000 ) ) ;
#113 = CARTESIAN_POINT ( 'NONE',  ( 0.1250000000000000000, 1.530808498934191509E-17, 2.485000000000000320 ) ) ;
#114 = DIRECTION ( 'NONE',  ( 0.0000000000000000000, 0.0000000000000000000, 1.000000000000000000 ) ) ;
#115 = AXIS2_PLACEMENT_3D ( 'NONE', #289, #262, #237 ) ;
#116 = PRESENTATION_LAYER_ASSIGNMENT (  '', '', ( #63 ) ) ;
#117 = ORIENTED_EDGE ( 'NONE', *, *, #105, .F. ) ;
#118 = ORIENTED_EDGE ( 'NONE', *, *, #87, .T. ) ;
#119 = DIRECTION ( 'NONE',  ( -1.224646799147353207E-16, -0.0000000000000000000, -1.000000000000000000 ) ) ;
#120 = AXIS2_PLACEMENT_3D ( 'NONE', #169, #45, #148 ) ;
#121 = ORIENTED_EDGE ( 'NONE', *, *, #228, .F. ) ;
#122 = APPLICATION_CONTEXT ( 'automotive_design' ) ;
#123 = CARTESIAN_POINT ( 'NONE',  ( 0.0000000000000000000, 0.0000000000000000000, 0.0000000000000000000 ) ) ;
#124 =( NAMED_UNIT ( * ) SI_UNIT ( $, .STERADIAN. ) SOLID_ANGLE_UNIT ( ) );
#125 = DIRECTION ( 'NONE',  ( -0.0000000000000000000, -0.0000000000000000000, -1.000000000000000000 ) ) ;
#126 = EDGE_LOOP ( 'NONE', ( #91, #38, #189, #46 ) ) ;
#127 = VERTEX_POINT ( 'NONE', #166 ) ;
#128 = EDGE_CURVE ( 'NONE', #70, #71, #39, .T. ) ;
#129 = CARTESIAN_POINT ( 'NONE',  ( -0.1092406499999999947, 0.0000000000000000000, 1.337812123592763100E-17 ) ) ;
#130 = FACE_OUTER_BOUND ( 'NONE', #138, .T. ) ;
#131 = AXIS2_PLACEMENT_3D ( 'NONE', #291, #171, #278 ) ;
#132 = DIRECTION ( 'NONE',  ( 1.000000000000000000, 0.0000000000000000000, -0.0000000000000000000 ) ) ;
#133 = CIRCLE ( 'NONE', #131, 0.1092406499999999947 ) ;
#134 = AXIS2_PLACEMENT_3D ( 'NONE', #308, #184, #284 ) ;
#135 = PRODUCT_DEFINITION_SHAPE ( 'NONE', 'NONE',  #242 ) ;
#136 = FACE_OUTER_BOUND ( 'NONE', #153, .T. ) ;
#137 = VECTOR ( 'NONE', #49, 39.37007874015748143 ) ;
#138 = EDGE_LOOP ( 'NONE', ( #23, #315, #244, #146 ) ) ;
#139 = EDGE_CURVE ( 'NONE', #96, #143, #201, .T. ) ;
#140 = SURFACE_STYLE_USAGE ( .BOTH. , #273 ) ;
#141 = ORIENTED_EDGE ( 'NONE', *, *, #7, .T. ) ;
#142 = DIMENSIONAL_EXPONENTS ( 1.000000000000000000, 0.0000000000000000000, 0.0000000000000000000, 0.0000000000000000000, 0.0000000000000000000, 0.0000000000000000000, 0.0000000000000000000 ) ;
#143 = VERTEX_POINT ( 'NONE', #5 ) ;
#144 = CARTESIAN_POINT ( 'NONE',  ( 0.1092406500000000502, 0.0000000000000000000, 0.6250000000000000000 ) ) ;
#145 = CARTESIAN_POINT ( 'NONE',  ( 8.748579329396911086E-17, 0.0000000000000000000, 0.7143757151439918962 ) ) ;
#146 = ORIENTED_EDGE ( 'NONE', *, *, #15, .T. ) ;
#147 = CARTESIAN_POINT ( 'NONE',  ( 0.0000000000000000000, 0.0000000000000000000, 0.0000000000000000000 ) ) ;
#148 = DIRECTION ( 'NONE',  ( 1.000000000000000000, 0.0000000000000000000, 0.0000000000000000000 ) ) ;
#149 = AXIS2_PLACEMENT_3D ( 'NONE', #108, #114, #306 ) ;
#150 = VERTEX_POINT ( 'NONE', #270 ) ;
#151 = VERTEX_POINT ( 'NONE', #178 ) ;
#152 = CARTESIAN_POINT ( 'NONE',  ( 7.654042494670957853E-17, 0.0000000000000000000, 0.6250000000000000000 ) ) ;
#153 = EDGE_LOOP ( 'NONE', ( #296, #198 ) ) ;
#154 = CYLINDRICAL_SURFACE ( 'NONE', #287, 0.1092406499999999947 ) ;
#155 = DIRECTION ( 'NONE',  ( -0.0000000000000000000, -0.0000000000000000000, -1.000000000000000000 ) ) ;
#156 = CARTESIAN_POINT ( 'NONE',  ( -0.1092406499999999253, 1.337812123592763100E-17, 0.6250000000000000000 ) ) ;
#157 = AXIS2_PLACEMENT_3D ( 'NONE', #218, #2, #41 ) ;
#158 = CARTESIAN_POINT ( 'NONE',  ( 0.1100000000000001948, 1.347111479062090784E-17, 2.500000000000000000 ) ) ;
#159 = EDGE_CURVE ( 'NONE', #194, #150, #211, .T. ) ;
#160 = MECHANICAL_DESIGN_GEOMETRIC_PRESENTATION_REPRESENTATION (  '', ( #63 ), #256 ) ;
#161 = LINE ( 'NONE', #158, #206 ) ;
#162 = EDGE_CURVE ( 'NONE', #151, #127, #76, .T. ) ;
#163 = CONICAL_SURFACE ( 'NONE', #322, 0.1092406499999999947, 0.1745329251994338637 ) ;
#164 = FILL_AREA_STYLE ('',( #319 ) ) ;
#165 = CARTESIAN_POINT ( 'NONE',  ( 0.1100000000000001948, 1.438959988998141146E-17, 2.500000000000000000 ) ) ;
#166 = CARTESIAN_POINT ( 'NONE',  ( -0.1250000000000000000, 0.0000000000000000000, 2.485000000000000320 ) ) ;
#167 = DIRECTION ( 'NONE',  ( 1.000000000000000000, 0.0000000000000000000, 0.0000000000000000000 ) ) ;
#168 =( NAMED_UNIT ( * ) PLANE_ANGLE_UNIT ( ) SI_UNIT ( $, .RADIAN. ) );
#169 = CARTESIAN_POINT ( 'NONE',  ( 0.0000000000000000000, 0.0000000000000000000, 2.485000000000000320 ) ) ;
#170 = UNCERTAINTY_MEASURE_WITH_UNIT (LENGTH_MEASURE( 1.000000000000000082E-05 ), #196, 'distance_accuracy_value', 'NONE');
#171 = DIRECTION ( 'NONE',  ( 1.224646799147353207E-16, 0.0000000000000000000, 1.000000000000000000 ) ) ;
#172 = EDGE_LOOP ( 'NONE', ( #141, #74, #213, #267 ) ) ;
#173 = CIRCLE ( 'NONE', #212, 0.1092406499999999947 ) ;
#174 = AXIS2_PLACEMENT_3D ( 'NONE', #243, #43, #314 ) ;
#175 = DIRECTION ( 'NONE',  ( -1.000000000000000000, 1.224646799147353207E-16, 0.0000000000000000000 ) ) ;
#176 = ORIENTED_EDGE ( 'NONE', *, *, #15, .F. ) ;
#177 = LENGTH_MEASURE_WITH_UNIT ( LENGTH_MEASURE( 0.02539999999999999897 ), #75 );
#178 = CARTESIAN_POINT ( 'NONE',  ( -0.1100000000000001948, 0.0000000000000000000, 2.500000000000000000 ) ) ;
#179 = DIRECTION ( 'NONE',  ( 1.000000000000000000, 0.0000000000000000000, 0.0000000000000000000 ) ) ;
#180 = EDGE_CURVE ( 'NONE', #70, #50, #202, .T. ) ;
#181 = CLOSED_SHELL ( 'NONE', ( #16, #288, #111, #68, #311, #304, #286, #89, #186, #316, #208 ) ) ;
#182 = CIRCLE ( 'NONE', #299, 0.1100000000000001948 ) ;
#183 = VECTOR ( 'NONE', #82, 39.37007874015747433 ) ;
#184 = DIRECTION ( 'NONE',  ( -0.0000000000000000000, -0.0000000000000000000, -1.000000000000000000 ) ) ;
#185 = AXIS2_PLACEMENT_3D ( 'NONE', #12, #112, #188 ) ;
#186 = ADVANCED_FACE ( 'NONE', ( #190 ), #163, .T. ) ;
#187 = MANIFOLD_SOLID_BREP ( 'Fillet1', #181 ) ;
#188 = DIRECTION ( 'NONE',  ( -1.000000000000000000, 0.0000000000000000000, 0.0000000000000000000 ) ) ;
#189 = ORIENTED_EDGE ( 'NONE', *, *, #162, .T. ) ;
#190 = FACE_OUTER_BOUND ( 'NONE', #195, .T. ) ;
#191 = DIRECTION ( 'NONE',  ( -1.000000000000000000, 0.0000000000000000000, 0.0000000000000000000 ) ) ;
#192 =( NAMED_UNIT ( * ) SI_UNIT ( $, .STERADIAN. ) SOLID_ANGLE_UNIT ( ) );
#193 = CARTESIAN_POINT ( 'NONE',  ( 1.337812123592763100E-17, 0.0000000000000000000, 0.1092406499999999947 ) ) ;
#194 = VERTEX_POINT ( 'NONE', #69 ) ;
#195 = EDGE_LOOP ( 'NONE', ( #203, #220, #20, #77 ) ) ;
#196 =( CONVERSION_BASED_UNIT ( 'INCH', #56 ) LENGTH_UNIT ( ) NAMED_UNIT ( #142 ) );
#197 = ORIENTED_EDGE ( 'NONE', *, *, #205, .T. ) ;
#198 = ORIENTED_EDGE ( 'NONE', *, *, #234, .T. ) ;
#199 =( CONVERSION_BASED_UNIT ( 'INCH', #19 ) LENGTH_UNIT ( ) NAMED_UNIT ( #281 ) );
#200 = FACE_OUTER_BOUND ( 'NONE', #26, .T. ) ;
#201 = CIRCLE ( 'NONE', #240, 0.1250000000000000000 ) ;
#202 = LINE ( 'NONE', #215, #264 ) ;
#203 = ORIENTED_EDGE ( 'NONE', *, *, #303, .F. ) ;
#204 = DIMENSIONAL_EXPONENTS ( 1.000000000000000000, 0.0000000000000000000, 0.0000000000000000000, 0.0000000000000000000, 0.0000000000000000000, 0.0000000000000000000, 0.0000000000000000000 ) ;
#205 = EDGE_CURVE ( 'NONE', #127, #97, #92, .T. ) ;
#206 = VECTOR ( 'NONE', #32, 39.37007874015748143 ) ;
#207 = CYLINDRICAL_SURFACE ( 'NONE', #134, 0.1250000000000000000 ) ;
#208 = ADVANCED_FACE ( 'NONE', ( #223 ), #277, .T. ) ;
#209 = DIRECTION ( 'NONE',  ( 0.0000000000000000000, 0.0000000000000000000, -1.000000000000000000 ) ) ;
#210 = CYLINDRICAL_SURFACE ( 'NONE', #305, 0.1250000000000000000 ) ;
#211 = CIRCLE ( 'NONE', #85, 0.1092406499999999947 ) ;
#212 = AXIS2_PLACEMENT_3D ( 'NONE', #64, #219, #191 ) ;
#213 = ORIENTED_EDGE ( 'NONE', *, *, #54, .T. ) ;
#214 = CYLINDRICAL_SURFACE ( 'NONE', #275, 0.1092406499999999947 ) ;
#215 = CARTESIAN_POINT ( 'NONE',  ( 0.1092406499999999947, 1.337812123592763100E-17, -1.337812123592763100E-17 ) ) ;
#216 = EDGE_CURVE ( 'NONE', #151, #40, #182, .T. ) ;
#217 = ORIENTED_EDGE ( 'NONE', *, *, #13, .T. ) ;
#218 = CARTESIAN_POINT ( 'NONE',  ( 7.654042494670957853E-17, 0.0000000000000000000, 0.6250000000000000000 ) ) ;
#219 = DIRECTION ( 'NONE',  ( -1.224646799147353207E-16, -0.0000000000000000000, -1.000000000000000000 ) ) ;
#220 = ORIENTED_EDGE ( 'NONE', *, *, #128, .F. ) ;
#221 = CARTESIAN_POINT ( 'NONE',  ( 7.654042494670957853E-17, 0.0000000000000000000, 0.6250000000000000000 ) ) ;
#222 = SURFACE_STYLE_USAGE ( .BOTH. , #72 ) ;
#223 = FACE_OUTER_BOUND ( 'NONE', #246, .T. ) ;
#224 = LINE ( 'NONE', #3, #106 ) ;
#225 =( CONVERSION_BASED_UNIT ( 'INCH', #177 ) LENGTH_UNIT ( ) NAMED_UNIT ( #204 ) );
#226 =( NAMED_UNIT ( * ) PLANE_ANGLE_UNIT ( ) SI_UNIT ( $, .RADIAN. ) );
#227 = CARTESIAN_POINT ( 'NONE',  ( 0.1250000000000000000, 1.530808498934191509E-17, 2.500000000000000000 ) ) ;
#228 = EDGE_CURVE ( 'NONE', #143, #96, #107, .T. ) ;
#229 = AXIS2_PLACEMENT_3D ( 'NONE', #147, #279, #109 ) ;
#230 = EDGE_CURVE ( 'NONE', #71, #150, #53, .T. ) ;
#231 =( LENGTH_UNIT ( ) NAMED_UNIT ( * ) SI_UNIT ( $, .METRE. ) );
#232 = CIRCLE ( 'NONE', #115, 0.1250000000000000000 ) ;
#233 = FACE_OUTER_BOUND ( 'NONE', #295, .T. ) ;
#234 = EDGE_CURVE ( 'NONE', #40, #151, #86, .T. ) ;
#235 =( GEOMETRIC_REPRESENTATION_CONTEXT ( 3 ) GLOBAL_UNCERTAINTY_ASSIGNED_CONTEXT ( ( #320 ) ) GLOBAL_UNIT_ASSIGNED_CONTEXT ( ( #199, #226, #124 ) ) REPRESENTATION_CONTEXT ( 'NONE', 'WORKASPACE' ) );
#236 = AXIS2_PLACEMENT_3D ( 'NONE', #78, #29, #179 ) ;
#237 = DIRECTION ( 'NONE',  ( 1.000000000000000000, 0.0000000000000000000, 0.0000000000000000000 ) ) ;
#238 = FACE_OUTER_BOUND ( 'NONE', #126, .T. ) ;
#239 = DIRECTION ( 'NONE',  ( -1.224646799147353207E-16, -0.0000000000000000000, -1.000000000000000000 ) ) ;
#240 = AXIS2_PLACEMENT_3D ( 'NONE', #145, #99, #17 ) ;
#241 = COLOUR_RGB ( '',0.7921568627450980005, 0.8196078431372548767, 0.9333333333333333481 ) ;
#242 = PRODUCT_DEFINITION ( 'UNKNOWN', '', #265, #88 ) ;
#243 = CARTESIAN_POINT ( 'NONE',  ( 1.337812123592763100E-17, 0.0000000000000000000, 0.1092406499999999947 ) ) ;
#244 = ORIENTED_EDGE ( 'NONE', *, *, #230, .T. ) ;
#245 = PRESENTATION_STYLE_ASSIGNMENT (( #140 ) ) ;
#246 = EDGE_LOOP ( 'NONE', ( #276, #253, #176 ) ) ;
#247 = DIRECTION ( 'NONE',  ( -0.0000000000000000000, -0.0000000000000000000, -1.000000000000000000 ) ) ;
#248 = DIRECTION ( 'NONE',  ( 1.224646799147353207E-16, 1.000000000000000000, -0.0000000000000000000 ) ) ;
#249 = ORIENTED_EDGE ( 'NONE', *, *, #162, .F. ) ;
#250 = AXIS2_PLACEMENT_3D ( 'NONE', #93, #67, #167 ) ;
#251 = FACE_OUTER_BOUND ( 'NONE', #42, .T. ) ;
#252 = DIRECTION ( 'NONE',  ( 1.224646799147353207E-16, 0.0000000000000000000, 1.000000000000000000 ) ) ;
#253 = ORIENTED_EDGE ( 'NONE', *, *, #105, .T. ) ;
#254 = CARTESIAN_POINT ( 'NONE',  ( 1.337812123592763100E-17, 0.0000000000000000000, 0.1092406499999999947 ) ) ;
#255 = ORIENTED_EDGE ( 'NONE', *, *, #13, .F. ) ;
#256 =( GEOMETRIC_REPRESENTATION_CONTEXT ( 3 ) GLOBAL_UNCERTAINTY_ASSIGNED_CONTEXT ( ( #37 ) ) GLOBAL_UNIT_ASSIGNED_CONTEXT ( ( #225, #168, #192 ) ) REPRESENTATION_CONTEXT ( 'NONE', 'WORKASPACE' ) );
#257 = SURFACE_STYLE_FILL_AREA ( #101 ) ;
#258 = DIRECTION ( 'NONE',  ( -1.000000000000000000, 0.0000000000000000000, 0.0000000000000000000 ) ) ;
#259 = PRODUCT_CONTEXT ( 'NONE', #79, 'mechanical' ) ;
#260 = CONICAL_SURFACE ( 'NONE', #298, 0.1092406499999999947, 0.1745329251994338637 ) ;
#261 = EDGE_CURVE ( 'NONE', #40, #97, #161, .T. ) ;
#262 = DIRECTION ( 'NONE',  ( 0.0000000000000000000, 0.0000000000000000000, -1.000000000000000000 ) ) ;
#263 = COLOUR_RGB ( '',0.7921568627450980005, 0.8196078431372548767, 0.9333333333333333481 ) ;
#264 = VECTOR ( 'NONE', #119, 39.37007874015748143 ) ;
#265 = PRODUCT_DEFINITION_FORMATION_WITH_SPECIFIED_SOURCE ( 'ANY', '', #58, .NOT_KNOWN. ) ;
#266 = CARTESIAN_POINT ( 'NONE',  ( 0.0000000000000000000, 0.0000000000000000000, 2.500000000000000000 ) ) ;
#267 = ORIENTED_EDGE ( 'NONE', *, *, #230, .F. ) ;
#268 = ORIENTED_EDGE ( 'NONE', *, *, #57, .F. ) ;
#269 = VECTOR ( 'NONE', #239, 39.37007874015748143 ) ;
#270 = CARTESIAN_POINT ( 'NONE',  ( -0.1092406499999999669, 0.0000000000000000000, 0.1092406500000000086 ) ) ;
#271 = LINE ( 'NONE', #227, #59 ) ;
#272 = CARTESIAN_POINT ( 'NONE',  ( 0.1092406500000000086, 1.337812123592763100E-17, 0.1092406499999999669 ) ) ;
#273 = SURFACE_SIDE_STYLE ('',( #324 ) ) ;
#274 = FACE_OUTER_BOUND ( 'NONE', #323, .T. ) ;
#275 = AXIS2_PLACEMENT_3D ( 'NONE', #10, #80, #30 ) ;
#276 = ORIENTED_EDGE ( 'NONE', *, *, #159, .F. ) ;
#277 = SPHERICAL_SURFACE ( 'NONE', #282, 0.1092406499999999947 ) ;
#278 = DIRECTION ( 'NONE',  ( -1.000000000000000000, 0.0000000000000000000, 1.562975866621229869E-16 ) ) ;
#279 = DIRECTION ( 'NONE',  ( 0.0000000000000000000, 0.0000000000000000000, 1.000000000000000000 ) ) ;
#280 =( LENGTH_UNIT ( ) NAMED_UNIT ( * ) SI_UNIT ( $, .METRE. ) );
#281 = DIMENSIONAL_EXPONENTS ( 1.000000000000000000, 0.0000000000000000000, 0.0000000000000000000, 0.0000000000000000000, 0.0000000000000000000, 0.0000000000000000000, 0.0000000000000000000 ) ;
#282 = AXIS2_PLACEMENT_3D ( 'NONE', #254, #27, #301 ) ;
#283 = DIRECTION ( 'NONE',  ( 0.0000000000000000000, 0.0000000000000000000, 1.000000000000000000 ) ) ;
#284 = DIRECTION ( 'NONE',  ( -1.000000000000000000, 0.0000000000000000000, 0.0000000000000000000 ) ) ;
#285 = CONICAL_SURFACE ( 'NONE', #47, 0.1100000000000001948, 0.7853981633974517207 ) ;
#286 = ADVANCED_FACE ( 'NONE', ( #136 ), #11, .T. ) ;
#287 = AXIS2_PLACEMENT_3D ( 'NONE', #123, #300, #4 ) ;
#288 = ADVANCED_FACE ( 'NONE', ( #36 ), #214, .T. ) ;
#289 = CARTESIAN_POINT ( 'NONE',  ( 0.0000000000000000000, 0.0000000000000000000, 2.485000000000000320 ) ) ;
#290 = DIRECTION ( 'NONE',  ( 1.224646799147353207E-16, 0.0000000000000000000, 1.000000000000000000 ) ) ;
#291 = CARTESIAN_POINT ( 'NONE',  ( 1.337812123592763100E-17, 0.0000000000000000000, 0.1092406499999999947 ) ) ;
#292 = PRESENTATION_LAYER_ASSIGNMENT (  '', '', ( #309 ) ) ;
#293 = ORIENTED_EDGE ( 'NONE', *, *, #261, .T. ) ;
#294 = PRESENTATION_STYLE_ASSIGNMENT (( #222 ) ) ;
#295 = EDGE_LOOP ( 'NONE', ( #255, #118, #103, #121 ) ) ;
#296 = ORIENTED_EDGE ( 'NONE', *, *, #216, .T. ) ;
#297 = CARTESIAN_POINT ( 'NONE',  ( 0.0000000000000000000, 0.0000000000000000000, 2.500000000000000000 ) ) ;
#298 = AXIS2_PLACEMENT_3D ( 'NONE', #152, #61, #22 ) ;
#299 = AXIS2_PLACEMENT_3D ( 'NONE', #73, #52, #83 ) ;
#300 = DIRECTION ( 'NONE',  ( -1.224646799147353207E-16, -0.0000000000000000000, -1.000000000000000000 ) ) ;
#301 = DIRECTION ( 'NONE',  ( 1.000000000000000000, 0.0000000000000000000, 0.0000000000000000000 ) ) ;
#302 = EDGE_LOOP ( 'NONE', ( #197, #217, #1, #65 ) ) ;
#303 = EDGE_CURVE ( 'NONE', #71, #96, #8, .T. ) ;
#304 = ADVANCED_FACE ( 'NONE', ( #233 ), #207, .T. ) ;
#305 = AXIS2_PLACEMENT_3D ( 'NONE', #84, #155, #258 ) ;
#306 = DIRECTION ( 'NONE',  ( 1.000000000000000000, 0.0000000000000000000, 0.0000000000000000000 ) ) ;
#307 = DIRECTION ( 'NONE',  ( -1.000000000000000000, 0.0000000000000000000, 0.0000000000000000000 ) ) ;
#308 = CARTESIAN_POINT ( 'NONE',  ( 0.0000000000000000000, 0.0000000000000000000, 2.500000000000000000 ) ) ;
#309 = STYLED_ITEM ( 'NONE', ( #245 ), #187 ) ;
#310 = CARTESIAN_POINT ( 'NONE',  ( -0.1092406499999999253, 1.434310311263477304E-17, 0.6250000000000000000 ) ) ;
#311 = ADVANCED_FACE ( 'NONE', ( #110 ), #210, .T. ) ;
#312 = CIRCLE ( 'NONE', #174, 0.1092406499999999947 ) ;
#313 = EDGE_CURVE ( 'NONE', #127, #96, #33, .T. ) ;
#314 = DIRECTION ( 'NONE',  ( 0.0000000000000000000, 0.0000000000000000000, -1.000000000000000000 ) ) ;
#315 = ORIENTED_EDGE ( 'NONE', *, *, #128, .T. ) ;
#316 = ADVANCED_FACE ( 'NONE', ( #130 ), #154, .T. ) ;
#317 = ORIENTED_EDGE ( 'NONE', *, *, #159, .T. ) ;
#318 = APPLICATION_PROTOCOL_DEFINITION ( 'draft international standard', 'automotive_design', 1998, #122 ) ;
#319 = FILL_AREA_STYLE_COLOUR ( '', #263 ) ;
#320 = UNCERTAINTY_MEASURE_WITH_UNIT (LENGTH_MEASURE( 1.000000000000000082E-05 ), #199, 'distance_accuracy_value', 'NONE');
#321 = SPHERICAL_SURFACE ( 'NONE', #250, 0.1092406499999999947 ) ;
#322 = AXIS2_PLACEMENT_3D ( 'NONE', #221, #290, #102 ) ;
#323 = EDGE_LOOP ( 'NONE', ( #117, #317, #44 ) ) ;
#324 = SURFACE_STYLE_FILL_AREA ( #164 ) ;
#325 = CARTESIAN_POINT ( 'NONE',  ( 1.337812123592763100E-17, 0.0000000000000000000, 0.1092406499999999947 ) ) ;
ENDSEC;
END-ISO-10303-21;
