ISO-10303-21;
HEADER;
FILE_DESCRIPTION (( 'STEP AP214' ),
    '1' );
FILE_NAME ('26367.STEP',
    '2023-06-22T17:44:00',
    ( '' ),
    ( '' ),
    'SwSTEP 2.0',
    'SolidWorks 2023',
    '' );
FILE_SCHEMA (( 'AUTOMOTIVE_DESIGN' ));
ENDSEC;

DATA;
#1 = MECHANICAL_DESIGN_GEOMETRIC_PRESENTATION_REPRESENTATION (  '', ( #220 ), #54 ) ;
#2 = SURFACE_STYLE_FILL_AREA ( #123 ) ;
#3 = ORIENTED_EDGE ( 'NONE', *, *, #256, .F. ) ;
#4 = ORIENTED_EDGE ( 'NONE', *, *, #256, .T. ) ;
#5 = AXIS2_PLACEMENT_3D ( 'NONE', #14, #128, #163 ) ;
#6 = VERTEX_POINT ( 'NONE', #100 ) ;
#7 =( NAMED_UNIT ( * ) PLANE_ANGLE_UNIT ( ) SI_UNIT ( $, .RADIAN. ) );
#8 = PRESENTATION_STYLE_ASSIGNMENT (( #25 ) ) ;
#9 = ADVANCED_FACE ( 'NONE', ( #218 ), #183, .F. ) ;
#10 = FILL_AREA_STYLE_COLOUR ( '', #48 ) ;
#11 = DIRECTION ( 'NONE',  ( -1.000000000000000000, 0.000000000000000000, 0.000000000000000000 ) ) ;
#12 = COLOUR_RGB ( '',1.000000000000000000, 0.000000000000000000, 0.000000000000000000 ) ;
#13 = MECHANICAL_DESIGN_GEOMETRIC_PRESENTATION_REPRESENTATION (  '', ( #233 ), #157 ) ;
#14 = CARTESIAN_POINT ( 'NONE',  ( -6.123233995736759873E-17, 3.500000000000000000, 0.000000000000000000 ) ) ;
#15 = FILL_AREA_STYLE_COLOUR ( '', #32 ) ;
#16 =( CONVERSION_BASED_UNIT ( 'INCH', #37 ) LENGTH_UNIT ( ) NAMED_UNIT ( #197 ) );
#17 = CARTESIAN_POINT ( 'NONE',  ( -0.3750000000000001665, 3.500000000000000000, 0.000000000000000000 ) ) ;
#18 = DIRECTION ( 'NONE',  ( -0.000000000000000000, -1.000000000000000000, -0.000000000000000000 ) ) ;
#19 = CLOSED_SHELL ( 'NONE', ( #181, #55, #297, #9 ) ) ;
#20 = CARTESIAN_POINT ( 'NONE',  ( 0.000000000000000000, 0.000000000000000000, 0.000000000000000000 ) ) ;
#21 = SURFACE_STYLE_FILL_AREA ( #170 ) ;
#22 = DIMENSIONAL_EXPONENTS ( 1.000000000000000000, 0.000000000000000000, 0.000000000000000000, 0.000000000000000000, 0.000000000000000000, 0.000000000000000000, 0.000000000000000000 ) ;
#23 = SURFACE_STYLE_FILL_AREA ( #142 ) ;
#24 = FACE_OUTER_BOUND ( 'NONE', #126, .T. ) ;
#25 = SURFACE_STYLE_USAGE ( .BOTH. , #129 ) ;
#26 = CARTESIAN_POINT ( 'NONE',  ( -6.123233995736759873E-17, 3.500000000000000000, 0.000000000000000000 ) ) ;
#27 = ORIENTED_EDGE ( 'NONE', *, *, #161, .T. ) ;
#28 =( GEOMETRIC_REPRESENTATION_CONTEXT ( 3 ) GLOBAL_UNCERTAINTY_ASSIGNED_CONTEXT ( ( #243 ) ) GLOBAL_UNIT_ASSIGNED_CONTEXT ( ( #34, #35, #62 ) ) REPRESENTATION_CONTEXT ( 'NONE', 'WORKASPACE' ) );
#29 = DIRECTION ( 'NONE',  ( -1.000000000000000000, 0.000000000000000000, 0.000000000000000000 ) ) ;
#30 = EDGE_LOOP ( 'NONE', ( #3, #122, #288, #221 ) ) ;
#31 = EDGE_LOOP ( 'NONE', ( #70, #263 ) ) ;
#32 = COLOUR_RGB ( '',0.7921568627450980005, 0.8196078431372548767, 0.9333333333333333481 ) ;
#33 =( GEOMETRIC_REPRESENTATION_CONTEXT ( 3 ) GLOBAL_UNCERTAINTY_ASSIGNED_CONTEXT ( ( #59 ) ) GLOBAL_UNIT_ASSIGNED_CONTEXT ( ( #67, #88, #301 ) ) REPRESENTATION_CONTEXT ( 'NONE', 'WORKASPACE' ) );
#34 =( CONVERSION_BASED_UNIT ( 'INCH', #61 ) LENGTH_UNIT ( ) NAMED_UNIT ( #280 ) );
#35 =( NAMED_UNIT ( * ) PLANE_ANGLE_UNIT ( ) SI_UNIT ( $, .RADIAN. ) );
#36 = UNCERTAINTY_MEASURE_WITH_UNIT (LENGTH_MEASURE( 1.000000000000000082E-05 ), #40, 'distance_accuracy_value', 'NONE');
#37 = LENGTH_MEASURE_WITH_UNIT ( LENGTH_MEASURE( 0.02539999999999999897 ), #41 );
#38 = LENGTH_MEASURE_WITH_UNIT ( LENGTH_MEASURE( 0.02539999999999999897 ), #85 );
#39 = VECTOR ( 'NONE', #306, 39.37007874015748143 ) ;
#40 =( CONVERSION_BASED_UNIT ( 'INCH', #131 ) LENGTH_UNIT ( ) NAMED_UNIT ( #171 ) );
#41 =( LENGTH_UNIT ( ) NAMED_UNIT ( * ) SI_UNIT ( $, .METRE. ) );
#42 = CARTESIAN_POINT ( 'NONE',  ( 4.592425496802575451E-17, 0.000000000000000000, 0.3750000000000000555 ) ) ;
#43 = CIRCLE ( 'NONE', #173, 0.3750000000000000555 ) ;
#44 = CIRCLE ( 'NONE', #60, 0.3750000000000000555 ) ;
#45 = EDGE_CURVE ( 'NONE', #75, #124, #43, .T. ) ;
#46 = DIRECTION ( 'NONE',  ( 0.000000000000000000, -0.000000000000000000, 1.000000000000000000 ) ) ;
#47 = SURFACE_STYLE_USAGE ( .BOTH. , #172 ) ;
#48 = COLOUR_RGB ( '',1.000000000000000000, 0.000000000000000000, 0.000000000000000000 ) ;
#49 = FACE_OUTER_BOUND ( 'NONE', #97, .T. ) ;
#50 = EDGE_LOOP ( 'NONE', ( #99, #258 ) ) ;
#51 = CARTESIAN_POINT ( 'NONE',  ( -6.123233995736759873E-17, 3.500000000000000000, 0.000000000000000000 ) ) ;
#52 = ORIENTED_EDGE ( 'NONE', *, *, #84, .F. ) ;
#53 = CARTESIAN_POINT ( 'NONE',  ( 0.3750000000000000555, 1.250000000000000000, 4.592425496802576068E-17 ) ) ;
#54 =( GEOMETRIC_REPRESENTATION_CONTEXT ( 3 ) GLOBAL_UNCERTAINTY_ASSIGNED_CONTEXT ( ( #80 ) ) GLOBAL_UNIT_ASSIGNED_CONTEXT ( ( #284, #255, #110 ) ) REPRESENTATION_CONTEXT ( 'NONE', 'WORKASPACE' ) );
#55 = ADVANCED_FACE ( 'NONE', ( #185 ), #187, .F. ) ;
#56 = ORIENTED_EDGE ( 'NONE', *, *, #273, .T. ) ;
#57 = VERTEX_POINT ( 'NONE', #130 ) ;
#58 = DIRECTION ( 'NONE',  ( -0.000000000000000000, -1.000000000000000000, -0.000000000000000000 ) ) ;
#59 = UNCERTAINTY_MEASURE_WITH_UNIT (LENGTH_MEASURE( 1.000000000000000082E-05 ), #67, 'distance_accuracy_value', 'NONE');
#60 = AXIS2_PLACEMENT_3D ( 'NONE', #74, #179, #152 ) ;
#61 = LENGTH_MEASURE_WITH_UNIT ( LENGTH_MEASURE( 0.02539999999999999897 ), #162 );
#62 =( NAMED_UNIT ( * ) SI_UNIT ( $, .STERADIAN. ) SOLID_ANGLE_UNIT ( ) );
#63 = PRODUCT_CONTEXT ( 'NONE', #182, 'mechanical' ) ;
#64 = MECHANICAL_DESIGN_GEOMETRIC_PRESENTATION_REPRESENTATION (  '', ( #195 ), #33 ) ;
#65 = SHAPE_DEFINITION_REPRESENTATION ( #102, #77 ) ;
#66 = DIRECTION ( 'NONE',  ( 0.000000000000000000, 1.000000000000000000, 0.000000000000000000 ) ) ;
#67 =( CONVERSION_BASED_UNIT ( 'INCH', #254 ) LENGTH_UNIT ( ) NAMED_UNIT ( #22 ) );
#68 = SURFACE_STYLE_USAGE ( .BOTH. , #117 ) ;
#69 = FILL_AREA_STYLE_COLOUR ( '', #12 ) ;
#70 = ORIENTED_EDGE ( 'NONE', *, *, #45, .F. ) ;
#71 = AXIS2_PLACEMENT_3D ( 'NONE', #269, #259, #206 ) ;
#72 = ORIENTED_EDGE ( 'NONE', *, *, #154, .F. ) ;
#73 = FILL_AREA_STYLE ('',( #235 ) ) ;
#74 = CARTESIAN_POINT ( 'NONE',  ( 0.000000000000000000, 0.000000000000000000, 0.000000000000000000 ) ) ;
#75 = VERTEX_POINT ( 'NONE', #136 ) ;
#76 = AXIS2_PLACEMENT_3D ( 'NONE', #20, #251, #109 ) ;
#77 = ADVANCED_BREP_SHAPE_REPRESENTATION ( '26367', ( #196, #78, #145 ), #257 ) ;
#78 = MANIFOLD_SOLID_BREP ( 'Revolve - Tool Body (Straight Shanked)', #19 ) ;
#79 = CYLINDRICAL_SURFACE ( 'NONE', #261, 0.3750000000000000555 ) ;
#80 = UNCERTAINTY_MEASURE_WITH_UNIT (LENGTH_MEASURE( 1.000000000000000082E-05 ), #284, 'distance_accuracy_value', 'NONE');
#81 = PRESENTATION_LAYER_ASSIGNMENT (  '', '', ( #195 ) ) ;
#82 = SURFACE_SIDE_STYLE ('',( #207 ) ) ;
#83 = SURFACE_STYLE_USAGE ( .BOTH. , #268 ) ;
#84 = EDGE_CURVE ( 'NONE', #6, #150, #277, .T. ) ;
#85 =( LENGTH_UNIT ( ) NAMED_UNIT ( * ) SI_UNIT ( $, .METRE. ) );
#86 = LINE ( 'NONE', #166, #241 ) ;
#87 = CIRCLE ( 'NONE', #247, 0.3750000000000000555 ) ;
#88 =( NAMED_UNIT ( * ) PLANE_ANGLE_UNIT ( ) SI_UNIT ( $, .RADIAN. ) );
#89 = DIRECTION ( 'NONE',  ( -2.721437331438560697E-17, 1.000000000000000000, -0.000000000000000000 ) ) ;
#90 = DIRECTION ( 'NONE',  ( 0.000000000000000000, -1.000000000000000000, -0.000000000000000000 ) ) ;
#91 = LINE ( 'NONE', #229, #212 ) ;
#92 =( LENGTH_UNIT ( ) NAMED_UNIT ( * ) SI_UNIT ( $, .METRE. ) );
#93 = CIRCLE ( 'NONE', #71, 0.3750000000000000555 ) ;
#94 =( CONVERSION_BASED_UNIT ( 'INCH', #147 ) LENGTH_UNIT ( ) NAMED_UNIT ( #307 ) );
#95 =( LENGTH_UNIT ( ) NAMED_UNIT ( * ) SI_UNIT ( $, .METRE. ) );
#96 = COLOUR_RGB ( '',1.000000000000000000, 0.000000000000000000, 0.000000000000000000 ) ;
#97 = EDGE_LOOP ( 'NONE', ( #72, #27, #176, #291 ) ) ;
#98 = FILL_AREA_STYLE_COLOUR ( '', #286 ) ;
#99 = ORIENTED_EDGE ( 'NONE', *, *, #273, .F. ) ;
#100 = CARTESIAN_POINT ( 'NONE',  ( -0.3750000000000001665, 3.500000000000000000, 0.000000000000000000 ) ) ;
#101 = AXIS2_PLACEMENT_3D ( 'NONE', #248, #188, #275 ) ;
#102 = PRODUCT_DEFINITION_SHAPE ( 'NONE', 'NONE',  #132 ) ;
#103 = FILL_AREA_STYLE ('',( #10 ) ) ;
#104 = CARTESIAN_POINT ( 'NONE',  ( 1.388666465427643771E-34, 1.250000000000000000, 0.000000000000000000 ) ) ;
#105 = AXIS2_PLACEMENT_3D ( 'NONE', #204, #153, #240 ) ;
#106 = CARTESIAN_POINT ( 'NONE',  ( 0.000000000000000000, 1.250000000000000000, 0.000000000000000000 ) ) ;
#107 = PRESENTATION_STYLE_ASSIGNMENT (( #83 ) ) ;
#108 = ADVANCED_FACE ( 'NONE', ( #299 ), #79, .T. ) ;
#109 = DIRECTION ( 'NONE',  ( 0.000000000000000000, 0.000000000000000000, -1.000000000000000000 ) ) ;
#110 =( NAMED_UNIT ( * ) SI_UNIT ( $, .STERADIAN. ) SOLID_ANGLE_UNIT ( ) );
#111 = PRESENTATION_LAYER_ASSIGNMENT (  '', '', ( #215 ) ) ;
#112 =( GEOMETRIC_REPRESENTATION_CONTEXT ( 3 ) GLOBAL_UNCERTAINTY_ASSIGNED_CONTEXT ( ( #133 ) ) GLOBAL_UNIT_ASSIGNED_CONTEXT ( ( #294, #7, #246 ) ) REPRESENTATION_CONTEXT ( 'NONE', 'WORKASPACE' ) );
#113 = DIRECTION ( 'NONE',  ( -2.721437331438560389E-17, 1.000000000000000000, -0.000000000000000000 ) ) ;
#114 = LENGTH_MEASURE_WITH_UNIT ( LENGTH_MEASURE( 0.02539999999999999897 ), #308 );
#115 = DIRECTION ( 'NONE',  ( 0.000000000000000000, 0.000000000000000000, -1.000000000000000000 ) ) ;
#116 = DIMENSIONAL_EXPONENTS ( 1.000000000000000000, 0.000000000000000000, 0.000000000000000000, 0.000000000000000000, 0.000000000000000000, 0.000000000000000000, 0.000000000000000000 ) ;
#117 = SURFACE_SIDE_STYLE ('',( #23 ) ) ;
#118 = CIRCLE ( 'NONE', #292, 0.3750000000000000555 ) ;
#119 = ADVANCED_FACE ( 'NONE', ( #156 ), #205, .T. ) ;
#120 = ADVANCED_FACE ( 'NONE', ( #279 ), #138, .T. ) ;
#121 = DIRECTION ( 'NONE',  ( -2.721437331438560389E-17, 1.000000000000000000, -0.000000000000000000 ) ) ;
#122 = ORIENTED_EDGE ( 'NONE', *, *, #225, .T. ) ;
#123 = FILL_AREA_STYLE ('',( #98 ) ) ;
#124 = VERTEX_POINT ( 'NONE', #250 ) ;
#125 = ORIENTED_EDGE ( 'NONE', *, *, #214, .F. ) ;
#126 = EDGE_LOOP ( 'NONE', ( #56, #4, #52, #125 ) ) ;
#127 = STYLED_ITEM ( 'NONE', ( #270 ), #108 ) ;
#128 = DIRECTION ( 'NONE',  ( -2.721437331438560389E-17, 1.000000000000000000, -0.000000000000000000 ) ) ;
#129 = SURFACE_SIDE_STYLE ('',( #244 ) ) ;
#130 = CARTESIAN_POINT ( 'NONE',  ( 0.000000000000000000, 0.000000000000000000, -0.3750000000000000555 ) ) ;
#131 = LENGTH_MEASURE_WITH_UNIT ( LENGTH_MEASURE( 0.02539999999999999897 ), #190 );
#132 = PRODUCT_DEFINITION ( 'UNKNOWN', '', #262, #177 ) ;
#133 = UNCERTAINTY_MEASURE_WITH_UNIT (LENGTH_MEASURE( 1.000000000000000082E-05 ), #294, 'distance_accuracy_value', 'NONE');
#134 = CIRCLE ( 'NONE', #282, 0.3750000000000001110 ) ;
#135 =( NAMED_UNIT ( * ) SI_UNIT ( $, .STERADIAN. ) SOLID_ANGLE_UNIT ( ) );
#136 = CARTESIAN_POINT ( 'NONE',  ( 0.000000000000000000, 1.250000000000000000, -0.3750000000000000555 ) ) ;
#137 = LINE ( 'NONE', #17, #302 ) ;
#138 = PLANE ( 'NONE',  #238 ) ;
#139 = DIRECTION ( 'NONE',  ( 0.000000000000000000, 0.000000000000000000, 1.000000000000000000 ) ) ;
#140 = MECHANICAL_DESIGN_GEOMETRIC_PRESENTATION_REPRESENTATION (  '', ( #127 ), #112 ) ;
#141 = STYLED_ITEM ( 'NONE', ( #8 ), #211 ) ;
#142 = FILL_AREA_STYLE ('',( #283 ) ) ;
#143 = DIMENSIONAL_EXPONENTS ( 1.000000000000000000, 0.000000000000000000, 0.000000000000000000, 0.000000000000000000, 0.000000000000000000, 0.000000000000000000, 0.000000000000000000 ) ;
#144 = EDGE_CURVE ( 'NONE', #75, #57, #91, .T. ) ;
#145 = AXIS2_PLACEMENT_3D ( 'NONE', #303, #139, #210 ) ;
#146 = ORIENTED_EDGE ( 'NONE', *, *, #193, .T. ) ;
#147 = LENGTH_MEASURE_WITH_UNIT ( LENGTH_MEASURE( 0.02539999999999999897 ), #95 );
#148 = VERTEX_POINT ( 'NONE', #213 ) ;
#149 =( GEOMETRIC_REPRESENTATION_CONTEXT ( 3 ) GLOBAL_UNCERTAINTY_ASSIGNED_CONTEXT ( ( #36 ) ) GLOBAL_UNIT_ASSIGNED_CONTEXT ( ( #40, #164, #135 ) ) REPRESENTATION_CONTEXT ( 'NONE', 'WORKASPACE' ) );
#150 = VERTEX_POINT ( 'NONE', #304 ) ;
#151 = COLOUR_RGB ( '',1.000000000000000000, 0.000000000000000000, 0.000000000000000000 ) ;
#152 = DIRECTION ( 'NONE',  ( 0.000000000000000000, 0.000000000000000000, -1.000000000000000000 ) ) ;
#153 = DIRECTION ( 'NONE',  ( 2.721437331438560697E-17, -1.000000000000000000, 0.000000000000000000 ) ) ;
#154 = EDGE_CURVE ( 'NONE', #124, #239, #252, .T. ) ;
#155 = PRODUCT ( '26367', '26367', '', ( #63 ) ) ;
#156 = FACE_OUTER_BOUND ( 'NONE', #260, .T. ) ;
#157 =( GEOMETRIC_REPRESENTATION_CONTEXT ( 3 ) GLOBAL_UNCERTAINTY_ASSIGNED_CONTEXT ( ( #159 ) ) GLOBAL_UNIT_ASSIGNED_CONTEXT ( ( #94, #202, #290 ) ) REPRESENTATION_CONTEXT ( 'NONE', 'WORKASPACE' ) );
#158 = DIRECTION ( 'NONE',  ( -1.000000000000000000, -2.721437331438560697E-17, 0.000000000000000000 ) ) ;
#159 = UNCERTAINTY_MEASURE_WITH_UNIT (LENGTH_MEASURE( 1.000000000000000082E-05 ), #94, 'distance_accuracy_value', 'NONE');
#160 = DIRECTION ( 'NONE',  ( -2.721437331438560389E-17, 1.000000000000000000, -0.000000000000000000 ) ) ;
#161 = EDGE_CURVE ( 'NONE', #124, #75, #208, .T. ) ;
#162 =( LENGTH_UNIT ( ) NAMED_UNIT ( * ) SI_UNIT ( $, .METRE. ) );
#163 = DIRECTION ( 'NONE',  ( -1.000000000000000000, 0.000000000000000000, 0.000000000000000000 ) ) ;
#164 =( NAMED_UNIT ( * ) PLANE_ANGLE_UNIT ( ) SI_UNIT ( $, .RADIAN. ) );
#165 = CARTESIAN_POINT ( 'NONE',  ( 0.000000000000000000, 1.250000000000000000, 0.000000000000000000 ) ) ;
#166 = CARTESIAN_POINT ( 'NONE',  ( 0.3750000000000000555, 3.500000000000000000, 4.592425496802576068E-17 ) ) ;
#167 = CARTESIAN_POINT ( 'NONE',  ( 0.000000000000000000, 0.000000000000000000, 0.000000000000000000 ) ) ;
#168 = MECHANICAL_DESIGN_GEOMETRIC_PRESENTATION_REPRESENTATION (  '', ( #215 ), #28 ) ;
#169 = MECHANICAL_DESIGN_GEOMETRIC_PRESENTATION_REPRESENTATION (  '', ( #141 ), #149 ) ;
#170 = FILL_AREA_STYLE ('',( #69 ) ) ;
#171 = DIMENSIONAL_EXPONENTS ( 1.000000000000000000, 0.000000000000000000, 0.000000000000000000, 0.000000000000000000, 0.000000000000000000, 0.000000000000000000, 0.000000000000000000 ) ;
#172 = SURFACE_SIDE_STYLE ('',( #21 ) ) ;
#173 = AXIS2_PLACEMENT_3D ( 'NONE', #165, #209, #276 ) ;
#174 = SURFACE_SIDE_STYLE ('',( #2 ) ) ;
#175 = VERTEX_POINT ( 'NONE', #53 ) ;
#176 = ORIENTED_EDGE ( 'NONE', *, *, #144, .T. ) ;
#177 = PRODUCT_DEFINITION_CONTEXT ( 'detailed design', #198, 'design' ) ;
#178 = CYLINDRICAL_SURFACE ( 'NONE', #224, 0.3750000000000001110 ) ;
#179 = DIRECTION ( 'NONE',  ( -0.000000000000000000, -1.000000000000000000, -0.000000000000000000 ) ) ;
#180 = ORIENTED_EDGE ( 'NONE', *, *, #203, .T. ) ;
#181 = ADVANCED_FACE ( 'NONE', ( #24 ), #178, .T. ) ;
#182 = APPLICATION_CONTEXT ( 'automotive_design' ) ;
#183 = PLANE ( 'NONE',  #105 ) ;
#184 = SURFACE_STYLE_FILL_AREA ( #242 ) ;
#185 = FACE_OUTER_BOUND ( 'NONE', #50, .T. ) ;
#186 =( NAMED_UNIT ( * ) PLANE_ANGLE_UNIT ( ) SI_UNIT ( $, .RADIAN. ) );
#187 = PLANE ( 'NONE',  #199 ) ;
#188 = DIRECTION ( 'NONE',  ( -2.721437331438560389E-17, 1.000000000000000000, -0.000000000000000000 ) ) ;
#189 = CARTESIAN_POINT ( 'NONE',  ( 0.000000000000000000, 1.250000000000000000, 0.000000000000000000 ) ) ;
#190 =( LENGTH_UNIT ( ) NAMED_UNIT ( * ) SI_UNIT ( $, .METRE. ) );
#191 = PRESENTATION_STYLE_ASSIGNMENT (( #47 ) ) ;
#192 = CARTESIAN_POINT ( 'NONE',  ( 0.000000000000000000, 1.250000000000000000, 0.000000000000000000 ) ) ;
#193 = EDGE_CURVE ( 'NONE', #57, #239, #93, .T. ) ;
#194 = EDGE_CURVE ( 'NONE', #150, #6, #134, .T. ) ;
#195 = STYLED_ITEM ( 'NONE', ( #231 ), #119 ) ;
#196 = MANIFOLD_SOLID_BREP ( 'Revolve - Cutting Edge', #217 ) ;
#197 = DIMENSIONAL_EXPONENTS ( 1.000000000000000000, 0.000000000000000000, 0.000000000000000000, 0.000000000000000000, 0.000000000000000000, 0.000000000000000000, 0.000000000000000000 ) ;
#198 = APPLICATION_CONTEXT ( 'automotive_design' ) ;
#199 = AXIS2_PLACEMENT_3D ( 'NONE', #104, #223, #158 ) ;
#200 = PRESENTATION_LAYER_ASSIGNMENT (  '', '', ( #233 ) ) ;
#201 = ORIENTED_EDGE ( 'NONE', *, *, #144, .F. ) ;
#202 =( NAMED_UNIT ( * ) PLANE_ANGLE_UNIT ( ) SI_UNIT ( $, .RADIAN. ) );
#203 = EDGE_CURVE ( 'NONE', #239, #57, #44, .T. ) ;
#204 = CARTESIAN_POINT ( 'NONE',  ( 0.3750000000000000555, 3.500000000000000000, 0.000000000000000000 ) ) ;
#205 = PLANE ( 'NONE',  #253 ) ;
#206 = DIRECTION ( 'NONE',  ( 0.000000000000000000, 0.000000000000000000, -1.000000000000000000 ) ) ;
#207 = SURFACE_STYLE_FILL_AREA ( #103 ) ;
#208 = CIRCLE ( 'NONE', #267, 0.3750000000000000555 ) ;
#209 = DIRECTION ( 'NONE',  ( -0.000000000000000000, -1.000000000000000000, -0.000000000000000000 ) ) ;
#210 = DIRECTION ( 'NONE',  ( 1.000000000000000000, 0.000000000000000000, 0.000000000000000000 ) ) ;
#211 = ADVANCED_FACE ( 'NONE', ( #49 ), #289, .T. ) ;
#212 = VECTOR ( 'NONE', #18, 39.37007874015748143 ) ;
#213 = CARTESIAN_POINT ( 'NONE',  ( -0.3750000000000000555, 1.250000000000000000, 0.000000000000000000 ) ) ;
#214 = EDGE_CURVE ( 'NONE', #148, #6, #137, .T. ) ;
#215 = STYLED_ITEM ( 'NONE', ( #107 ), #78 ) ;
#216 = ORIENTED_EDGE ( 'NONE', *, *, #154, .T. ) ;
#217 = CLOSED_SHELL ( 'NONE', ( #108, #120, #211, #119 ) ) ;
#218 = FACE_OUTER_BOUND ( 'NONE', #285, .T. ) ;
#219 = EDGE_LOOP ( 'NONE', ( #264, #216, #236, #201 ) ) ;
#220 = STYLED_ITEM ( 'NONE', ( #191 ), #120 ) ;
#221 = ORIENTED_EDGE ( 'NONE', *, *, #194, .F. ) ;
#222 = SURFACE_STYLE_USAGE ( .BOTH. , #82 ) ;
#223 = DIRECTION ( 'NONE',  ( -2.721437331438560697E-17, 1.000000000000000000, 0.000000000000000000 ) ) ;
#224 = AXIS2_PLACEMENT_3D ( 'NONE', #51, #121, #295 ) ;
#225 = EDGE_CURVE ( 'NONE', #175, #148, #87, .T. ) ;
#226 = UNCERTAINTY_MEASURE_WITH_UNIT (LENGTH_MEASURE( 1.000000000000000082E-05 ), #16, 'distance_accuracy_value', 'NONE');
#227 = CARTESIAN_POINT ( 'NONE',  ( 4.592425496802575451E-17, 0.000000000000000000, 0.3750000000000000555 ) ) ;
#228 = FACE_OUTER_BOUND ( 'NONE', #30, .T. ) ;
#229 = CARTESIAN_POINT ( 'NONE',  ( 0.000000000000000000, 0.000000000000000000, -0.3750000000000000555 ) ) ;
#230 = PRESENTATION_LAYER_ASSIGNMENT (  '', '', ( #220 ) ) ;
#231 = PRESENTATION_STYLE_ASSIGNMENT (( #68 ) ) ;
#232 = DIRECTION ( 'NONE',  ( 0.000000000000000000, 0.000000000000000000, -1.000000000000000000 ) ) ;
#233 = STYLED_ITEM ( 'NONE', ( #287 ), #196 ) ;
#234 = DIRECTION ( 'NONE',  ( -2.721437331438560389E-17, 1.000000000000000000, -0.000000000000000000 ) ) ;
#235 = FILL_AREA_STYLE_COLOUR ( '', #151 ) ;
#236 = ORIENTED_EDGE ( 'NONE', *, *, #193, .F. ) ;
#237 = SURFACE_STYLE_USAGE ( .BOTH. , #174 ) ;
#238 = AXIS2_PLACEMENT_3D ( 'NONE', #189, #66, #46 ) ;
#239 = VERTEX_POINT ( 'NONE', #227 ) ;
#240 = DIRECTION ( 'NONE',  ( 1.000000000000000000, 2.721437331438560697E-17, 0.000000000000000000 ) ) ;
#241 = VECTOR ( 'NONE', #89, 39.37007874015748143 ) ;
#242 = FILL_AREA_STYLE ('',( #15 ) ) ;
#243 = UNCERTAINTY_MEASURE_WITH_UNIT (LENGTH_MEASURE( 1.000000000000000082E-05 ), #34, 'distance_accuracy_value', 'NONE');
#244 = SURFACE_STYLE_FILL_AREA ( #73 ) ;
#245 = CYLINDRICAL_SURFACE ( 'NONE', #101, 0.3750000000000001110 ) ;
#246 =( NAMED_UNIT ( * ) SI_UNIT ( $, .STERADIAN. ) SOLID_ANGLE_UNIT ( ) );
#247 = AXIS2_PLACEMENT_3D ( 'NONE', #106, #160, #11 ) ;
#248 = CARTESIAN_POINT ( 'NONE',  ( -6.123233995736759873E-17, 3.500000000000000000, 0.000000000000000000 ) ) ;
#249 =( NAMED_UNIT ( * ) SI_UNIT ( $, .STERADIAN. ) SOLID_ANGLE_UNIT ( ) );
#250 = CARTESIAN_POINT ( 'NONE',  ( 4.592425496802575451E-17, 1.250000000000000000, 0.3750000000000000555 ) ) ;
#251 = DIRECTION ( 'NONE',  ( -0.000000000000000000, -1.000000000000000000, -0.000000000000000000 ) ) ;
#252 = LINE ( 'NONE', #42, #39 ) ;
#253 = AXIS2_PLACEMENT_3D ( 'NONE', #167, #90, #115 ) ;
#254 = LENGTH_MEASURE_WITH_UNIT ( LENGTH_MEASURE( 0.02539999999999999897 ), #92 );
#255 =( NAMED_UNIT ( * ) PLANE_ANGLE_UNIT ( ) SI_UNIT ( $, .RADIAN. ) );
#256 = EDGE_CURVE ( 'NONE', #175, #150, #86, .T. ) ;
#257 =( GEOMETRIC_REPRESENTATION_CONTEXT ( 3 ) GLOBAL_UNCERTAINTY_ASSIGNED_CONTEXT ( ( #226 ) ) GLOBAL_UNIT_ASSIGNED_CONTEXT ( ( #16, #186, #249 ) ) REPRESENTATION_CONTEXT ( 'NONE', 'WORKASPACE' ) );
#258 = ORIENTED_EDGE ( 'NONE', *, *, #225, .F. ) ;
#259 = DIRECTION ( 'NONE',  ( -0.000000000000000000, -1.000000000000000000, -0.000000000000000000 ) ) ;
#260 = EDGE_LOOP ( 'NONE', ( #146, #180 ) ) ;
#261 = AXIS2_PLACEMENT_3D ( 'NONE', #265, #58, #274 ) ;
#262 = PRODUCT_DEFINITION_FORMATION_WITH_SPECIFIED_SOURCE ( 'ANY', '', #155, .NOT_KNOWN. ) ;
#263 = ORIENTED_EDGE ( 'NONE', *, *, #161, .F. ) ;
#264 = ORIENTED_EDGE ( 'NONE', *, *, #45, .T. ) ;
#265 = CARTESIAN_POINT ( 'NONE',  ( 0.000000000000000000, 0.000000000000000000, 0.000000000000000000 ) ) ;
#266 = PRESENTATION_LAYER_ASSIGNMENT (  '', '', ( #127 ) ) ;
#267 = AXIS2_PLACEMENT_3D ( 'NONE', #192, #281, #232 ) ;
#268 = SURFACE_SIDE_STYLE ('',( #184 ) ) ;
#269 = CARTESIAN_POINT ( 'NONE',  ( 0.000000000000000000, 0.000000000000000000, 0.000000000000000000 ) ) ;
#270 = PRESENTATION_STYLE_ASSIGNMENT (( #222 ) ) ;
#271 = PRODUCT_RELATED_PRODUCT_CATEGORY ( 'part', '', ( #155 ) ) ;
#272 = APPLICATION_PROTOCOL_DEFINITION ( 'draft international standard', 'automotive_design', 1998, #182 ) ;
#273 = EDGE_CURVE ( 'NONE', #148, #175, #118, .T. ) ;
#274 = DIRECTION ( 'NONE',  ( 0.000000000000000000, 0.000000000000000000, -1.000000000000000000 ) ) ;
#275 = DIRECTION ( 'NONE',  ( -1.000000000000000000, 0.000000000000000000, 0.000000000000000000 ) ) ;
#276 = DIRECTION ( 'NONE',  ( 0.000000000000000000, 0.000000000000000000, -1.000000000000000000 ) ) ;
#277 = CIRCLE ( 'NONE', #5, 0.3750000000000001110 ) ;
#278 = APPLICATION_PROTOCOL_DEFINITION ( 'draft international standard', 'automotive_design', 1998, #198 ) ;
#279 = FACE_OUTER_BOUND ( 'NONE', #31, .T. ) ;
#280 = DIMENSIONAL_EXPONENTS ( 1.000000000000000000, 0.000000000000000000, 0.000000000000000000, 0.000000000000000000, 0.000000000000000000, 0.000000000000000000, 0.000000000000000000 ) ;
#281 = DIRECTION ( 'NONE',  ( -0.000000000000000000, -1.000000000000000000, -0.000000000000000000 ) ) ;
#282 = AXIS2_PLACEMENT_3D ( 'NONE', #26, #234, #29 ) ;
#283 = FILL_AREA_STYLE_COLOUR ( '', #96 ) ;
#284 =( CONVERSION_BASED_UNIT ( 'INCH', #114 ) LENGTH_UNIT ( ) NAMED_UNIT ( #116 ) );
#285 = EDGE_LOOP ( 'NONE', ( #293, #309 ) ) ;
#286 = COLOUR_RGB ( '',0.7921568627450980005, 0.8196078431372548767, 0.9333333333333333481 ) ;
#287 = PRESENTATION_STYLE_ASSIGNMENT (( #237 ) ) ;
#288 = ORIENTED_EDGE ( 'NONE', *, *, #214, .T. ) ;
#289 = CYLINDRICAL_SURFACE ( 'NONE', #76, 0.3750000000000000555 ) ;
#290 =( NAMED_UNIT ( * ) SI_UNIT ( $, .STERADIAN. ) SOLID_ANGLE_UNIT ( ) );
#291 = ORIENTED_EDGE ( 'NONE', *, *, #203, .F. ) ;
#292 = AXIS2_PLACEMENT_3D ( 'NONE', #298, #113, #300 ) ;
#293 = ORIENTED_EDGE ( 'NONE', *, *, #84, .T. ) ;
#294 =( CONVERSION_BASED_UNIT ( 'INCH', #38 ) LENGTH_UNIT ( ) NAMED_UNIT ( #143 ) );
#295 = DIRECTION ( 'NONE',  ( -1.000000000000000000, 0.000000000000000000, 0.000000000000000000 ) ) ;
#296 = PRESENTATION_LAYER_ASSIGNMENT (  '', '', ( #141 ) ) ;
#297 = ADVANCED_FACE ( 'NONE', ( #228 ), #245, .T. ) ;
#298 = CARTESIAN_POINT ( 'NONE',  ( 0.000000000000000000, 1.250000000000000000, 0.000000000000000000 ) ) ;
#299 = FACE_OUTER_BOUND ( 'NONE', #219, .T. ) ;
#300 = DIRECTION ( 'NONE',  ( -1.000000000000000000, 0.000000000000000000, 0.000000000000000000 ) ) ;
#301 =( NAMED_UNIT ( * ) SI_UNIT ( $, .STERADIAN. ) SOLID_ANGLE_UNIT ( ) );
#302 = VECTOR ( 'NONE', #305, 39.37007874015748143 ) ;
#303 = CARTESIAN_POINT ( 'NONE',  ( 0.000000000000000000, 0.000000000000000000, 0.000000000000000000 ) ) ;
#304 = CARTESIAN_POINT ( 'NONE',  ( 0.3750000000000000555, 3.500000000000000000, 4.592425496802576068E-17 ) ) ;
#305 = DIRECTION ( 'NONE',  ( -2.721437331438560697E-17, 1.000000000000000000, -0.000000000000000000 ) ) ;
#306 = DIRECTION ( 'NONE',  ( -0.000000000000000000, -1.000000000000000000, -0.000000000000000000 ) ) ;
#307 = DIMENSIONAL_EXPONENTS ( 1.000000000000000000, 0.000000000000000000, 0.000000000000000000, 0.000000000000000000, 0.000000000000000000, 0.000000000000000000, 0.000000000000000000 ) ;
#308 =( LENGTH_UNIT ( ) NAMED_UNIT ( * ) SI_UNIT ( $, .METRE. ) );
#309 = ORIENTED_EDGE ( 'NONE', *, *, #194, .T. ) ;
ENDSEC;
END-ISO-10303-21;
