ISO-10303-21;
HEADER;
FILE_DESCRIPTION (( 'STEP AP214' ),
    '1' );
FILE_NAME ('Micro_GEC-375-4-010.STEP',
    '2021-09-03T17:21:50',
    ( '' ),
    ( '' ),
    'SwSTEP 2.0',
    'SolidWorks 2020',
    '' );
FILE_SCHEMA (( 'AUTOMOTIVE_DESIGN' ));
ENDSEC;

DATA;
#1 = AXIS2_PLACEMENT_3D ( 'NONE', #298, #273, #294 ) ;
#2 = STYLED_ITEM ( 'NONE', ( #61 ), #75 ) ;
#3 = CARTESIAN_POINT ( 'NONE',  ( -0.1874999999999999167, 0.0000000000000000000, 0.8760633653411785682 ) ) ;
#4 = DIRECTION ( 'NONE',  ( 0.0000000000000000000, 0.0000000000000000000, 1.000000000000000000 ) ) ;
#5 = DIRECTION ( 'NONE',  ( 1.000000000000000000, 0.0000000000000000000, 0.0000000000000000000 ) ) ;
#6 = CARTESIAN_POINT ( 'NONE',  ( 0.0000000000000000000, 0.0000000000000000000, 2.500000000000000000 ) ) ;
#7 = APPLICATION_PROTOCOL_DEFINITION ( 'draft international standard', 'automotive_design', 1998, #141 ) ;
#8 =( CONVERSION_BASED_UNIT ( 'INCH', #140 ) LENGTH_UNIT ( ) NAMED_UNIT ( #228 ) );
#9 = ORIENTED_EDGE ( 'NONE', *, *, #37, .F. ) ;
#10 = EDGE_CURVE ( 'NONE', #286, #25, #87, .T. ) ;
#11 = EDGE_CURVE ( 'NONE', #93, #158, #26, .T. ) ;
#12 = ORIENTED_EDGE ( 'NONE', *, *, #222, .F. ) ;
#13 = AXIS2_PLACEMENT_3D ( 'NONE', #68, #184, #223 ) ;
#14 = AXIS2_PLACEMENT_3D ( 'NONE', #70, #344, #316 ) ;
#15 = ADVANCED_FACE ( 'NONE', ( #186 ), #150, .F. ) ;
#16 = CARTESIAN_POINT ( 'NONE',  ( 1.071565949253934025E-16, 0.0000000000000000000, 0.8750000000000000000 ) ) ;
#17 = ORIENTED_EDGE ( 'NONE', *, *, #31, .F. ) ;
#18 = UNCERTAINTY_MEASURE_WITH_UNIT (LENGTH_MEASURE( 1.000000000000000082E-05 ), #213, 'distance_accuracy_value', 'NONE');
#19 = EDGE_CURVE ( 'NONE', #203, #318, #126, .T. ) ;
#20 = MECHANICAL_DESIGN_GEOMETRIC_PRESENTATION_REPRESENTATION (  '', ( #2 ), #211 ) ;
#21 = DIRECTION ( 'NONE',  ( -1.224646799147353207E-16, -0.0000000000000000000, -1.000000000000000000 ) ) ;
#22 = ORIENTED_EDGE ( 'NONE', *, *, #307, .T. ) ;
#23 = LINE ( 'NONE', #124, #45 ) ;
#24 = ADVANCED_FACE ( 'NONE', ( #156 ), #208, .T. ) ;
#25 = VERTEX_POINT ( 'NONE', #289 ) ;
#26 = LINE ( 'NONE', #71, #322 ) ;
#27 = CARTESIAN_POINT ( 'NONE',  ( 0.1875000000000000278, 2.296212748401287726E-17, 2.484999999999999432 ) ) ;
#28 = AXIS2_PLACEMENT_3D ( 'NONE', #243, #240, #162 ) ;
#29 = VERTEX_POINT ( 'NONE', #291 ) ;
#30 = CARTESIAN_POINT ( 'NONE',  ( -0.1873124999999998541, 2.295064642027086199E-17, 0.8750000000000000000 ) ) ;
#31 = EDGE_CURVE ( 'NONE', #43, #200, #348, .T. ) ;
#32 = PLANE ( 'NONE',  #160 ) ;
#33 = CARTESIAN_POINT ( 'NONE',  ( 1.224646799147353577E-18, 0.0000000000000000000, 0.01000000000000000194 ) ) ;
#34 = DIRECTION ( 'NONE',  ( 0.0000000000000000000, 0.0000000000000000000, 1.000000000000000000 ) ) ;
#35 = DIRECTION ( 'NONE',  ( 1.224646799147353207E-16, 0.0000000000000000000, 1.000000000000000000 ) ) ;
#36 = SURFACE_SIDE_STYLE ('',( #67 ) ) ;
#37 = EDGE_CURVE ( 'NONE', #25, #200, #173, .T. ) ;
#38 = FILL_AREA_STYLE ('',( #302 ) ) ;
#39 = AXIS2_PLACEMENT_3D ( 'NONE', #265, #188, #330 ) ;
#40 = CIRCLE ( 'NONE', #288, 0.1875000000000000278 ) ;
#41 = ORIENTED_EDGE ( 'NONE', *, *, #233, .T. ) ;
#42 = CARTESIAN_POINT ( 'NONE',  ( 1.224646799147353384E-18, 0.0000000000000000000, 0.01000000000000000021 ) ) ;
#43 = VERTEX_POINT ( 'NONE', #86 ) ;
#44 = ORIENTED_EDGE ( 'NONE', *, *, #233, .F. ) ;
#45 = VECTOR ( 'NONE', #227, 39.37007874015748143 ) ;
#46 = VERTEX_POINT ( 'NONE', #139 ) ;
#47 = CARTESIAN_POINT ( 'NONE',  ( -0.1875000000000000278, 0.0000000000000000000, 2.484999999999999432 ) ) ;
#48 = DIRECTION ( 'NONE',  ( -1.224646799147353207E-16, -0.0000000000000000000, -1.000000000000000000 ) ) ;
#49 = DIRECTION ( 'NONE',  ( 1.000000000000000000, 0.0000000000000000000, 0.0000000000000000000 ) ) ;
#50 = ADVANCED_FACE ( 'NONE', ( #219 ), #159, .T. ) ;
#51 = ORIENTED_EDGE ( 'NONE', *, *, #309, .T. ) ;
#52 = CONICAL_SURFACE ( 'NONE', #340, 0.1724999999999995981, 0.7853981633974357335 ) ;
#53 = DIRECTION ( 'NONE',  ( -1.000000000000000000, 0.0000000000000000000, 0.0000000000000000000 ) ) ;
#54 = UNCERTAINTY_MEASURE_WITH_UNIT (LENGTH_MEASURE( 1.000000000000000082E-05 ), #8, 'distance_accuracy_value', 'NONE');
#55 = FACE_OUTER_BOUND ( 'NONE', #282, .T. ) ;
#56 = DIRECTION ( 'NONE',  ( 0.0000000000000000000, 0.0000000000000000000, 1.000000000000000000 ) ) ;
#57 = CARTESIAN_POINT ( 'NONE',  ( 1.071565949253934025E-16, 0.0000000000000000000, 0.8750000000000000000 ) ) ;
#58 = CARTESIAN_POINT ( 'NONE',  ( -0.1724999999999995981, 0.0000000000000000000, 2.500000000000000000 ) ) ;
#59 = CLOSED_SHELL ( 'NONE', ( #122, #91, #257, #132, #275, #24, #287, #50, #83, #72, #15, #64 ) ) ;
#60 = DIRECTION ( 'NONE',  ( 1.000000000000000000, 0.0000000000000000000, 0.0000000000000000000 ) ) ;
#61 = PRESENTATION_STYLE_ASSIGNMENT (( #115 ) ) ;
#62 =( LENGTH_UNIT ( ) NAMED_UNIT ( * ) SI_UNIT ( $, .METRE. ) );
#63 = COLOUR_RGB ( '',0.7921568627450980005, 0.8196078431372548767, 0.9333333333333333481 ) ;
#64 = ADVANCED_FACE ( 'NONE', ( #153 ), #332, .T. ) ;
#65 = ORIENTED_EDGE ( 'NONE', *, *, #111, .F. ) ;
#66 = AXIS2_PLACEMENT_3D ( 'NONE', #254, #320, #154 ) ;
#67 = SURFACE_STYLE_FILL_AREA ( #38 ) ;
#68 = CARTESIAN_POINT ( 'NONE',  ( 1.224646799147353384E-18, 0.0000000000000000000, 0.01000000000000000021 ) ) ;
#69 = ORIENTED_EDGE ( 'NONE', *, *, #10, .T. ) ;
#70 = CARTESIAN_POINT ( 'NONE',  ( 0.0000000000000000000, 0.0000000000000000000, 0.0000000000000000000 ) ) ;
#71 = CARTESIAN_POINT ( 'NONE',  ( 0.1875000000000000278, 2.296212748401287726E-17, 2.500000000000000000 ) ) ;
#72 = ADVANCED_FACE ( 'NONE', ( #313 ), #317, .T. ) ;
#73 = DIRECTION ( 'NONE',  ( -1.000000000000000000, 0.0000000000000000000, 0.0000000000000000000 ) ) ;
#74 = ORIENTED_EDGE ( 'NONE', *, *, #119, .F. ) ;
#75 = ADVANCED_BREP_SHAPE_REPRESENTATION ( 'Micro_GEC-375-4-010', ( #299, #14 ), #276 ) ;
#76 = FACE_OUTER_BOUND ( 'NONE', #311, .T. ) ;
#77 = EDGE_LOOP ( 'NONE', ( #65, #22, #338, #74 ) ) ;
#78 = DIRECTION ( 'NONE',  ( 0.0000000000000000000, -1.000000000000000000, 0.0000000000000000000 ) ) ;
#79 = FILL_AREA_STYLE ('',( #326 ) ) ;
#80 = CARTESIAN_POINT ( 'NONE',  ( 0.0000000000000000000, 0.0000000000000000000, 2.500000000000000000 ) ) ;
#81 = CIRCLE ( 'NONE', #1, 0.1875000000000000278 ) ;
#82 = CARTESIAN_POINT ( 'NONE',  ( 0.0000000000000000000, 0.0000000000000000000, 2.484999999999999432 ) ) ;
#83 = ADVANCED_FACE ( 'NONE', ( #157 ), #336, .T. ) ;
#84 = DIRECTION ( 'NONE',  ( 1.000000000000000000, 0.0000000000000000000, 0.0000000000000000000 ) ) ;
#85 =( CONVERSION_BASED_UNIT ( 'INCH', #334 ) LENGTH_UNIT ( ) NAMED_UNIT ( #178 ) );
#86 = CARTESIAN_POINT ( 'NONE',  ( 0.1873125000000000484, 0.0000000000000000000, 0.8750000000000000000 ) ) ;
#87 = CIRCLE ( 'NONE', #134, 0.1773124999999999840 ) ;
#88 =( NAMED_UNIT ( * ) SI_UNIT ( $, .STERADIAN. ) SOLID_ANGLE_UNIT ( ) );
#89 = DIRECTION ( 'NONE',  ( -0.1736481776669312749, 2.126576849575784241E-17, 0.9848077530122077983 ) ) ;
#90 = DIRECTION ( 'NONE',  ( 1.000000000000000000, 0.0000000000000000000, 0.0000000000000000000 ) ) ;
#91 = ADVANCED_FACE ( 'NONE', ( #149 ), #256, .T. ) ;
#92 = CIRCLE ( 'NONE', #269, 0.1724999999999995981 ) ;
#93 = VERTEX_POINT ( 'NONE', #27 ) ;
#94 = DIMENSIONAL_EXPONENTS ( 1.000000000000000000, 0.0000000000000000000, 0.0000000000000000000, 0.0000000000000000000, 0.0000000000000000000, 0.0000000000000000000, 0.0000000000000000000 ) ;
#95 = EDGE_LOOP ( 'NONE', ( #262, #226, #329, #277 ) ) ;
#96 = DIRECTION ( 'NONE',  ( -1.224646799147353207E-16, -0.0000000000000000000, -1.000000000000000000 ) ) ;
#97 = ORIENTED_EDGE ( 'NONE', *, *, #152, .F. ) ;
#98 = ORIENTED_EDGE ( 'NONE', *, *, #222, .T. ) ;
#99 = SHAPE_DEFINITION_REPRESENTATION ( #266, #75 ) ;
#100 = ORIENTED_EDGE ( 'NONE', *, *, #172, .F. ) ;
#101 = CIRCLE ( 'NONE', #220, 0.1873124999999999929 ) ;
#102 = ORIENTED_EDGE ( 'NONE', *, *, #345, .F. ) ;
#103 = DIRECTION ( 'NONE',  ( 0.0000000000000000000, 0.0000000000000000000, 1.000000000000000000 ) ) ;
#104 = ORIENTED_EDGE ( 'NONE', *, *, #31, .T. ) ;
#105 = CARTESIAN_POINT ( 'NONE',  ( 1.224646799147353577E-18, 0.0000000000000000000, 0.01000000000000000194 ) ) ;
#106 =( LENGTH_UNIT ( ) NAMED_UNIT ( * ) SI_UNIT ( $, .METRE. ) );
#107 = AXIS2_PLACEMENT_3D ( 'NONE', #33, #56, #163 ) ;
#108 = SURFACE_STYLE_USAGE ( .BOTH. , #212 ) ;
#109 = DIRECTION ( 'NONE',  ( 1.000000000000000000, 0.0000000000000000000, -0.0000000000000000000 ) ) ;
#110 =( NAMED_UNIT ( * ) PLANE_ANGLE_UNIT ( ) SI_UNIT ( $, .RADIAN. ) );
#111 = EDGE_CURVE ( 'NONE', #203, #43, #171, .T. ) ;
#112 =( NAMED_UNIT ( * ) PLANE_ANGLE_UNIT ( ) SI_UNIT ( $, .RADIAN. ) );
#113 = TOROIDAL_SURFACE ( 'NONE', #13, 0.1773124999999999840, 0.01000000000000000021 ) ;
#114 = ORIENTED_EDGE ( 'NONE', *, *, #119, .T. ) ;
#115 = SURFACE_STYLE_USAGE ( .BOTH. , #36 ) ;
#116 = ORIENTED_EDGE ( 'NONE', *, *, #37, .T. ) ;
#117 = ORIENTED_EDGE ( 'NONE', *, *, #172, .T. ) ;
#118 = ORIENTED_EDGE ( 'NONE', *, *, #328, .F. ) ;
#119 = EDGE_CURVE ( 'NONE', #43, #158, #23, .T. ) ;
#120 = DIRECTION ( 'NONE',  ( -1.000000000000000000, 0.0000000000000000000, 0.0000000000000000000 ) ) ;
#121 = VERTEX_POINT ( 'NONE', #47 ) ;
#122 = ADVANCED_FACE ( 'NONE', ( #130 ), #113, .T. ) ;
#123 = ORIENTED_EDGE ( 'NONE', *, *, #297, .T. ) ;
#124 = CARTESIAN_POINT ( 'NONE',  ( 0.1873125000000000484, 0.0000000000000000000, 0.8750000000000000000 ) ) ;
#125 = DIRECTION ( 'NONE',  ( -0.0000000000000000000, -0.0000000000000000000, -1.000000000000000000 ) ) ;
#126 = LINE ( 'NONE', #177, #191 ) ;
#127 = AXIS2_PLACEMENT_3D ( 'NONE', #325, #78, #333 ) ;
#128 = AXIS2_PLACEMENT_3D ( 'NONE', #192, #270, #215 ) ;
#129 = AXIS2_PLACEMENT_3D ( 'NONE', #57, #137, #53 ) ;
#130 = FACE_OUTER_BOUND ( 'NONE', #187, .T. ) ;
#131 = ORIENTED_EDGE ( 'NONE', *, *, #199, .T. ) ;
#132 = ADVANCED_FACE ( 'NONE', ( #76 ), #52, .T. ) ;
#133 = SURFACE_STYLE_FILL_AREA ( #79 ) ;
#134 = AXIS2_PLACEMENT_3D ( 'NONE', #235, #346, #185 ) ;
#135 = CYLINDRICAL_SURFACE ( 'NONE', #28, 0.1875000000000000278 ) ;
#136 = PRESENTATION_LAYER_ASSIGNMENT (  '', '', ( #2 ) ) ;
#137 = DIRECTION ( 'NONE',  ( -1.224646799147353207E-16, -0.0000000000000000000, -1.000000000000000000 ) ) ;
#138 = DIRECTION ( 'NONE',  ( 0.0000000000000000000, 0.0000000000000000000, -1.000000000000000000 ) ) ;
#139 = CARTESIAN_POINT ( 'NONE',  ( 0.1724999999999995981, 2.204364238465233357E-17, 2.500000000000000000 ) ) ;
#140 = LENGTH_MEASURE_WITH_UNIT ( LENGTH_MEASURE( 0.02539999999999999897 ), #62 );
#141 = APPLICATION_CONTEXT ( 'automotive_design' ) ;
#142 = ORIENTED_EDGE ( 'NONE', *, *, #111, .T. ) ;
#143 = ORIENTED_EDGE ( 'NONE', *, *, #297, .F. ) ;
#144 = STYLED_ITEM ( 'NONE', ( #237 ), #299 ) ;
#145 = EDGE_LOOP ( 'NONE', ( #350, #131, #310, #202 ) ) ;
#146 = LINE ( 'NONE', #306, #167 ) ;
#147 = CARTESIAN_POINT ( 'NONE',  ( 1.071565949253934025E-16, 0.0000000000000000000, 0.8750000000000000000 ) ) ;
#148 = CARTESIAN_POINT ( 'NONE',  ( 0.1873124999999999929, 2.293916535652885596E-17, -2.293916535652885596E-17 ) ) ;
#149 = FACE_OUTER_BOUND ( 'NONE', #247, .T. ) ;
#150 = PLANE ( 'NONE',  #66 ) ;
#151 = VECTOR ( 'NONE', #165, 39.37007874015748854 ) ;
#152 = EDGE_CURVE ( 'NONE', #46, #93, #349, .T. ) ;
#153 = FACE_OUTER_BOUND ( 'NONE', #284, .T. ) ;
#154 = DIRECTION ( 'NONE',  ( 1.000000000000000000, 0.0000000000000000000, -0.0000000000000000000 ) ) ;
#155 = DIRECTION ( 'NONE',  ( 0.0000000000000000000, 0.0000000000000000000, -1.000000000000000000 ) ) ;
#156 = FACE_OUTER_BOUND ( 'NONE', #145, .T. ) ;
#157 = FACE_OUTER_BOUND ( 'NONE', #343, .T. ) ;
#158 = VERTEX_POINT ( 'NONE', #304 ) ;
#159 = CONICAL_SURFACE ( 'NONE', #263, 0.1724999999999995981, 0.7853981633974357335 ) ;
#160 = AXIS2_PLACEMENT_3D ( 'NONE', #241, #103, #109 ) ;
#161 = CARTESIAN_POINT ( 'NONE',  ( 0.0000000000000000000, 0.0000000000000000000, 2.484999999999999432 ) ) ;
#162 = DIRECTION ( 'NONE',  ( -1.000000000000000000, 0.0000000000000000000, 0.0000000000000000000 ) ) ;
#163 = DIRECTION ( 'NONE',  ( 1.000000000000000000, 0.0000000000000000000, 0.0000000000000000000 ) ) ;
#164 = VECTOR ( 'NONE', #206, 39.37007874015748143 ) ;
#165 = DIRECTION ( 'NONE',  ( 0.7071067811865385799, 8.659560562354823157E-17, -0.7071067811865563435 ) ) ;
#166 = PRODUCT_DEFINITION ( 'UNKNOWN', '', #193, #214 ) ;
#167 = VECTOR ( 'NONE', #89, 39.37007874015748143 ) ;
#168 = LENGTH_MEASURE_WITH_UNIT ( LENGTH_MEASURE( 0.02539999999999999897 ), #305 );
#169 = FACE_OUTER_BOUND ( 'NONE', #77, .T. ) ;
#170 = LINE ( 'NONE', #58, #174 ) ;
#171 = CIRCLE ( 'NONE', #238, 0.1873124999999999374 ) ;
#172 = EDGE_CURVE ( 'NONE', #25, #286, #182, .T. ) ;
#173 = CIRCLE ( 'NONE', #127, 0.01000000000000000021 ) ;
#174 = VECTOR ( 'NONE', #216, 39.37007874015748854 ) ;
#175 = ORIENTED_EDGE ( 'NONE', *, *, #189, .F. ) ;
#176 = DIRECTION ( 'NONE',  ( 0.0000000000000000000, 0.0000000000000000000, -1.000000000000000000 ) ) ;
#177 = CARTESIAN_POINT ( 'NONE',  ( -0.1873124999999999929, 0.0000000000000000000, 2.293916535652885596E-17 ) ) ;
#178 = DIMENSIONAL_EXPONENTS ( 1.000000000000000000, 0.0000000000000000000, 0.0000000000000000000, 0.0000000000000000000, 0.0000000000000000000, 0.0000000000000000000, 0.0000000000000000000 ) ;
#179 = EDGE_CURVE ( 'NONE', #158, #258, #81, .T. ) ;
#180 = CARTESIAN_POINT ( 'NONE',  ( 0.0000000000000000000, 0.0000000000000000000, 0.0000000000000000000 ) ) ;
#181 = DIRECTION ( 'NONE',  ( -0.0000000000000000000, -0.0000000000000000000, -1.000000000000000000 ) ) ;
#182 = CIRCLE ( 'NONE', #39, 0.1773124999999999840 ) ;
#183 = AXIS2_PLACEMENT_3D ( 'NONE', #161, #138, #84 ) ;
#184 = DIRECTION ( 'NONE',  ( 0.0000000000000000000, 0.0000000000000000000, 1.000000000000000000 ) ) ;
#185 = DIRECTION ( 'NONE',  ( 1.000000000000000000, 0.0000000000000000000, 0.0000000000000000000 ) ) ;
#186 = FACE_OUTER_BOUND ( 'NONE', #229, .T. ) ;
#187 = EDGE_LOOP ( 'NONE', ( #221, #123, #175, #9 ) ) ;
#188 = DIRECTION ( 'NONE',  ( -0.0000000000000000000, -0.0000000000000000000, -1.000000000000000000 ) ) ;
#189 = EDGE_CURVE ( 'NONE', #200, #318, #101, .T. ) ;
#190 = CARTESIAN_POINT ( 'NONE',  ( 0.1873124999999999929, 2.293916535652885596E-17, 0.01000000000000000194 ) ) ;
#191 = VECTOR ( 'NONE', #48, 39.37007874015748143 ) ;
#192 = CARTESIAN_POINT ( 'NONE',  ( -0.1773124999999999840, 2.171451855738150547E-17, 0.01000000000000000021 ) ) ;
#193 = PRODUCT_DEFINITION_FORMATION_WITH_SPECIFIED_SOURCE ( 'ANY', '', #315, .NOT_KNOWN. ) ;
#194 = CARTESIAN_POINT ( 'NONE',  ( -0.1873124999999999929, 0.0000000000000000000, 0.01000000000000000194 ) ) ;
#195 = DIRECTION ( 'NONE',  ( 1.000000000000000000, 0.0000000000000000000, 0.0000000000000000000 ) ) ;
#196 = CARTESIAN_POINT ( 'NONE',  ( 1.072868196215332765E-16, 0.0000000000000000000, 0.8760633653411785682 ) ) ;
#197 = DIRECTION ( 'NONE',  ( 0.0000000000000000000, 0.0000000000000000000, 1.000000000000000000 ) ) ;
#198 = AXIS2_PLACEMENT_3D ( 'NONE', #42, #292, #283 ) ;
#199 = EDGE_CURVE ( 'NONE', #93, #121, #40, .T. ) ;
#200 = VERTEX_POINT ( 'NONE', #190 ) ;
#201 = CIRCLE ( 'NONE', #341, 0.1875000000000000278 ) ;
#202 = ORIENTED_EDGE ( 'NONE', *, *, #179, .F. ) ;
#203 = VERTEX_POINT ( 'NONE', #30 ) ;
#204 = APPLICATION_PROTOCOL_DEFINITION ( 'draft international standard', 'automotive_design', 1998, #327 ) ;
#205 = EDGE_LOOP ( 'NONE', ( #17, #41, #293, #98 ) ) ;
#206 = DIRECTION ( 'NONE',  ( -1.224646799147353207E-16, -0.0000000000000000000, -1.000000000000000000 ) ) ;
#207 = CARTESIAN_POINT ( 'NONE',  ( -0.1773124999999999840, 2.232684195695518071E-17, 0.0000000000000000000 ) ) ;
#208 = CYLINDRICAL_SURFACE ( 'NONE', #279, 0.1875000000000000278 ) ;
#209 = CARTESIAN_POINT ( 'NONE',  ( -0.1875000000000000278, 0.0000000000000000000, 2.500000000000000000 ) ) ;
#210 = AXIS2_PLACEMENT_3D ( 'NONE', #147, #231, #49 ) ;
#211 =( GEOMETRIC_REPRESENTATION_CONTEXT ( 3 ) GLOBAL_UNCERTAINTY_ASSIGNED_CONTEXT ( ( #54 ) ) GLOBAL_UNIT_ASSIGNED_CONTEXT ( ( #8, #339, #218 ) ) REPRESENTATION_CONTEXT ( 'NONE', 'WORKASPACE' ) );
#212 = SURFACE_SIDE_STYLE ('',( #133 ) ) ;
#213 =( CONVERSION_BASED_UNIT ( 'INCH', #168 ) LENGTH_UNIT ( ) NAMED_UNIT ( #94 ) );
#214 = PRODUCT_DEFINITION_CONTEXT ( 'detailed design', #327, 'design' ) ;
#215 = DIRECTION ( 'NONE',  ( -1.000000000000000000, 1.224646799147354933E-16, 0.0000000000000000000 ) ) ;
#216 = DIRECTION ( 'NONE',  ( -0.7071067811865385799, 0.0000000000000000000, -0.7071067811865563435 ) ) ;
#217 = ORIENTED_EDGE ( 'NONE', *, *, #189, .T. ) ;
#218 =( NAMED_UNIT ( * ) SI_UNIT ( $, .STERADIAN. ) SOLID_ANGLE_UNIT ( ) );
#219 = FACE_OUTER_BOUND ( 'NONE', #250, .T. ) ;
#220 = AXIS2_PLACEMENT_3D ( 'NONE', #105, #34, #60 ) ;
#221 = ORIENTED_EDGE ( 'NONE', *, *, #10, .F. ) ;
#222 = EDGE_CURVE ( 'NONE', #318, #200, #281, .T. ) ;
#223 = DIRECTION ( 'NONE',  ( 1.000000000000000000, 0.0000000000000000000, 0.0000000000000000000 ) ) ;
#224 = AXIS2_PLACEMENT_3D ( 'NONE', #296, #35, #267 ) ;
#225 = DIRECTION ( 'NONE',  ( -1.000000000000000000, 0.0000000000000000000, 0.0000000000000000000 ) ) ;
#226 = ORIENTED_EDGE ( 'NONE', *, *, #11, .T. ) ;
#227 = DIRECTION ( 'NONE',  ( 0.1736481776669314969, 0.0000000000000000000, 0.9848077530122077983 ) ) ;
#228 = DIMENSIONAL_EXPONENTS ( 1.000000000000000000, 0.0000000000000000000, 0.0000000000000000000, 0.0000000000000000000, 0.0000000000000000000, 0.0000000000000000000, 0.0000000000000000000 ) ;
#229 = EDGE_LOOP ( 'NONE', ( #117, #69 ) ) ;
#230 = EDGE_CURVE ( 'NONE', #121, #258, #301, .T. ) ;
#231 = DIRECTION ( 'NONE',  ( 1.224646799147353207E-16, 0.0000000000000000000, 1.000000000000000000 ) ) ;
#232 = ORIENTED_EDGE ( 'NONE', *, *, #19, .F. ) ;
#233 = EDGE_CURVE ( 'NONE', #43, #203, #303, .T. ) ;
#234 = CIRCLE ( 'NONE', #249, 0.1724999999999995981 ) ;
#235 = CARTESIAN_POINT ( 'NONE',  ( 1.224646799147353384E-18, 0.0000000000000000000, 0.0000000000000000000 ) ) ;
#236 = DIRECTION ( 'NONE',  ( 0.0000000000000000000, 0.0000000000000000000, -1.000000000000000000 ) ) ;
#237 = PRESENTATION_STYLE_ASSIGNMENT (( #108 ) ) ;
#238 = AXIS2_PLACEMENT_3D ( 'NONE', #16, #96, #120 ) ;
#239 = PRESENTATION_LAYER_ASSIGNMENT (  '', '', ( #144 ) ) ;
#240 = DIRECTION ( 'NONE',  ( -0.0000000000000000000, -0.0000000000000000000, -1.000000000000000000 ) ) ;
#241 = CARTESIAN_POINT ( 'NONE',  ( 0.0000000000000000000, 0.0000000000000000000, 2.500000000000000000 ) ) ;
#242 = DIRECTION ( 'NONE',  ( 1.000000000000000000, 0.0000000000000000000, 0.0000000000000000000 ) ) ;
#243 = CARTESIAN_POINT ( 'NONE',  ( 0.0000000000000000000, 0.0000000000000000000, 2.500000000000000000 ) ) ;
#244 = COLOUR_RGB ( '',0.7921568627450980005, 0.8196078431372548767, 0.9333333333333333481 ) ;
#245 =( NAMED_UNIT ( * ) SI_UNIT ( $, .STERADIAN. ) SOLID_ANGLE_UNIT ( ) );
#246 = ORIENTED_EDGE ( 'NONE', *, *, #309, .F. ) ;
#247 = EDGE_LOOP ( 'NONE', ( #142, #104, #217, #232 ) ) ;
#248 = AXIS2_PLACEMENT_3D ( 'NONE', #321, #21, #285 ) ;
#249 = AXIS2_PLACEMENT_3D ( 'NONE', #6, #197, #195 ) ;
#250 = EDGE_LOOP ( 'NONE', ( #97, #246, #324, #278 ) ) ;
#251 = DIRECTION ( 'NONE',  ( -1.224646799147353207E-16, -0.0000000000000000000, -1.000000000000000000 ) ) ;
#252 = ORIENTED_EDGE ( 'NONE', *, *, #272, .F. ) ;
#253 = CIRCLE ( 'NONE', #128, 0.009999999999999995004 ) ;
#254 = CARTESIAN_POINT ( 'NONE',  ( 0.0000000000000000000, 0.0000000000000000000, 0.0000000000000000000 ) ) ;
#255 = UNCERTAINTY_MEASURE_WITH_UNIT (LENGTH_MEASURE( 1.000000000000000082E-05 ), #85, 'distance_accuracy_value', 'NONE');
#256 = CYLINDRICAL_SURFACE ( 'NONE', #268, 0.1873124999999999929 ) ;
#257 = ADVANCED_FACE ( 'NONE', ( #169 ), #308, .T. ) ;
#258 = VERTEX_POINT ( 'NONE', #3 ) ;
#259 = DIRECTION ( 'NONE',  ( -1.000000000000000000, 0.0000000000000000000, 0.0000000000000000000 ) ) ;
#260 = ORIENTED_EDGE ( 'NONE', *, *, #152, .T. ) ;
#261 = DIRECTION ( 'NONE',  ( -1.000000000000000000, 0.0000000000000000000, 1.224646799147352961E-16 ) ) ;
#262 = ORIENTED_EDGE ( 'NONE', *, *, #272, .T. ) ;
#263 = AXIS2_PLACEMENT_3D ( 'NONE', #342, #176, #73 ) ;
#264 = FACE_OUTER_BOUND ( 'NONE', #95, .T. ) ;
#265 = CARTESIAN_POINT ( 'NONE',  ( 1.224646799147353384E-18, 0.0000000000000000000, 0.0000000000000000000 ) ) ;
#266 = PRODUCT_DEFINITION_SHAPE ( 'NONE', 'NONE',  #166 ) ;
#267 = DIRECTION ( 'NONE',  ( 1.000000000000000000, 0.0000000000000000000, 0.0000000000000000000 ) ) ;
#268 = AXIS2_PLACEMENT_3D ( 'NONE', #180, #251, #261 ) ;
#269 = AXIS2_PLACEMENT_3D ( 'NONE', #274, #4, #90 ) ;
#270 = DIRECTION ( 'NONE',  ( 1.224646799147353207E-16, 1.000000000000000000, -0.0000000000000000000 ) ) ;
#271 = DIRECTION ( 'NONE',  ( -1.224646799147353207E-16, -0.0000000000000000000, -1.000000000000000000 ) ) ;
#272 = EDGE_CURVE ( 'NONE', #121, #93, #312, .T. ) ;
#273 = DIRECTION ( 'NONE',  ( -1.224646799147353207E-16, -0.0000000000000000000, -1.000000000000000000 ) ) ;
#274 = CARTESIAN_POINT ( 'NONE',  ( 0.0000000000000000000, 0.0000000000000000000, 2.500000000000000000 ) ) ;
#275 = ADVANCED_FACE ( 'NONE', ( #264 ), #135, .T. ) ;
#276 =( GEOMETRIC_REPRESENTATION_CONTEXT ( 3 ) GLOBAL_UNCERTAINTY_ASSIGNED_CONTEXT ( ( #18 ) ) GLOBAL_UNIT_ASSIGNED_CONTEXT ( ( #213, #110, #245 ) ) REPRESENTATION_CONTEXT ( 'NONE', 'WORKASPACE' ) );
#277 = ORIENTED_EDGE ( 'NONE', *, *, #230, .F. ) ;
#278 = ORIENTED_EDGE ( 'NONE', *, *, #199, .F. ) ;
#279 = AXIS2_PLACEMENT_3D ( 'NONE', #80, #181, #225 ) ;
#280 = MECHANICAL_DESIGN_GEOMETRIC_PRESENTATION_REPRESENTATION (  '', ( #144 ), #337 ) ;
#281 = CIRCLE ( 'NONE', #107, 0.1873124999999999929 ) ;
#282 = EDGE_LOOP ( 'NONE', ( #51, #347 ) ) ;
#283 = DIRECTION ( 'NONE',  ( 1.000000000000000000, 0.0000000000000000000, 0.0000000000000000000 ) ) ;
#284 = EDGE_LOOP ( 'NONE', ( #143, #100, #116, #12 ) ) ;
#285 = DIRECTION ( 'NONE',  ( -1.000000000000000000, 0.0000000000000000000, 1.224646799147352961E-16 ) ) ;
#286 = VERTEX_POINT ( 'NONE', #207 ) ;
#287 = ADVANCED_FACE ( 'NONE', ( #55 ), #32, .T. ) ;
#288 = AXIS2_PLACEMENT_3D ( 'NONE', #82, #236, #5 ) ;
#289 = CARTESIAN_POINT ( 'NONE',  ( 0.1773124999999999840, 0.0000000000000000000, 0.0000000000000000000 ) ) ;
#290 = CARTESIAN_POINT ( 'NONE',  ( 0.0000000000000000000, 0.0000000000000000000, 2.500000000000000000 ) ) ;
#291 = CARTESIAN_POINT ( 'NONE',  ( -0.1724999999999995981, 0.0000000000000000000, 2.500000000000000000 ) ) ;
#292 = DIRECTION ( 'NONE',  ( 0.0000000000000000000, 0.0000000000000000000, 1.000000000000000000 ) ) ;
#293 = ORIENTED_EDGE ( 'NONE', *, *, #19, .T. ) ;
#294 = DIRECTION ( 'NONE',  ( 1.000000000000000000, 0.0000000000000000000, 0.0000000000000000000 ) ) ;
#295 = ORIENTED_EDGE ( 'NONE', *, *, #179, .T. ) ;
#296 = CARTESIAN_POINT ( 'NONE',  ( 1.071565949253934025E-16, 0.0000000000000000000, 0.8750000000000000000 ) ) ;
#297 = EDGE_CURVE ( 'NONE', #286, #318, #253, .T. ) ;
#298 = CARTESIAN_POINT ( 'NONE',  ( 1.072868196215332765E-16, 0.0000000000000000000, 0.8760633653411785682 ) ) ;
#299 = MANIFOLD_SOLID_BREP ( 'Fillet1', #59 ) ;
#300 = EDGE_CURVE ( 'NONE', #258, #158, #201, .T. ) ;
#301 = LINE ( 'NONE', #209, #323 ) ;
#302 = FILL_AREA_STYLE_COLOUR ( '', #244 ) ;
#303 = CIRCLE ( 'NONE', #129, 0.1873124999999999374 ) ;
#304 = CARTESIAN_POINT ( 'NONE',  ( 0.1875000000000000833, 2.296212748401288650E-17, 0.8760633653411785682 ) ) ;
#305 =( LENGTH_UNIT ( ) NAMED_UNIT ( * ) SI_UNIT ( $, .METRE. ) );
#306 = CARTESIAN_POINT ( 'NONE',  ( -0.1873124999999998541, 2.293916535652885288E-17, 0.8750000000000000000 ) ) ;
#307 = EDGE_CURVE ( 'NONE', #203, #258, #146, .T. ) ;
#308 = CONICAL_SURFACE ( 'NONE', #224, 0.1873124999999999374, 0.1745329251994340025 ) ;
#309 = EDGE_CURVE ( 'NONE', #29, #46, #92, .T. ) ;
#310 = ORIENTED_EDGE ( 'NONE', *, *, #230, .T. ) ;
#311 = EDGE_LOOP ( 'NONE', ( #118, #260, #252, #102 ) ) ;
#312 = CIRCLE ( 'NONE', #183, 0.1875000000000000278 ) ;
#313 = FACE_OUTER_BOUND ( 'NONE', #205, .T. ) ;
#314 = ORIENTED_EDGE ( 'NONE', *, *, #307, .F. ) ;
#315 = PRODUCT ( 'Micro_GEC-375-4-010', 'Micro_GEC-375-4-010', '', ( #319 ) ) ;
#316 = DIRECTION ( 'NONE',  ( 1.000000000000000000, 0.0000000000000000000, 0.0000000000000000000 ) ) ;
#317 = CYLINDRICAL_SURFACE ( 'NONE', #248, 0.1873124999999999929 ) ;
#318 = VERTEX_POINT ( 'NONE', #194 ) ;
#319 = PRODUCT_CONTEXT ( 'NONE', #141, 'mechanical' ) ;
#320 = DIRECTION ( 'NONE',  ( 0.0000000000000000000, 0.0000000000000000000, 1.000000000000000000 ) ) ;
#321 = CARTESIAN_POINT ( 'NONE',  ( 0.0000000000000000000, 0.0000000000000000000, 0.0000000000000000000 ) ) ;
#322 = VECTOR ( 'NONE', #125, 39.37007874015748143 ) ;
#323 = VECTOR ( 'NONE', #351, 39.37007874015748143 ) ;
#324 = ORIENTED_EDGE ( 'NONE', *, *, #345, .T. ) ;
#325 = CARTESIAN_POINT ( 'NONE',  ( 0.1773124999999999840, 0.0000000000000000000, 0.01000000000000000021 ) ) ;
#326 = FILL_AREA_STYLE_COLOUR ( '', #63 ) ;
#327 = APPLICATION_CONTEXT ( 'automotive_design' ) ;
#328 = EDGE_CURVE ( 'NONE', #46, #29, #234, .T. ) ;
#329 = ORIENTED_EDGE ( 'NONE', *, *, #300, .F. ) ;
#330 = DIRECTION ( 'NONE',  ( 1.000000000000000000, 0.0000000000000000000, 0.0000000000000000000 ) ) ;
#331 = PRODUCT_RELATED_PRODUCT_CATEGORY ( 'part', '', ( #315 ) ) ;
#332 = TOROIDAL_SURFACE ( 'NONE', #198, 0.1773124999999999840, 0.01000000000000000021 ) ;
#333 = DIRECTION ( 'NONE',  ( 0.0000000000000000000, 0.0000000000000000000, -1.000000000000000000 ) ) ;
#334 = LENGTH_MEASURE_WITH_UNIT ( LENGTH_MEASURE( 0.02539999999999999897 ), #106 );
#335 = CARTESIAN_POINT ( 'NONE',  ( 0.1724999999999995981, 2.112515728529179297E-17, 2.500000000000000000 ) ) ;
#336 = CONICAL_SURFACE ( 'NONE', #210, 0.1873124999999999374, 0.1745329251994340025 ) ;
#337 =( GEOMETRIC_REPRESENTATION_CONTEXT ( 3 ) GLOBAL_UNCERTAINTY_ASSIGNED_CONTEXT ( ( #255 ) ) GLOBAL_UNIT_ASSIGNED_CONTEXT ( ( #85, #112, #88 ) ) REPRESENTATION_CONTEXT ( 'NONE', 'WORKASPACE' ) );
#338 = ORIENTED_EDGE ( 'NONE', *, *, #300, .T. ) ;
#339 =( NAMED_UNIT ( * ) PLANE_ANGLE_UNIT ( ) SI_UNIT ( $, .RADIAN. ) );
#340 = AXIS2_PLACEMENT_3D ( 'NONE', #290, #155, #259 ) ;
#341 = AXIS2_PLACEMENT_3D ( 'NONE', #196, #271, #242 ) ;
#342 = CARTESIAN_POINT ( 'NONE',  ( 0.0000000000000000000, 0.0000000000000000000, 2.500000000000000000 ) ) ;
#343 = EDGE_LOOP ( 'NONE', ( #314, #44, #114, #295 ) ) ;
#344 = DIRECTION ( 'NONE',  ( 0.0000000000000000000, 0.0000000000000000000, 1.000000000000000000 ) ) ;
#345 = EDGE_CURVE ( 'NONE', #29, #121, #170, .T. ) ;
#346 = DIRECTION ( 'NONE',  ( -0.0000000000000000000, -0.0000000000000000000, -1.000000000000000000 ) ) ;
#347 = ORIENTED_EDGE ( 'NONE', *, *, #328, .T. ) ;
#348 = LINE ( 'NONE', #148, #164 ) ;
#349 = LINE ( 'NONE', #335, #151 ) ;
#350 = ORIENTED_EDGE ( 'NONE', *, *, #11, .F. ) ;
#351 = DIRECTION ( 'NONE',  ( -0.0000000000000000000, -0.0000000000000000000, -1.000000000000000000 ) ) ;
ENDSEC;
END-ISO-10303-21;
