ISO-10303-21;
HEADER;
FILE_DESCRIPTION (( 'STEP AP214' ),
    '1' );
FILE_NAME ('Micro_KC-187-550-125X.STEP',
    '2021-09-03T19:21:26',
    ( '' ),
    ( '' ),
    'SwSTEP 2.0',
    'SolidWorks 2020',
    '' );
FILE_SCHEMA (( 'AUTOMOTIVE_DESIGN' ));
ENDSEC;

DATA;
#1 =( NAMED_UNIT ( * ) PLANE_ANGLE_UNIT ( ) SI_UNIT ( $, .RADIAN. ) );
#2 = DIRECTION ( 'NONE',  ( 1.000000000000000000, 0.0000000000000000000, 0.0000000000000000000 ) ) ;
#3 = ORIENTED_EDGE ( 'NONE', *, *, #110, .T. ) ;
#4 = CARTESIAN_POINT ( 'NONE',  ( 0.0000000000000000000, 0.0000000000000000000, 0.5987499999999996714 ) ) ;
#5 = AXIS2_PLACEMENT_3D ( 'NONE', #142, #264, #236 ) ;
#6 = DIMENSIONAL_EXPONENTS ( 1.000000000000000000, 0.0000000000000000000, 0.0000000000000000000, 0.0000000000000000000, 0.0000000000000000000, 0.0000000000000000000, 0.0000000000000000000 ) ;
#7 = DIRECTION ( 'NONE',  ( -1.000000000000000000, 0.0000000000000000000, 0.0000000000000000000 ) ) ;
#8 = EDGE_CURVE ( 'NONE', #272, #182, #112, .T. ) ;
#9 = DIRECTION ( 'NONE',  ( -0.0000000000000000000, -0.0000000000000000000, -1.000000000000000000 ) ) ;
#10 = ORIENTED_EDGE ( 'NONE', *, *, #254, .F. ) ;
#11 = ADVANCED_FACE ( 'NONE', ( #211 ), #269, .T. ) ;
#12 = AXIS2_PLACEMENT_3D ( 'NONE', #84, #233, #139 ) ;
#13 = FACE_OUTER_BOUND ( 'NONE', #213, .T. ) ;
#14 = ORIENTED_EDGE ( 'NONE', *, *, #234, .F. ) ;
#15 = CARTESIAN_POINT ( 'NONE',  ( 0.0000000000000000000, 0.0000000000000000000, 2.000000000000000000 ) ) ;
#16 = ORIENTED_EDGE ( 'NONE', *, *, #97, .T. ) ;
#17 = AXIS2_PLACEMENT_3D ( 'NONE', #191, #43, #331 ) ;
#18 = MECHANICAL_DESIGN_GEOMETRIC_PRESENTATION_REPRESENTATION (  '', ( #223 ), #95 ) ;
#19 = DIRECTION ( 'NONE',  ( 0.0000000000000000000, 0.0000000000000000000, 1.000000000000000000 ) ) ;
#20 = CARTESIAN_POINT ( 'NONE',  ( 0.04500000000000000527, 5.510910596163092637E-18, 0.1250000000000000000 ) ) ;
#21 = DIRECTION ( 'NONE',  ( 1.000000000000000000, 0.0000000000000000000, 0.0000000000000000000 ) ) ;
#22 = FACE_OUTER_BOUND ( 'NONE', #251, .T. ) ;
#23 = CIRCLE ( 'NONE', #305, 0.04500000000000000527 ) ;
#24 = ADVANCED_FACE ( 'NONE', ( #342 ), #232, .T. ) ;
#25 = DIRECTION ( 'NONE',  ( -0.7071067811865496822, 8.659560562354959975E-17, 0.7071067811865454633 ) ) ;
#26 = CARTESIAN_POINT ( 'NONE',  ( 0.0000000000000000000, 0.0000000000000000000, 0.0000000000000000000 ) ) ;
#27 = FILL_AREA_STYLE ('',( #353 ) ) ;
#28 = AXIS2_PLACEMENT_3D ( 'NONE', #314, #168, #116 ) ;
#29 = ORIENTED_EDGE ( 'NONE', *, *, #183, .F. ) ;
#30 = CARTESIAN_POINT ( 'NONE',  ( 0.04500000000000006772, 0.0000000000000000000, 0.5500000000000000444 ) ) ;
#31 =( NAMED_UNIT ( * ) SI_UNIT ( $, .STERADIAN. ) SOLID_ANGLE_UNIT ( ) );
#32 = ORIENTED_EDGE ( 'NONE', *, *, #146, .T. ) ;
#33 = DIMENSIONAL_EXPONENTS ( 1.000000000000000000, 0.0000000000000000000, 0.0000000000000000000, 0.0000000000000000000, 0.0000000000000000000, 0.0000000000000000000, 0.0000000000000000000 ) ;
#34 = DIRECTION ( 'NONE',  ( 1.000000000000000000, 0.0000000000000000000, -0.0000000000000000000 ) ) ;
#35 = ORIENTED_EDGE ( 'NONE', *, *, #58, .T. ) ;
#36 = VERTEX_POINT ( 'NONE', #91 ) ;
#37 = DIMENSIONAL_EXPONENTS ( 1.000000000000000000, 0.0000000000000000000, 0.0000000000000000000, 0.0000000000000000000, 0.0000000000000000000, 0.0000000000000000000, 0.0000000000000000000 ) ;
#38 = VECTOR ( 'NONE', #25, 39.37007874015748143 ) ;
#39 = DIRECTION ( 'NONE',  ( -1.000000000000000000, 0.0000000000000000000, 0.0000000000000000000 ) ) ;
#40 =( CONVERSION_BASED_UNIT ( 'INCH', #148 ) LENGTH_UNIT ( ) NAMED_UNIT ( #33 ) );
#41 = ORIENTED_EDGE ( 'NONE', *, *, #369, .T. ) ;
#42 = AXIS2_PLACEMENT_3D ( 'NONE', #154, #121, #7 ) ;
#43 = DIRECTION ( 'NONE',  ( -0.0000000000000000000, -0.0000000000000000000, -1.000000000000000000 ) ) ;
#44 = EDGE_LOOP ( 'NONE', ( #69, #41, #279, #153 ) ) ;
#45 = PRODUCT ( 'Micro_KC-187-550-125X', 'Micro_KC-187-550-125X', '', ( #63 ) ) ;
#46 = EDGE_LOOP ( 'NONE', ( #184, #190 ) ) ;
#47 = SURFACE_STYLE_USAGE ( .BOTH. , #75 ) ;
#48 = EDGE_LOOP ( 'NONE', ( #196, #311 ) ) ;
#49 = PRODUCT_DEFINITION ( 'UNKNOWN', '', #102, #158 ) ;
#50 = CARTESIAN_POINT ( 'NONE',  ( -0.09375000000000001388, 0.0000000000000000000, 0.0000000000000000000 ) ) ;
#51 = AXIS2_PLACEMENT_3D ( 'NONE', #98, #217, #220 ) ;
#52 = AXIS2_PLACEMENT_3D ( 'NONE', #324, #359, #94 ) ;
#53 = EDGE_CURVE ( 'NONE', #72, #274, #275, .T. ) ;
#54 = CARTESIAN_POINT ( 'NONE',  ( -0.09375000000000001388, 0.0000000000000000000, 0.1250000000000000000 ) ) ;
#55 = AXIS2_PLACEMENT_3D ( 'NONE', #202, #377, #231 ) ;
#56 = CARTESIAN_POINT ( 'NONE',  ( 0.0000000000000000000, 0.0000000000000000000, 0.5500000000000000444 ) ) ;
#57 = DIRECTION ( 'NONE',  ( 1.000000000000000000, 0.0000000000000000000, -0.0000000000000000000 ) ) ;
#58 = EDGE_CURVE ( 'NONE', #281, #125, #107, .T. ) ;
#59 = CARTESIAN_POINT ( 'NONE',  ( 0.09375000000000001388, 1.148106374200643863E-17, 0.0000000000000000000 ) ) ;
#60 = ORIENTED_EDGE ( 'NONE', *, *, #306, .F. ) ;
#61 =( NAMED_UNIT ( * ) PLANE_ANGLE_UNIT ( ) SI_UNIT ( $, .RADIAN. ) );
#62 = EDGE_LOOP ( 'NONE', ( #226, #307, #364, #221 ) ) ;
#63 = PRODUCT_CONTEXT ( 'NONE', #87, 'mechanical' ) ;
#64 = VERTEX_POINT ( 'NONE', #115 ) ;
#65 = DIRECTION ( 'NONE',  ( -0.0000000000000000000, -0.0000000000000000000, -1.000000000000000000 ) ) ;
#66 = SHAPE_DEFINITION_REPRESENTATION ( #77, #205 ) ;
#67 = AXIS2_PLACEMENT_3D ( 'NONE', #260, #372, #111 ) ;
#68 = LINE ( 'NONE', #280, #245 ) ;
#69 = ORIENTED_EDGE ( 'NONE', *, *, #130, .T. ) ;
#70 = EDGE_CURVE ( 'NONE', #104, #36, #292, .T. ) ;
#71 = DIRECTION ( 'NONE',  ( -1.000000000000000000, 0.0000000000000000000, 0.0000000000000000000 ) ) ;
#72 = VERTEX_POINT ( 'NONE', #59 ) ;
#73 = EDGE_LOOP ( 'NONE', ( #176, #35, #180, #332 ) ) ;
#74 = AXIS2_PLACEMENT_3D ( 'NONE', #4, #241, #243 ) ;
#75 = SURFACE_SIDE_STYLE ('',( #103 ) ) ;
#76 = LINE ( 'NONE', #341, #285 ) ;
#77 = PRODUCT_DEFINITION_SHAPE ( 'NONE', 'NONE',  #49 ) ;
#78 = DIRECTION ( 'NONE',  ( -0.0000000000000000000, -0.0000000000000000000, -1.000000000000000000 ) ) ;
#79 = VECTOR ( 'NONE', #378, 39.37007874015748143 ) ;
#80 = UNCERTAINTY_MEASURE_WITH_UNIT (LENGTH_MEASURE( 1.000000000000000082E-05 ), #240, 'distance_accuracy_value', 'NONE');
#81 = ADVANCED_FACE ( 'NONE', ( #237 ), #174, .T. ) ;
#82 = DIRECTION ( 'NONE',  ( 0.0000000000000000000, 0.0000000000000000000, 1.000000000000000000 ) ) ;
#83 = CARTESIAN_POINT ( 'NONE',  ( 0.0000000000000000000, 0.0000000000000000000, 0.5500000000000000444 ) ) ;
#84 = CARTESIAN_POINT ( 'NONE',  ( 0.0000000000000000000, 0.0000000000000000000, 2.000000000000000000 ) ) ;
#85 = DIRECTION ( 'NONE',  ( 0.0000000000000000000, 0.0000000000000000000, 1.000000000000000000 ) ) ;
#86 = LINE ( 'NONE', #316, #79 ) ;
#87 = APPLICATION_CONTEXT ( 'automotive_design' ) ;
#88 = DIRECTION ( 'NONE',  ( -0.0000000000000000000, -0.0000000000000000000, -1.000000000000000000 ) ) ;
#89 = VECTOR ( 'NONE', #163, 39.37007874015748143 ) ;
#90 = STYLED_ITEM ( 'NONE', ( #327 ), #205 ) ;
#91 = CARTESIAN_POINT ( 'NONE',  ( -0.09375000000000001388, 0.0000000000000000000, 0.5987499999999996714 ) ) ;
#92 = ORIENTED_EDGE ( 'NONE', *, *, #117, .T. ) ;
#93 = FACE_OUTER_BOUND ( 'NONE', #151, .T. ) ;
#94 = DIRECTION ( 'NONE',  ( 1.000000000000000000, 0.0000000000000000000, 0.0000000000000000000 ) ) ;
#95 =( GEOMETRIC_REPRESENTATION_CONTEXT ( 3 ) GLOBAL_UNCERTAINTY_ASSIGNED_CONTEXT ( ( #287 ) ) GLOBAL_UNIT_ASSIGNED_CONTEXT ( ( #40, #1, #31 ) ) REPRESENTATION_CONTEXT ( 'NONE', 'WORKASPACE' ) );
#96 = DIRECTION ( 'NONE',  ( 1.000000000000000000, 0.0000000000000000000, -0.0000000000000000000 ) ) ;
#97 = EDGE_CURVE ( 'NONE', #134, #104, #304, .T. ) ;
#98 = CARTESIAN_POINT ( 'NONE',  ( 0.0000000000000000000, 0.0000000000000000000, 0.1250000000000000000 ) ) ;
#99 = ORIENTED_EDGE ( 'NONE', *, *, #369, .F. ) ;
#100 = ORIENTED_EDGE ( 'NONE', *, *, #235, .F. ) ;
#101 = AXIS2_PLACEMENT_3D ( 'NONE', #166, #312, #230 ) ;
#102 = PRODUCT_DEFINITION_FORMATION_WITH_SPECIFIED_SOURCE ( 'ANY', '', #45, .NOT_KNOWN. ) ;
#103 = SURFACE_STYLE_FILL_AREA ( #333 ) ;
#104 = VERTEX_POINT ( 'NONE', #308 ) ;
#105 = EDGE_LOOP ( 'NONE', ( #157, #192, #137, #271 ) ) ;
#106 = ORIENTED_EDGE ( 'NONE', *, *, #320, .T. ) ;
#107 = CIRCLE ( 'NONE', #206, 0.09375000000000001388 ) ;
#108 = CARTESIAN_POINT ( 'NONE',  ( -0.09375000000000001388, 0.0000000000000000000, 2.000000000000000000 ) ) ;
#109 = DIRECTION ( 'NONE',  ( 1.000000000000000000, 0.0000000000000000000, 0.0000000000000000000 ) ) ;
#110 = EDGE_CURVE ( 'NONE', #134, #216, #225, .T. ) ;
#111 = DIRECTION ( 'NONE',  ( -1.000000000000000000, 0.0000000000000000000, 0.0000000000000000000 ) ) ;
#112 = CIRCLE ( 'NONE', #188, 0.07874999999999980627 ) ;
#113 = CYLINDRICAL_SURFACE ( 'NONE', #28, 0.09375000000000001388 ) ;
#114 = VECTOR ( 'NONE', #198, 39.37007874015748143 ) ;
#115 = CARTESIAN_POINT ( 'NONE',  ( 0.09375000000000001388, 1.148106374200643863E-17, 0.1250000000000000000 ) ) ;
#116 = DIRECTION ( 'NONE',  ( -1.000000000000000000, 0.0000000000000000000, 0.0000000000000000000 ) ) ;
#117 = EDGE_CURVE ( 'NONE', #104, #134, #345, .T. ) ;
#118 = DIRECTION ( 'NONE',  ( 0.0000000000000000000, 0.0000000000000000000, 1.000000000000000000 ) ) ;
#119 = ADVANCED_FACE ( 'NONE', ( #195 ), #160, .T. ) ;
#120 = PRESENTATION_LAYER_ASSIGNMENT (  '', '', ( #223 ) ) ;
#121 = DIRECTION ( 'NONE',  ( -0.0000000000000000000, -0.0000000000000000000, -1.000000000000000000 ) ) ;
#122 = ADVANCED_FACE ( 'NONE', ( #13 ), #133, .T. ) ;
#123 = MANIFOLD_SOLID_BREP ( 'Cut-Revolve1', #338 ) ;
#124 = CARTESIAN_POINT ( 'NONE',  ( 0.0000000000000000000, 0.0000000000000000000, 1.984999999999999654 ) ) ;
#125 = VERTEX_POINT ( 'NONE', #149 ) ;
#126 = ORIENTED_EDGE ( 'NONE', *, *, #135, .F. ) ;
#127 = LINE ( 'NONE', #360, #143 ) ;
#128 = EDGE_LOOP ( 'NONE', ( #249, #351, #10, #132 ) ) ;
#129 = FACE_OUTER_BOUND ( 'NONE', #366, .T. ) ;
#130 = EDGE_CURVE ( 'NONE', #284, #64, #193, .T. ) ;
#131 = LINE ( 'NONE', #108, #330 ) ;
#132 = ORIENTED_EDGE ( 'NONE', *, *, #197, .F. ) ;
#133 = CYLINDRICAL_SURFACE ( 'NONE', #296, 0.04500000000000003303 ) ;
#134 = VERTEX_POINT ( 'NONE', #352 ) ;
#135 = EDGE_CURVE ( 'NONE', #125, #281, #339, .T. ) ;
#136 = CARTESIAN_POINT ( 'NONE',  ( 0.0000000000000000000, 0.0000000000000000000, 0.0000000000000000000 ) ) ;
#137 = ORIENTED_EDGE ( 'NONE', *, *, #254, .T. ) ;
#138 = PRESENTATION_LAYER_ASSIGNMENT (  '', '', ( #90 ) ) ;
#139 = DIRECTION ( 'NONE',  ( -1.000000000000000000, 0.0000000000000000000, 0.0000000000000000000 ) ) ;
#140 = FACE_OUTER_BOUND ( 'NONE', #128, .T. ) ;
#141 = DIRECTION ( 'NONE',  ( 0.0000000000000000000, 0.0000000000000000000, 1.000000000000000000 ) ) ;
#142 = CARTESIAN_POINT ( 'NONE',  ( 0.0000000000000000000, 0.0000000000000000000, 2.000000000000000000 ) ) ;
#143 = VECTOR ( 'NONE', #65, 39.37007874015748143 ) ;
#144 = ADVANCED_FACE ( 'NONE', ( #156 ), #278, .T. ) ;
#145 = CARTESIAN_POINT ( 'NONE',  ( -0.07874999999999980627, 0.0000000000000000000, 2.000000000000000000 ) ) ;
#146 = EDGE_CURVE ( 'NONE', #357, #36, #379, .T. ) ;
#147 = AXIS2_PLACEMENT_3D ( 'NONE', #124, #187, #2 ) ;
#148 = LENGTH_MEASURE_WITH_UNIT ( LENGTH_MEASURE( 0.02539999999999999897 ), #214 );
#149 = CARTESIAN_POINT ( 'NONE',  ( -0.09375000000000001388, 0.0000000000000000000, 1.984999999999999654 ) ) ;
#150 = LENGTH_MEASURE_WITH_UNIT ( LENGTH_MEASURE( 0.02539999999999999897 ), #347 );
#151 = EDGE_LOOP ( 'NONE', ( #247, #325 ) ) ;
#152 = CIRCLE ( 'NONE', #263, 0.07874999999999980627 ) ;
#153 = ORIENTED_EDGE ( 'NONE', *, *, #203, .F. ) ;
#154 = CARTESIAN_POINT ( 'NONE',  ( 0.0000000000000000000, 0.0000000000000000000, 0.1250000000000000000 ) ) ;
#155 = ORIENTED_EDGE ( 'NONE', *, *, #70, .F. ) ;
#156 = FACE_OUTER_BOUND ( 'NONE', #194, .T. ) ;
#157 = ORIENTED_EDGE ( 'NONE', *, *, #117, .F. ) ;
#158 = PRODUCT_DEFINITION_CONTEXT ( 'detailed design', #267, 'design' ) ;
#159 = AXIS2_PLACEMENT_3D ( 'NONE', #322, #82, #21 ) ;
#160 = CYLINDRICAL_SURFACE ( 'NONE', #165, 0.09375000000000001388 ) ;
#161 = ORIENTED_EDGE ( 'NONE', *, *, #110, .F. ) ;
#162 = ADVANCED_FACE ( 'NONE', ( #93 ), #354, .T. ) ;
#163 = DIRECTION ( 'NONE',  ( -0.0000000000000000000, -0.0000000000000000000, -1.000000000000000000 ) ) ;
#164 = ORIENTED_EDGE ( 'NONE', *, *, #186, .F. ) ;
#165 = AXIS2_PLACEMENT_3D ( 'NONE', #15, #310, #282 ) ;
#166 = CARTESIAN_POINT ( 'NONE',  ( 0.0000000000000000000, 0.0000000000000000000, 2.000000000000000000 ) ) ;
#167 = DIRECTION ( 'NONE',  ( -0.0000000000000000000, -0.0000000000000000000, -1.000000000000000000 ) ) ;
#168 = DIRECTION ( 'NONE',  ( -0.0000000000000000000, -0.0000000000000000000, -1.000000000000000000 ) ) ;
#169 = DIRECTION ( 'NONE',  ( 0.0000000000000000000, 0.0000000000000000000, -1.000000000000000000 ) ) ;
#170 = LINE ( 'NONE', #344, #229 ) ;
#171 = CIRCLE ( 'NONE', #55, 0.09375000000000001388 ) ;
#172 = DIRECTION ( 'NONE',  ( 0.0000000000000000000, 0.0000000000000000000, 1.000000000000000000 ) ) ;
#173 = CARTESIAN_POINT ( 'NONE',  ( 0.09375000000000001388, 0.0000000000000000000, 0.1250000000000000000 ) ) ;
#174 = CYLINDRICAL_SURFACE ( 'NONE', #67, 0.04500000000000003303 ) ;
#175 =( LENGTH_UNIT ( ) NAMED_UNIT ( * ) SI_UNIT ( $, .METRE. ) );
#176 = ORIENTED_EDGE ( 'NONE', *, *, #362, .F. ) ;
#177 = ADVANCED_FACE ( 'NONE', ( #129 ), #185, .F. ) ;
#178 =( NAMED_UNIT ( * ) SI_UNIT ( $, .STERADIAN. ) SOLID_ANGLE_UNIT ( ) );
#179 = AXIS2_PLACEMENT_3D ( 'NONE', #358, #303, #39 ) ;
#180 = ORIENTED_EDGE ( 'NONE', *, *, #197, .T. ) ;
#181 = APPLICATION_PROTOCOL_DEFINITION ( 'draft international standard', 'automotive_design', 1998, #267 ) ;
#182 = VERTEX_POINT ( 'NONE', #300 ) ;
#183 = EDGE_CURVE ( 'NONE', #104, #299, #127, .T. ) ;
#184 = ORIENTED_EDGE ( 'NONE', *, *, #317, .T. ) ;
#185 = PLANE ( 'NONE',  #346 ) ;
#186 = EDGE_CURVE ( 'NONE', #216, #299, #355, .T. ) ;
#187 = DIRECTION ( 'NONE',  ( 0.0000000000000000000, 0.0000000000000000000, -1.000000000000000000 ) ) ;
#188 = AXIS2_PLACEMENT_3D ( 'NONE', #348, #298, #209 ) ;
#189 = MECHANICAL_DESIGN_GEOMETRIC_PRESENTATION_REPRESENTATION (  '', ( #90 ), #297 ) ;
#190 = ORIENTED_EDGE ( 'NONE', *, *, #186, .T. ) ;
#191 = CARTESIAN_POINT ( 'NONE',  ( 0.0000000000000000000, 0.0000000000000000000, 0.5500000000000000444 ) ) ;
#192 = ORIENTED_EDGE ( 'NONE', *, *, #70, .T. ) ;
#193 = CIRCLE ( 'NONE', #42, 0.09375000000000001388 ) ;
#194 = EDGE_LOOP ( 'NONE', ( #99, #106, #219, #309 ) ) ;
#195 = FACE_OUTER_BOUND ( 'NONE', #44, .T. ) ;
#196 = ORIENTED_EDGE ( 'NONE', *, *, #130, .F. ) ;
#197 = EDGE_CURVE ( 'NONE', #125, #36, #68, .T. ) ;
#198 = DIRECTION ( 'NONE',  ( -0.7071067811865463515, 0.0000000000000000000, -0.7071067811865486830 ) ) ;
#199 = AXIS2_PLACEMENT_3D ( 'NONE', #26, #19, #266 ) ;
#200 = FACE_OUTER_BOUND ( 'NONE', #73, .T. ) ;
#201 = DIRECTION ( 'NONE',  ( -0.0000000000000000000, -0.0000000000000000000, -1.000000000000000000 ) ) ;
#202 = CARTESIAN_POINT ( 'NONE',  ( 0.0000000000000000000, 0.0000000000000000000, 0.1250000000000000000 ) ) ;
#203 = EDGE_CURVE ( 'NONE', #284, #274, #131, .T. ) ;
#204 = CARTESIAN_POINT ( 'NONE',  ( 0.09375000000000001388, 1.148106374200643863E-17, 1.984999999999999654 ) ) ;
#205 = ADVANCED_BREP_SHAPE_REPRESENTATION ( 'Micro_KC-187-550-125X', ( #123, #52 ), #368 ) ;
#206 = AXIS2_PLACEMENT_3D ( 'NONE', #265, #169, #340 ) ;
#207 = CARTESIAN_POINT ( 'NONE',  ( -0.04500000000000006772, 5.510910596163098030E-18, 0.5500000000000000444 ) ) ;
#208 = EDGE_CURVE ( 'NONE', #182, #281, #76, .T. ) ;
#209 = DIRECTION ( 'NONE',  ( 1.000000000000000000, 0.0000000000000000000, 0.0000000000000000000 ) ) ;
#210 = DIRECTION ( 'NONE',  ( 0.7071067811865496822, 0.0000000000000000000, 0.7071067811865454633 ) ) ;
#211 = FACE_OUTER_BOUND ( 'NONE', #321, .T. ) ;
#212 = SURFACE_SIDE_STYLE ('',( #215 ) ) ;
#213 = EDGE_LOOP ( 'NONE', ( #161, #16, #277, #164 ) ) ;
#214 =( LENGTH_UNIT ( ) NAMED_UNIT ( * ) SI_UNIT ( $, .METRE. ) );
#215 = SURFACE_STYLE_FILL_AREA ( #27 ) ;
#216 = VERTEX_POINT ( 'NONE', #20 ) ;
#217 = DIRECTION ( 'NONE',  ( -0.0000000000000000000, -0.0000000000000000000, -1.000000000000000000 ) ) ;
#218 = APPLICATION_PROTOCOL_DEFINITION ( 'draft international standard', 'automotive_design', 1998, #87 ) ;
#219 = ORIENTED_EDGE ( 'NONE', *, *, #203, .T. ) ;
#220 = DIRECTION ( 'NONE',  ( -1.000000000000000000, 0.0000000000000000000, 0.0000000000000000000 ) ) ;
#221 = ORIENTED_EDGE ( 'NONE', *, *, #58, .F. ) ;
#222 = AXIS2_PLACEMENT_3D ( 'NONE', #246, #329, #96 ) ;
#223 = STYLED_ITEM ( 'NONE', ( #367 ), #123 ) ;
#224 = UNCERTAINTY_MEASURE_WITH_UNIT (LENGTH_MEASURE( 1.000000000000000082E-05 ), #239, 'distance_accuracy_value', 'NONE');
#225 = LINE ( 'NONE', #365, #89 ) ;
#226 = ORIENTED_EDGE ( 'NONE', *, *, #208, .F. ) ;
#227 = FILL_AREA_STYLE_COLOUR ( '', #323 ) ;
#228 = ORIENTED_EDGE ( 'NONE', *, *, #53, .F. ) ;
#229 = VECTOR ( 'NONE', #88, 39.37007874015748143 ) ;
#230 = DIRECTION ( 'NONE',  ( -1.000000000000000000, 0.0000000000000000000, 0.0000000000000000000 ) ) ;
#231 = DIRECTION ( 'NONE',  ( -1.000000000000000000, 0.0000000000000000000, 0.0000000000000000000 ) ) ;
#232 = CONICAL_SURFACE ( 'NONE', #374, 0.04500000000000006772, 0.7853981633974512766 ) ;
#233 = DIRECTION ( 'NONE',  ( 0.0000000000000000000, 0.0000000000000000000, -1.000000000000000000 ) ) ;
#234 = EDGE_CURVE ( 'NONE', #182, #272, #152, .T. ) ;
#235 = EDGE_CURVE ( 'NONE', #272, #125, #293, .T. ) ;
#236 = DIRECTION ( 'NONE',  ( -1.000000000000000000, 0.0000000000000000000, 0.0000000000000000000 ) ) ;
#237 = FACE_OUTER_BOUND ( 'NONE', #363, .T. ) ;
#238 = PLANE ( 'NONE',  #361 ) ;
#239 =( CONVERSION_BASED_UNIT ( 'INCH', #244 ) LENGTH_UNIT ( ) NAMED_UNIT ( #37 ) );
#240 =( CONVERSION_BASED_UNIT ( 'INCH', #150 ) LENGTH_UNIT ( ) NAMED_UNIT ( #6 ) );
#241 = DIRECTION ( 'NONE',  ( -0.0000000000000000000, -0.0000000000000000000, -1.000000000000000000 ) ) ;
#242 =( NAMED_UNIT ( * ) PLANE_ANGLE_UNIT ( ) SI_UNIT ( $, .RADIAN. ) );
#243 = DIRECTION ( 'NONE',  ( 1.000000000000000000, 0.0000000000000000000, 0.0000000000000000000 ) ) ;
#244 = LENGTH_MEASURE_WITH_UNIT ( LENGTH_MEASURE( 0.02539999999999999897 ), #175 );
#245 = VECTOR ( 'NONE', #9, 39.37007874015748143 ) ;
#246 = CARTESIAN_POINT ( 'NONE',  ( 0.0000000000000000000, 0.0000000000000000000, 2.000000000000000000 ) ) ;
#247 = ORIENTED_EDGE ( 'NONE', *, *, #8, .T. ) ;
#248 = CARTESIAN_POINT ( 'NONE',  ( 0.0000000000000000000, 0.0000000000000000000, 0.0000000000000000000 ) ) ;
#249 = ORIENTED_EDGE ( 'NONE', *, *, #135, .T. ) ;
#250 = CONICAL_SURFACE ( 'NONE', #5, 0.07874999999999980627, 0.7853981633974466137 ) ;
#251 = EDGE_LOOP ( 'NONE', ( #14, #334, #126, #100 ) ) ;
#252 = DIRECTION ( 'NONE',  ( -1.000000000000000000, 0.0000000000000000000, 0.0000000000000000000 ) ) ;
#253 = ORIENTED_EDGE ( 'NONE', *, *, #317, .F. ) ;
#254 = EDGE_CURVE ( 'NONE', #36, #357, #291, .T. ) ;
#255 = DIRECTION ( 'NONE',  ( -0.0000000000000000000, -0.0000000000000000000, -1.000000000000000000 ) ) ;
#256 = AXIS2_PLACEMENT_3D ( 'NONE', #83, #201, #71 ) ;
#257 = COLOUR_RGB ( '',0.7921568627450980005, 0.8196078431372548767, 0.9333333333333333481 ) ;
#258 = CARTESIAN_POINT ( 'NONE',  ( -0.07874999999999980627, 0.0000000000000000000, 2.000000000000000000 ) ) ;
#259 = DIRECTION ( 'NONE',  ( -0.0000000000000000000, -0.0000000000000000000, -1.000000000000000000 ) ) ;
#260 = CARTESIAN_POINT ( 'NONE',  ( 0.0000000000000000000, 0.0000000000000000000, 0.0000000000000000000 ) ) ;
#261 = FACE_BOUND ( 'NONE', #46, .T. ) ;
#262 = ADVANCED_FACE ( 'NONE', ( #295 ), #335, .T. ) ;
#263 = AXIS2_PLACEMENT_3D ( 'NONE', #313, #141, #109 ) ;
#264 = DIRECTION ( 'NONE',  ( 0.0000000000000000000, 0.0000000000000000000, -1.000000000000000000 ) ) ;
#265 = CARTESIAN_POINT ( 'NONE',  ( 0.0000000000000000000, 0.0000000000000000000, 1.984999999999999654 ) ) ;
#266 = DIRECTION ( 'NONE',  ( 1.000000000000000000, 0.0000000000000000000, 0.0000000000000000000 ) ) ;
#267 = APPLICATION_CONTEXT ( 'automotive_design' ) ;
#268 = ADVANCED_FACE ( 'NONE', ( #140 ), #290, .T. ) ;
#269 = CONICAL_SURFACE ( 'NONE', #159, 0.04500000000000006772, 0.7853981633974512766 ) ;
#270 = AXIS2_PLACEMENT_3D ( 'NONE', #337, #78, #336 ) ;
#271 = ORIENTED_EDGE ( 'NONE', *, *, #371, .F. ) ;
#272 = VERTEX_POINT ( 'NONE', #258 ) ;
#273 = PRODUCT_RELATED_PRODUCT_CATEGORY ( 'part', '', ( #45 ) ) ;
#274 = VERTEX_POINT ( 'NONE', #50 ) ;
#275 = CIRCLE ( 'NONE', #318, 0.09375000000000001388 ) ;
#276 = VECTOR ( 'NONE', #210, 39.37007874015748143 ) ;
#277 = ORIENTED_EDGE ( 'NONE', *, *, #183, .T. ) ;
#278 = CYLINDRICAL_SURFACE ( 'NONE', #179, 0.09375000000000001388 ) ;
#279 = ORIENTED_EDGE ( 'NONE', *, *, #53, .T. ) ;
#280 = CARTESIAN_POINT ( 'NONE',  ( -0.09375000000000001388, 0.0000000000000000000, 2.000000000000000000 ) ) ;
#281 = VERTEX_POINT ( 'NONE', #204 ) ;
#282 = DIRECTION ( 'NONE',  ( -1.000000000000000000, 0.0000000000000000000, 0.0000000000000000000 ) ) ;
#283 = ORIENTED_EDGE ( 'NONE', *, *, #371, .T. ) ;
#284 = VERTEX_POINT ( 'NONE', #54 ) ;
#285 = VECTOR ( 'NONE', #289, 39.37007874015748143 ) ;
#286 = CARTESIAN_POINT ( 'NONE',  ( 0.0000000000000000000, 0.0000000000000000000, 0.1250000000000000000 ) ) ;
#287 = UNCERTAINTY_MEASURE_WITH_UNIT (LENGTH_MEASURE( 1.000000000000000082E-05 ), #40, 'distance_accuracy_value', 'NONE');
#288 = ADVANCED_FACE ( 'NONE', ( #261, #319 ), #238, .T. ) ;
#289 = DIRECTION ( 'NONE',  ( 0.7071067811865463515, 8.659560562354916834E-17, -0.7071067811865486830 ) ) ;
#290 = CYLINDRICAL_SURFACE ( 'NONE', #101, 0.09375000000000001388 ) ;
#291 = CIRCLE ( 'NONE', #270, 0.09375000000000001388 ) ;
#292 = LINE ( 'NONE', #207, #38 ) ;
#293 = LINE ( 'NONE', #145, #114 ) ;
#294 = CARTESIAN_POINT ( 'NONE',  ( 0.0000000000000000000, 0.0000000000000000000, 0.0000000000000000000 ) ) ;
#295 = FACE_OUTER_BOUND ( 'NONE', #62, .T. ) ;
#296 = AXIS2_PLACEMENT_3D ( 'NONE', #136, #255, #252 ) ;
#297 =( GEOMETRIC_REPRESENTATION_CONTEXT ( 3 ) GLOBAL_UNCERTAINTY_ASSIGNED_CONTEXT ( ( #224 ) ) GLOBAL_UNIT_ASSIGNED_CONTEXT ( ( #239, #61, #301 ) ) REPRESENTATION_CONTEXT ( 'NONE', 'WORKASPACE' ) );
#298 = DIRECTION ( 'NONE',  ( 0.0000000000000000000, 0.0000000000000000000, 1.000000000000000000 ) ) ;
#299 = VERTEX_POINT ( 'NONE', #373 ) ;
#300 = CARTESIAN_POINT ( 'NONE',  ( 0.07874999999999980627, 1.056257864264590573E-17, 2.000000000000000000 ) ) ;
#301 =( NAMED_UNIT ( * ) SI_UNIT ( $, .STERADIAN. ) SOLID_ANGLE_UNIT ( ) );
#302 = ORIENTED_EDGE ( 'NONE', *, *, #97, .F. ) ;
#303 = DIRECTION ( 'NONE',  ( -0.0000000000000000000, -0.0000000000000000000, -1.000000000000000000 ) ) ;
#304 = CIRCLE ( 'NONE', #256, 0.04500000000000006772 ) ;
#305 = AXIS2_PLACEMENT_3D ( 'NONE', #286, #259, #370 ) ;
#306 = EDGE_CURVE ( 'NONE', #274, #72, #375, .T. ) ;
#307 = ORIENTED_EDGE ( 'NONE', *, *, #8, .F. ) ;
#308 = CARTESIAN_POINT ( 'NONE',  ( -0.04500000000000006772, 8.495987169084768714E-18, 0.5500000000000000444 ) ) ;
#309 = ORIENTED_EDGE ( 'NONE', *, *, #306, .T. ) ;
#310 = DIRECTION ( 'NONE',  ( -0.0000000000000000000, -0.0000000000000000000, -1.000000000000000000 ) ) ;
#311 = ORIENTED_EDGE ( 'NONE', *, *, #320, .F. ) ;
#312 = DIRECTION ( 'NONE',  ( -0.0000000000000000000, -0.0000000000000000000, -1.000000000000000000 ) ) ;
#313 = CARTESIAN_POINT ( 'NONE',  ( 0.0000000000000000000, 0.0000000000000000000, 2.000000000000000000 ) ) ;
#314 = CARTESIAN_POINT ( 'NONE',  ( 0.0000000000000000000, 0.0000000000000000000, 2.000000000000000000 ) ) ;
#315 = DIRECTION ( 'NONE',  ( 1.000000000000000000, 0.0000000000000000000, 0.0000000000000000000 ) ) ;
#316 = CARTESIAN_POINT ( 'NONE',  ( 0.09375000000000001388, 1.148106374200643863E-17, 2.000000000000000000 ) ) ;
#317 = EDGE_CURVE ( 'NONE', #299, #216, #23, .T. ) ;
#318 = AXIS2_PLACEMENT_3D ( 'NONE', #294, #85, #315 ) ;
#319 = FACE_OUTER_BOUND ( 'NONE', #48, .T. ) ;
#320 = EDGE_CURVE ( 'NONE', #64, #284, #171, .T. ) ;
#321 = EDGE_LOOP ( 'NONE', ( #155, #302, #283, #32 ) ) ;
#322 = CARTESIAN_POINT ( 'NONE',  ( 0.0000000000000000000, 0.0000000000000000000, 0.5500000000000000444 ) ) ;
#323 = COLOUR_RGB ( '',0.7921568627450980005, 0.8196078431372548767, 0.9333333333333333481 ) ;
#324 = CARTESIAN_POINT ( 'NONE',  ( 0.0000000000000000000, 0.0000000000000000000, 0.0000000000000000000 ) ) ;
#325 = ORIENTED_EDGE ( 'NONE', *, *, #234, .T. ) ;
#326 = DIRECTION ( 'NONE',  ( 0.0000000000000000000, 0.0000000000000000000, 1.000000000000000000 ) ) ;
#327 = PRESENTATION_STYLE_ASSIGNMENT (( #349 ) ) ;
#328 = ADVANCED_FACE ( 'NONE', ( #200 ), #113, .T. ) ;
#329 = DIRECTION ( 'NONE',  ( 0.0000000000000000000, 0.0000000000000000000, 1.000000000000000000 ) ) ;
#330 = VECTOR ( 'NONE', #167, 39.37007874015748143 ) ;
#331 = DIRECTION ( 'NONE',  ( -1.000000000000000000, 0.0000000000000000000, 0.0000000000000000000 ) ) ;
#332 = ORIENTED_EDGE ( 'NONE', *, *, #146, .F. ) ;
#333 = FILL_AREA_STYLE ('',( #227 ) ) ;
#334 = ORIENTED_EDGE ( 'NONE', *, *, #208, .T. ) ;
#335 = CONICAL_SURFACE ( 'NONE', #12, 0.07874999999999980627, 0.7853981633974466137 ) ;
#336 = DIRECTION ( 'NONE',  ( 1.000000000000000000, 0.0000000000000000000, 0.0000000000000000000 ) ) ;
#337 = CARTESIAN_POINT ( 'NONE',  ( 0.0000000000000000000, 0.0000000000000000000, 0.5987499999999996714 ) ) ;
#338 = CLOSED_SHELL ( 'NONE', ( #119, #81, #24, #350, #268, #328, #162, #262, #11, #122, #288, #177, #144 ) ) ;
#339 = CIRCLE ( 'NONE', #147, 0.09375000000000001388 ) ;
#340 = DIRECTION ( 'NONE',  ( 1.000000000000000000, 0.0000000000000000000, 0.0000000000000000000 ) ) ;
#341 = CARTESIAN_POINT ( 'NONE',  ( 0.07874999999999980627, 9.644093543285380530E-18, 2.000000000000000000 ) ) ;
#342 = FACE_OUTER_BOUND ( 'NONE', #105, .T. ) ;
#343 = CARTESIAN_POINT ( 'NONE',  ( 0.09375000000000001388, 1.148106374200643863E-17, 0.5987499999999996714 ) ) ;
#344 = CARTESIAN_POINT ( 'NONE',  ( 0.09375000000000001388, 1.148106374200643863E-17, 2.000000000000000000 ) ) ;
#345 = CIRCLE ( 'NONE', #17, 0.04500000000000006772 ) ;
#346 = AXIS2_PLACEMENT_3D ( 'NONE', #248, #326, #34 ) ;
#347 =( LENGTH_UNIT ( ) NAMED_UNIT ( * ) SI_UNIT ( $, .METRE. ) );
#348 = CARTESIAN_POINT ( 'NONE',  ( 0.0000000000000000000, 0.0000000000000000000, 2.000000000000000000 ) ) ;
#349 = SURFACE_STYLE_USAGE ( .BOTH. , #212 ) ;
#350 = ADVANCED_FACE ( 'NONE', ( #22 ), #250, .T. ) ;
#351 = ORIENTED_EDGE ( 'NONE', *, *, #362, .T. ) ;
#352 = CARTESIAN_POINT ( 'NONE',  ( 0.04500000000000006772, 0.0000000000000000000, 0.5500000000000000444 ) ) ;
#353 = FILL_AREA_STYLE_COLOUR ( '', #257 ) ;
#354 = PLANE ( 'NONE',  #222 ) ;
#355 = CIRCLE ( 'NONE', #51, 0.04500000000000000527 ) ;
#356 = LINE ( 'NONE', #30, #276 ) ;
#357 = VERTEX_POINT ( 'NONE', #343 ) ;
#358 = CARTESIAN_POINT ( 'NONE',  ( 0.0000000000000000000, 0.0000000000000000000, 2.000000000000000000 ) ) ;
#359 = DIRECTION ( 'NONE',  ( 0.0000000000000000000, 0.0000000000000000000, 1.000000000000000000 ) ) ;
#360 = CARTESIAN_POINT ( 'NONE',  ( -0.04500000000000003303, 0.0000000000000000000, 0.0000000000000000000 ) ) ;
#361 = AXIS2_PLACEMENT_3D ( 'NONE', #173, #118, #57 ) ;
#362 = EDGE_CURVE ( 'NONE', #281, #357, #86, .T. ) ;
#363 = EDGE_LOOP ( 'NONE', ( #92, #3, #253, #29 ) ) ;
#364 = ORIENTED_EDGE ( 'NONE', *, *, #235, .T. ) ;
#365 = CARTESIAN_POINT ( 'NONE',  ( 0.04500000000000003303, 5.510910596163093407E-18, 0.0000000000000000000 ) ) ;
#366 = EDGE_LOOP ( 'NONE', ( #60, #228 ) ) ;
#367 = PRESENTATION_STYLE_ASSIGNMENT (( #47 ) ) ;
#368 =( GEOMETRIC_REPRESENTATION_CONTEXT ( 3 ) GLOBAL_UNCERTAINTY_ASSIGNED_CONTEXT ( ( #80 ) ) GLOBAL_UNIT_ASSIGNED_CONTEXT ( ( #240, #242, #178 ) ) REPRESENTATION_CONTEXT ( 'NONE', 'WORKASPACE' ) );
#369 = EDGE_CURVE ( 'NONE', #64, #72, #170, .T. ) ;
#370 = DIRECTION ( 'NONE',  ( -1.000000000000000000, 0.0000000000000000000, 0.0000000000000000000 ) ) ;
#371 = EDGE_CURVE ( 'NONE', #134, #357, #356, .T. ) ;
#372 = DIRECTION ( 'NONE',  ( -0.0000000000000000000, -0.0000000000000000000, -1.000000000000000000 ) ) ;
#373 = CARTESIAN_POINT ( 'NONE',  ( -0.04500000000000000527, 0.0000000000000000000, 0.1250000000000000000 ) ) ;
#374 = AXIS2_PLACEMENT_3D ( 'NONE', #56, #172, #376 ) ;
#375 = CIRCLE ( 'NONE', #199, 0.09375000000000001388 ) ;
#376 = DIRECTION ( 'NONE',  ( 1.000000000000000000, 0.0000000000000000000, 0.0000000000000000000 ) ) ;
#377 = DIRECTION ( 'NONE',  ( -0.0000000000000000000, -0.0000000000000000000, -1.000000000000000000 ) ) ;
#378 = DIRECTION ( 'NONE',  ( -0.0000000000000000000, -0.0000000000000000000, -1.000000000000000000 ) ) ;
#379 = CIRCLE ( 'NONE', #74, 0.09375000000000001388 ) ;
ENDSEC;
END-ISO-10303-21;
