ISO-10303-21;
HEADER;
FILE_DESCRIPTION (( 'STEP AP214' ),
    '1' );
FILE_NAME ('Micro_SFA-187-45.STEP',
    '2021-09-02T03:52:17',
    ( '' ),
    ( '' ),
    'SwSTEP 2.0',
    'SolidWorks 2020',
    '' );
FILE_SCHEMA (( 'AUTOMOTIVE_DESIGN' ));
ENDSEC;

DATA;
#1 = DIMENSIONAL_EXPONENTS ( 1.000000000000000000, 0.0000000000000000000, 0.0000000000000000000, 0.0000000000000000000, 0.0000000000000000000, 0.0000000000000000000, 0.0000000000000000000 ) ;
#2 = CIRCLE ( 'NONE', #196, 0.1250000000000000000 ) ;
#3 = CARTESIAN_POINT ( 'NONE',  ( -0.1250000000000000000, 0.0000000000000000000, 2.000000000000000000 ) ) ;
#4 = PRODUCT_RELATED_PRODUCT_CATEGORY ( 'part', '', ( #146 ) ) ;
#5 = DIRECTION ( 'NONE',  ( 0.0000000000000000000, 0.0000000000000000000, -1.000000000000000000 ) ) ;
#6 = CARTESIAN_POINT ( 'NONE',  ( 0.1099999999999996397, 1.347111479062084158E-17, 2.000000000000000000 ) ) ;
#7 = CIRCLE ( 'NONE', #228, 0.1099999999999996397 ) ;
#8 = CONICAL_SURFACE ( 'NONE', #56, 0.1099999999999996397, 0.7853981633974426169 ) ;
#9 = DIRECTION ( 'NONE',  ( 1.000000000000000000, 0.0000000000000000000, 0.0000000000000000000 ) ) ;
#10 = ADVANCED_FACE ( 'NONE', ( #45 ), #252, .F. ) ;
#11 = LINE ( 'NONE', #170, #163 ) ;
#12 = CARTESIAN_POINT ( 'NONE',  ( -0.09365624999999999645, 0.0000000000000000000, 1.146958267826442798E-17 ) ) ;
#13 = ORIENTED_EDGE ( 'NONE', *, *, #176, .F. ) ;
#14 = EDGE_LOOP ( 'NONE', ( #251, #43, #133, #290 ) ) ;
#15 = ADVANCED_FACE ( 'NONE', ( #204 ), #180, .T. ) ;
#16 = AXIS2_PLACEMENT_3D ( 'NONE', #93, #5, #26 ) ;
#17 = PRODUCT_CONTEXT ( 'NONE', #23, 'mechanical' ) ;
#18 = VERTEX_POINT ( 'NONE', #273 ) ;
#19 = MANIFOLD_SOLID_BREP ( 'Cut-Revolve1', #116 ) ;
#20 = EDGE_LOOP ( 'NONE', ( #13, #274, #226, #249 ) ) ;
#21 = LENGTH_MEASURE_WITH_UNIT ( LENGTH_MEASURE( 0.02539999999999999897 ), #107 );
#22 = VERTEX_POINT ( 'NONE', #94 ) ;
#23 = APPLICATION_CONTEXT ( 'automotive_design' ) ;
#24 = STYLED_ITEM ( 'NONE', ( #51 ), #19 ) ;
#25 = ADVANCED_FACE ( 'NONE', ( #50 ), #63, .T. ) ;
#26 = DIRECTION ( 'NONE',  ( 1.000000000000000000, 0.0000000000000000000, 0.0000000000000000000 ) ) ;
#27 =( CONVERSION_BASED_UNIT ( 'INCH', #280 ) LENGTH_UNIT ( ) NAMED_UNIT ( #96 ) );
#28 = CARTESIAN_POINT ( 'NONE',  ( 7.654042494670957853E-17, 0.0000000000000000000, 0.6250000000000000000 ) ) ;
#29 = PRESENTATION_LAYER_ASSIGNMENT (  '', '', ( #24 ) ) ;
#30 = DIRECTION ( 'NONE',  ( -1.224646799147353207E-16, -0.0000000000000000000, -1.000000000000000000 ) ) ;
#31 = DIRECTION ( 'NONE',  ( -1.224646799147353207E-16, -0.0000000000000000000, -1.000000000000000000 ) ) ;
#32 = DIRECTION ( 'NONE',  ( -1.224646799147353207E-16, -0.0000000000000000000, -1.000000000000000000 ) ) ;
#33 = DIRECTION ( 'NONE',  ( 1.224646799147353207E-16, 0.0000000000000000000, 1.000000000000000000 ) ) ;
#34 = CARTESIAN_POINT ( 'NONE',  ( 0.09365625000000006584, 0.0000000000000000000, 0.6250000000000000000 ) ) ;
#35 = DIRECTION ( 'NONE',  ( 1.000000000000000000, 0.0000000000000000000, 0.0000000000000000000 ) ) ;
#36 = DIRECTION ( 'NONE',  ( 1.000000000000000000, 0.0000000000000000000, 0.0000000000000000000 ) ) ;
#37 = VECTOR ( 'NONE', #69, 39.37007874015748143 ) ;
#38 = COLOUR_RGB ( '',0.7921568627450980005, 0.8196078431372548767, 0.9333333333333333481 ) ;
#39 = ORIENTED_EDGE ( 'NONE', *, *, #288, .T. ) ;
#40 = FILL_AREA_STYLE_COLOUR ( '', #38 ) ;
#41 = EDGE_LOOP ( 'NONE', ( #46, #271, #156, #86 ) ) ;
#42 =( NAMED_UNIT ( * ) PLANE_ANGLE_UNIT ( ) SI_UNIT ( $, .RADIAN. ) );
#43 = ORIENTED_EDGE ( 'NONE', *, *, #132, .T. ) ;
#44 =( GEOMETRIC_REPRESENTATION_CONTEXT ( 3 ) GLOBAL_UNCERTAINTY_ASSIGNED_CONTEXT ( ( #199 ) ) GLOBAL_UNIT_ASSIGNED_CONTEXT ( ( #27, #257, #192 ) ) REPRESENTATION_CONTEXT ( 'NONE', 'WORKASPACE' ) );
#45 = FACE_OUTER_BOUND ( 'NONE', #211, .T. ) ;
#46 = ORIENTED_EDGE ( 'NONE', *, *, #132, .F. ) ;
#47 = EDGE_CURVE ( 'NONE', #22, #66, #48, .T. ) ;
#48 = LINE ( 'NONE', #195, #168 ) ;
#49 = AXIS2_PLACEMENT_3D ( 'NONE', #81, #105, #54 ) ;
#50 = FACE_OUTER_BOUND ( 'NONE', #206, .T. ) ;
#51 = PRESENTATION_STYLE_ASSIGNMENT (( #142 ) ) ;
#52 = LINE ( 'NONE', #145, #143 ) ;
#53 = FACE_OUTER_BOUND ( 'NONE', #160, .T. ) ;
#54 = DIRECTION ( 'NONE',  ( 1.000000000000000000, 0.0000000000000000000, -0.0000000000000000000 ) ) ;
#55 = CARTESIAN_POINT ( 'NONE',  ( 0.0000000000000000000, 0.0000000000000000000, 1.984999999999999432 ) ) ;
#56 = AXIS2_PLACEMENT_3D ( 'NONE', #188, #254, #99 ) ;
#57 = DIRECTION ( 'NONE',  ( -1.224646799147353207E-16, -0.0000000000000000000, -1.000000000000000000 ) ) ;
#58 = LINE ( 'NONE', #6, #85 ) ;
#59 = ORIENTED_EDGE ( 'NONE', *, *, #150, .T. ) ;
#60 = COLOUR_RGB ( '',0.7921568627450980005, 0.8196078431372548767, 0.9333333333333333481 ) ;
#61 = VERTEX_POINT ( 'NONE', #73 ) ;
#62 = ADVANCED_FACE ( 'NONE', ( #53 ), #8, .T. ) ;
#63 = CYLINDRICAL_SURFACE ( 'NONE', #269, 0.09365624999999999645 ) ;
#64 = EDGE_LOOP ( 'NONE', ( #177, #137, #115, #157 ) ) ;
#65 = AXIS2_PLACEMENT_3D ( 'NONE', #198, #265, #35 ) ;
#66 = VERTEX_POINT ( 'NONE', #235 ) ;
#67 = ORIENTED_EDGE ( 'NONE', *, *, #113, .T. ) ;
#68 = PRODUCT_DEFINITION_SHAPE ( 'NONE', 'NONE',  #248 ) ;
#69 = DIRECTION ( 'NONE',  ( -0.0000000000000000000, -0.0000000000000000000, -1.000000000000000000 ) ) ;
#70 =( GEOMETRIC_REPRESENTATION_CONTEXT ( 3 ) GLOBAL_UNCERTAINTY_ASSIGNED_CONTEXT ( ( #299 ) ) GLOBAL_UNIT_ASSIGNED_CONTEXT ( ( #147, #275, #270 ) ) REPRESENTATION_CONTEXT ( 'NONE', 'WORKASPACE' ) );
#71 = ADVANCED_FACE ( 'NONE', ( #120 ), #210, .T. ) ;
#72 =( LENGTH_UNIT ( ) NAMED_UNIT ( * ) SI_UNIT ( $, .METRE. ) );
#73 = CARTESIAN_POINT ( 'NONE',  ( -0.1249999999999999029, 0.0000000000000000000, 0.8027592395336416997 ) ) ;
#74 = FACE_OUTER_BOUND ( 'NONE', #89, .T. ) ;
#75 = CIRCLE ( 'NONE', #184, 0.09365624999999999645 ) ;
#76 = PRESENTATION_LAYER_ASSIGNMENT (  '', '', ( #212 ) ) ;
#77 = EDGE_CURVE ( 'NONE', #18, #253, #215, .T. ) ;
#78 = PLANE ( 'NONE',  #49 ) ;
#79 = DIRECTION ( 'NONE',  ( 0.0000000000000000000, 0.0000000000000000000, 1.000000000000000000 ) ) ;
#80 = EDGE_CURVE ( 'NONE', #185, #66, #82, .T. ) ;
#81 = CARTESIAN_POINT ( 'NONE',  ( 0.0000000000000000000, 0.0000000000000000000, 2.000000000000000000 ) ) ;
#82 = CIRCLE ( 'NONE', #16, 0.1250000000000000000 ) ;
#83 = DIRECTION ( 'NONE',  ( -1.000000000000000000, 0.0000000000000000000, 0.0000000000000000000 ) ) ;
#84 = SURFACE_STYLE_USAGE ( .BOTH. , #289 ) ;
#85 = VECTOR ( 'NONE', #266, 39.37007874015748143 ) ;
#86 = ORIENTED_EDGE ( 'NONE', *, *, #298, .T. ) ;
#87 = VERTEX_POINT ( 'NONE', #214 ) ;
#88 = VERTEX_POINT ( 'NONE', #217 ) ;
#89 = EDGE_LOOP ( 'NONE', ( #232, #227, #140, #183 ) ) ;
#90 = ADVANCED_BREP_SHAPE_REPRESENTATION ( 'Micro_SFA-187-45', ( #19, #111 ), #70 ) ;
#91 = CIRCLE ( 'NONE', #136, 0.09365624999999999645 ) ;
#92 = ORIENTED_EDGE ( 'NONE', *, *, #293, .F. ) ;
#93 = CARTESIAN_POINT ( 'NONE',  ( 0.0000000000000000000, 0.0000000000000000000, 1.984999999999999432 ) ) ;
#94 = CARTESIAN_POINT ( 'NONE',  ( -0.1099999999999996397, 0.0000000000000000000, 2.000000000000000000 ) ) ;
#95 = CIRCLE ( 'NONE', #65, 0.1099999999999996397 ) ;
#96 = DIMENSIONAL_EXPONENTS ( 1.000000000000000000, 0.0000000000000000000, 0.0000000000000000000, 0.0000000000000000000, 0.0000000000000000000, 0.0000000000000000000, 0.0000000000000000000 ) ;
#97 = DIRECTION ( 'NONE',  ( 1.000000000000000000, 0.0000000000000000000, 0.0000000000000000000 ) ) ;
#98 = FILL_AREA_STYLE_COLOUR ( '', #60 ) ;
#99 = DIRECTION ( 'NONE',  ( -1.000000000000000000, 0.0000000000000000000, 0.0000000000000000000 ) ) ;
#100 = EDGE_CURVE ( 'NONE', #66, #61, #119, .T. ) ;
#101 = APPLICATION_CONTEXT ( 'automotive_design' ) ;
#102 = DIRECTION ( 'NONE',  ( 0.0000000000000000000, 0.0000000000000000000, -1.000000000000000000 ) ) ;
#103 = CARTESIAN_POINT ( 'NONE',  ( 0.1250000000000000000, 1.530808498934191509E-17, 1.984999999999999432 ) ) ;
#104 = CARTESIAN_POINT ( 'NONE',  ( -0.09365624999999992706, 1.146958267826442798E-17, 0.6250000000000000000 ) ) ;
#105 = DIRECTION ( 'NONE',  ( 0.0000000000000000000, 0.0000000000000000000, 1.000000000000000000 ) ) ;
#106 = LENGTH_MEASURE_WITH_UNIT ( LENGTH_MEASURE( 0.02539999999999999897 ), #225 );
#107 =( LENGTH_UNIT ( ) NAMED_UNIT ( * ) SI_UNIT ( $, .METRE. ) );
#108 = DIRECTION ( 'NONE',  ( 1.000000000000000000, 0.0000000000000000000, -0.0000000000000000000 ) ) ;
#109 = ADVANCED_FACE ( 'NONE', ( #74 ), #165, .T. ) ;
#110 = EDGE_LOOP ( 'NONE', ( #141, #208, #292, #277 ) ) ;
#111 = AXIS2_PLACEMENT_3D ( 'NONE', #291, #207, #158 ) ;
#112 = ORIENTED_EDGE ( 'NONE', *, *, #187, .F. ) ;
#113 = EDGE_CURVE ( 'NONE', #253, #87, #52, .T. ) ;
#114 = APPLICATION_PROTOCOL_DEFINITION ( 'draft international standard', 'automotive_design', 1998, #101 ) ;
#115 = ORIENTED_EDGE ( 'NONE', *, *, #100, .T. ) ;
#116 = CLOSED_SHELL ( 'NONE', ( #25, #71, #231, #109, #128, #240, #62, #161, #15, #10 ) ) ;
#117 = EDGE_LOOP ( 'NONE', ( #154, #267 ) ) ;
#118 = AXIS2_PLACEMENT_3D ( 'NONE', #261, #33, #9 ) ;
#119 = LINE ( 'NONE', #3, #37 ) ;
#120 = FACE_OUTER_BOUND ( 'NONE', #14, .T. ) ;
#121 = VERTEX_POINT ( 'NONE', #216 ) ;
#122 = AXIS2_PLACEMENT_3D ( 'NONE', #167, #259, #83 ) ;
#123 = PRODUCT_DEFINITION_FORMATION_WITH_SPECIFIED_SOURCE ( 'ANY', '', #146, .NOT_KNOWN. ) ;
#124 = CARTESIAN_POINT ( 'NONE',  ( 0.0000000000000000000, 0.0000000000000000000, 0.0000000000000000000 ) ) ;
#125 = SURFACE_SIDE_STYLE ('',( #256 ) ) ;
#126 = AXIS2_PLACEMENT_3D ( 'NONE', #130, #262, #197 ) ;
#127 = LINE ( 'NONE', #34, #179 ) ;
#128 = ADVANCED_FACE ( 'NONE', ( #213 ), #281, .T. ) ;
#129 = DIRECTION ( 'NONE',  ( -1.000000000000000000, 0.0000000000000000000, 0.0000000000000000000 ) ) ;
#130 = CARTESIAN_POINT ( 'NONE',  ( 9.830965331808376686E-17, 0.0000000000000000000, 0.8027592395336416997 ) ) ;
#131 = CIRCLE ( 'NONE', #219, 0.09365624999999999645 ) ;
#132 = EDGE_CURVE ( 'NONE', #18, #61, #203, .T. ) ;
#133 = ORIENTED_EDGE ( 'NONE', *, *, #166, .T. ) ;
#134 = SURFACE_STYLE_FILL_AREA ( #294 ) ;
#135 = CARTESIAN_POINT ( 'NONE',  ( 0.0000000000000000000, 0.0000000000000000000, 0.0000000000000000000 ) ) ;
#136 = AXIS2_PLACEMENT_3D ( 'NONE', #218, #263, #151 ) ;
#137 = ORIENTED_EDGE ( 'NONE', *, *, #80, .T. ) ;
#138 = EDGE_CURVE ( 'NONE', #253, #276, #127, .T. ) ;
#139 = DIMENSIONAL_EXPONENTS ( 1.000000000000000000, 0.0000000000000000000, 0.0000000000000000000, 0.0000000000000000000, 0.0000000000000000000, 0.0000000000000000000, 0.0000000000000000000 ) ;
#140 = ORIENTED_EDGE ( 'NONE', *, *, #166, .F. ) ;
#141 = ORIENTED_EDGE ( 'NONE', *, *, #113, .F. ) ;
#142 = SURFACE_STYLE_USAGE ( .BOTH. , #125 ) ;
#143 = VECTOR ( 'NONE', #30, 39.37007874015748143 ) ;
#144 = DIRECTION ( 'NONE',  ( -1.000000000000000000, 0.0000000000000000000, 1.224646799147352961E-16 ) ) ;
#145 = CARTESIAN_POINT ( 'NONE',  ( 0.09365624999999999645, 1.146958267826442798E-17, -1.146958267826442798E-17 ) ) ;
#146 = PRODUCT ( 'Micro_SFA-187-45', 'Micro_SFA-187-45', '', ( #17 ) ) ;
#147 =( CONVERSION_BASED_UNIT ( 'INCH', #106 ) LENGTH_UNIT ( ) NAMED_UNIT ( #1 ) );
#148 = DIRECTION ( 'NONE',  ( 0.1736481776669313859, 0.0000000000000000000, 0.9848077530122077983 ) ) ;
#149 = DIRECTION ( 'NONE',  ( -1.000000000000000000, 0.0000000000000000000, 1.224646799147352961E-16 ) ) ;
#150 = EDGE_CURVE ( 'NONE', #88, #87, #75, .T. ) ;
#151 = DIRECTION ( 'NONE',  ( -1.000000000000000000, 0.0000000000000000000, 0.0000000000000000000 ) ) ;
#152 = CARTESIAN_POINT ( 'NONE',  ( 1.404618771449245766E-33, 0.0000000000000000000, 1.146958267826442798E-17 ) ) ;
#153 = AXIS2_PLACEMENT_3D ( 'NONE', #223, #32, #220 ) ;
#154 = ORIENTED_EDGE ( 'NONE', *, *, #187, .T. ) ;
#155 =( CONVERSION_BASED_UNIT ( 'INCH', #21 ) LENGTH_UNIT ( ) NAMED_UNIT ( #139 ) );
#156 = ORIENTED_EDGE ( 'NONE', *, *, #138, .T. ) ;
#157 = ORIENTED_EDGE ( 'NONE', *, *, #298, .F. ) ;
#158 = DIRECTION ( 'NONE',  ( 1.000000000000000000, 0.0000000000000000000, 0.0000000000000000000 ) ) ;
#159 = DIRECTION ( 'NONE',  ( 0.0000000000000000000, 0.0000000000000000000, 1.000000000000000000 ) ) ;
#160 = EDGE_LOOP ( 'NONE', ( #92, #112, #296, #186 ) ) ;
#161 = ADVANCED_FACE ( 'NONE', ( #242 ), #224, .T. ) ;
#162 = FILL_AREA_STYLE ('',( #98 ) ) ;
#163 = VECTOR ( 'NONE', #200, 39.37007874015748143 ) ;
#164 = CARTESIAN_POINT ( 'NONE',  ( 7.654042494670957853E-17, 0.0000000000000000000, 0.6250000000000000000 ) ) ;
#165 = CYLINDRICAL_SURFACE ( 'NONE', #190, 0.1250000000000000000 ) ;
#166 = EDGE_CURVE ( 'NONE', #61, #276, #201, .T. ) ;
#167 = CARTESIAN_POINT ( 'NONE',  ( 0.0000000000000000000, 0.0000000000000000000, 2.000000000000000000 ) ) ;
#168 = VECTOR ( 'NONE', #237, 39.37007874015748143 ) ;
#169 = CARTESIAN_POINT ( 'NONE',  ( 0.0000000000000000000, 0.0000000000000000000, 2.000000000000000000 ) ) ;
#170 = CARTESIAN_POINT ( 'NONE',  ( 0.1250000000000000000, 1.530808498934191509E-17, 2.000000000000000000 ) ) ;
#171 = CARTESIAN_POINT ( 'NONE',  ( 0.1250000000000001110, 1.530808498934192742E-17, 0.8027592395336416997 ) ) ;
#172 = MECHANICAL_DESIGN_GEOMETRIC_PRESENTATION_REPRESENTATION (  '', ( #24 ), #44 ) ;
#173 =( GEOMETRIC_REPRESENTATION_CONTEXT ( 3 ) GLOBAL_UNCERTAINTY_ASSIGNED_CONTEXT ( ( #282 ) ) GLOBAL_UNIT_ASSIGNED_CONTEXT ( ( #155, #42, #181 ) ) REPRESENTATION_CONTEXT ( 'NONE', 'WORKASPACE' ) );
#174 = CARTESIAN_POINT ( 'NONE',  ( 1.404618771449245766E-33, 0.0000000000000000000, 1.146958267826442798E-17 ) ) ;
#175 = LINE ( 'NONE', #12, #178 ) ;
#176 = EDGE_CURVE ( 'NONE', #121, #22, #7, .T. ) ;
#177 = ORIENTED_EDGE ( 'NONE', *, *, #222, .F. ) ;
#178 = VECTOR ( 'NONE', #283, 39.37007874015748143 ) ;
#179 = VECTOR ( 'NONE', #148, 39.37007874015748143 ) ;
#180 = CYLINDRICAL_SURFACE ( 'NONE', #205, 0.09365624999999999645 ) ;
#181 =( NAMED_UNIT ( * ) SI_UNIT ( $, .STERADIAN. ) SOLID_ANGLE_UNIT ( ) );
#182 = DIRECTION ( 'NONE',  ( -1.000000000000000000, 0.0000000000000000000, 1.224646799147352961E-16 ) ) ;
#183 = ORIENTED_EDGE ( 'NONE', *, *, #100, .F. ) ;
#184 = AXIS2_PLACEMENT_3D ( 'NONE', #152, #202, #149 ) ;
#185 = VERTEX_POINT ( 'NONE', #103 ) ;
#186 = ORIENTED_EDGE ( 'NONE', *, *, #80, .F. ) ;
#187 = EDGE_CURVE ( 'NONE', #22, #121, #95, .T. ) ;
#188 = CARTESIAN_POINT ( 'NONE',  ( 0.0000000000000000000, 0.0000000000000000000, 2.000000000000000000 ) ) ;
#189 = DIRECTION ( 'NONE',  ( -1.224646799147353207E-16, -0.0000000000000000000, -1.000000000000000000 ) ) ;
#190 = AXIS2_PLACEMENT_3D ( 'NONE', #238, #193, #258 ) ;
#191 = EDGE_CURVE ( 'NONE', #66, #185, #2, .T. ) ;
#192 =( NAMED_UNIT ( * ) SI_UNIT ( $, .STERADIAN. ) SOLID_ANGLE_UNIT ( ) );
#193 = DIRECTION ( 'NONE',  ( -0.0000000000000000000, -0.0000000000000000000, -1.000000000000000000 ) ) ;
#194 = AXIS2_PLACEMENT_3D ( 'NONE', #230, #159, #108 ) ;
#195 = CARTESIAN_POINT ( 'NONE',  ( -0.1099999999999996397, 0.0000000000000000000, 2.000000000000000000 ) ) ;
#196 = AXIS2_PLACEMENT_3D ( 'NONE', #55, #287, #36 ) ;
#197 = DIRECTION ( 'NONE',  ( 1.000000000000000000, 0.0000000000000000000, 0.0000000000000000000 ) ) ;
#198 = CARTESIAN_POINT ( 'NONE',  ( 0.0000000000000000000, 0.0000000000000000000, 2.000000000000000000 ) ) ;
#199 = UNCERTAINTY_MEASURE_WITH_UNIT (LENGTH_MEASURE( 1.000000000000000082E-05 ), #27, 'distance_accuracy_value', 'NONE');
#200 = DIRECTION ( 'NONE',  ( -0.0000000000000000000, -0.0000000000000000000, -1.000000000000000000 ) ) ;
#201 = CIRCLE ( 'NONE', #153, 0.1250000000000000000 ) ;
#202 = DIRECTION ( 'NONE',  ( -1.224646799147353207E-16, -0.0000000000000000000, -1.000000000000000000 ) ) ;
#203 = LINE ( 'NONE', #104, #285 ) ;
#204 = FACE_OUTER_BOUND ( 'NONE', #110, .T. ) ;
#205 = AXIS2_PLACEMENT_3D ( 'NONE', #135, #295, #182 ) ;
#206 = EDGE_LOOP ( 'NONE', ( #209, #67, #297, #229 ) ) ;
#207 = DIRECTION ( 'NONE',  ( 0.0000000000000000000, 0.0000000000000000000, 1.000000000000000000 ) ) ;
#208 = ORIENTED_EDGE ( 'NONE', *, *, #268, .T. ) ;
#209 = ORIENTED_EDGE ( 'NONE', *, *, #77, .T. ) ;
#210 = CONICAL_SURFACE ( 'NONE', #246, 0.09365624999999999645, 0.1745329251994338915 ) ;
#211 = EDGE_LOOP ( 'NONE', ( #59, #39 ) ) ;
#212 = STYLED_ITEM ( 'NONE', ( #250 ), #90 ) ;
#213 = FACE_OUTER_BOUND ( 'NONE', #64, .T. ) ;
#214 = CARTESIAN_POINT ( 'NONE',  ( 0.09365624999999999645, 1.146958267826442798E-17, 0.0000000000000000000 ) ) ;
#215 = CIRCLE ( 'NONE', #278, 0.09365624999999999645 ) ;
#216 = CARTESIAN_POINT ( 'NONE',  ( 0.1099999999999996397, 1.438959988998137757E-17, 2.000000000000000000 ) ) ;
#217 = CARTESIAN_POINT ( 'NONE',  ( -0.09365624999999999645, 0.0000000000000000000, 2.293916535652885596E-17 ) ) ;
#218 = CARTESIAN_POINT ( 'NONE',  ( 7.654042494670957853E-17, 0.0000000000000000000, 0.6250000000000000000 ) ) ;
#219 = AXIS2_PLACEMENT_3D ( 'NONE', #174, #57, #244 ) ;
#220 = DIRECTION ( 'NONE',  ( 1.000000000000000000, 0.0000000000000000000, 0.0000000000000000000 ) ) ;
#221 = DIRECTION ( 'NONE',  ( -0.1736481776669311916, 2.126576849575783316E-17, 0.9848077530122080203 ) ) ;
#222 = EDGE_CURVE ( 'NONE', #185, #276, #11, .T. ) ;
#223 = CARTESIAN_POINT ( 'NONE',  ( 9.830965331808376686E-17, 0.0000000000000000000, 0.8027592395336416997 ) ) ;
#224 = CONICAL_SURFACE ( 'NONE', #118, 0.09365624999999999645, 0.1745329251994338915 ) ;
#225 =( LENGTH_UNIT ( ) NAMED_UNIT ( * ) SI_UNIT ( $, .METRE. ) );
#226 = ORIENTED_EDGE ( 'NONE', *, *, #191, .F. ) ;
#227 = ORIENTED_EDGE ( 'NONE', *, *, #222, .T. ) ;
#228 = AXIS2_PLACEMENT_3D ( 'NONE', #245, #79, #243 ) ;
#229 = ORIENTED_EDGE ( 'NONE', *, *, #236, .F. ) ;
#230 = CARTESIAN_POINT ( 'NONE',  ( 0.0000000000000000000, 0.0000000000000000000, 0.0000000000000000000 ) ) ;
#231 = ADVANCED_FACE ( 'NONE', ( #241 ), #264, .T. ) ;
#232 = ORIENTED_EDGE ( 'NONE', *, *, #191, .T. ) ;
#233 = DIRECTION ( 'NONE',  ( -1.000000000000000000, 0.0000000000000000000, 0.0000000000000000000 ) ) ;
#234 = PRODUCT_DEFINITION_CONTEXT ( 'detailed design', #101, 'design' ) ;
#235 = CARTESIAN_POINT ( 'NONE',  ( -0.1250000000000000000, 0.0000000000000000000, 1.984999999999999432 ) ) ;
#236 = EDGE_CURVE ( 'NONE', #18, #88, #175, .T. ) ;
#237 = DIRECTION ( 'NONE',  ( -0.7071067811865434649, 0.0000000000000000000, -0.7071067811865515695 ) ) ;
#238 = CARTESIAN_POINT ( 'NONE',  ( 0.0000000000000000000, 0.0000000000000000000, 2.000000000000000000 ) ) ;
#239 = MECHANICAL_DESIGN_GEOMETRIC_PRESENTATION_REPRESENTATION (  '', ( #212 ), #173 ) ;
#240 = ADVANCED_FACE ( 'NONE', ( #284 ), #78, .T. ) ;
#241 = FACE_OUTER_BOUND ( 'NONE', #20, .T. ) ;
#242 = FACE_OUTER_BOUND ( 'NONE', #41, .T. ) ;
#243 = DIRECTION ( 'NONE',  ( 1.000000000000000000, 0.0000000000000000000, 0.0000000000000000000 ) ) ;
#244 = DIRECTION ( 'NONE',  ( -1.000000000000000000, 0.0000000000000000000, 1.224646799147352961E-16 ) ) ;
#245 = CARTESIAN_POINT ( 'NONE',  ( 0.0000000000000000000, 0.0000000000000000000, 2.000000000000000000 ) ) ;
#246 = AXIS2_PLACEMENT_3D ( 'NONE', #164, #279, #97 ) ;
#247 = SHAPE_DEFINITION_REPRESENTATION ( #68, #90 ) ;
#248 = PRODUCT_DEFINITION ( 'UNKNOWN', '', #123, #234 ) ;
#249 = ORIENTED_EDGE ( 'NONE', *, *, #47, .F. ) ;
#250 = PRESENTATION_STYLE_ASSIGNMENT (( #84 ) ) ;
#251 = ORIENTED_EDGE ( 'NONE', *, *, #77, .F. ) ;
#252 = PLANE ( 'NONE',  #194 ) ;
#253 = VERTEX_POINT ( 'NONE', #286 ) ;
#254 = DIRECTION ( 'NONE',  ( 0.0000000000000000000, 0.0000000000000000000, -1.000000000000000000 ) ) ;
#255 = CIRCLE ( 'NONE', #126, 0.1250000000000000000 ) ;
#256 = SURFACE_STYLE_FILL_AREA ( #162 ) ;
#257 =( NAMED_UNIT ( * ) PLANE_ANGLE_UNIT ( ) SI_UNIT ( $, .RADIAN. ) );
#258 = DIRECTION ( 'NONE',  ( -1.000000000000000000, 0.0000000000000000000, 0.0000000000000000000 ) ) ;
#259 = DIRECTION ( 'NONE',  ( -0.0000000000000000000, -0.0000000000000000000, -1.000000000000000000 ) ) ;
#260 = AXIS2_PLACEMENT_3D ( 'NONE', #169, #102, #129 ) ;
#261 = CARTESIAN_POINT ( 'NONE',  ( 7.654042494670957853E-17, 0.0000000000000000000, 0.6250000000000000000 ) ) ;
#262 = DIRECTION ( 'NONE',  ( -1.224646799147353207E-16, -0.0000000000000000000, -1.000000000000000000 ) ) ;
#263 = DIRECTION ( 'NONE',  ( -1.224646799147353207E-16, -0.0000000000000000000, -1.000000000000000000 ) ) ;
#264 = CONICAL_SURFACE ( 'NONE', #260, 0.1099999999999996397, 0.7853981633974426169 ) ;
#265 = DIRECTION ( 'NONE',  ( 0.0000000000000000000, 0.0000000000000000000, 1.000000000000000000 ) ) ;
#266 = DIRECTION ( 'NONE',  ( 0.7071067811865434649, 8.659560562354883554E-17, -0.7071067811865515695 ) ) ;
#267 = ORIENTED_EDGE ( 'NONE', *, *, #176, .T. ) ;
#268 = EDGE_CURVE ( 'NONE', #253, #18, #91, .T. ) ;
#269 = AXIS2_PLACEMENT_3D ( 'NONE', #124, #189, #144 ) ;
#270 =( NAMED_UNIT ( * ) SI_UNIT ( $, .STERADIAN. ) SOLID_ANGLE_UNIT ( ) );
#271 = ORIENTED_EDGE ( 'NONE', *, *, #268, .F. ) ;
#272 = APPLICATION_PROTOCOL_DEFINITION ( 'draft international standard', 'automotive_design', 1998, #23 ) ;
#273 = CARTESIAN_POINT ( 'NONE',  ( -0.09365624999999992706, 1.338883383380317231E-17, 0.6250000000000000000 ) ) ;
#274 = ORIENTED_EDGE ( 'NONE', *, *, #293, .T. ) ;
#275 =( NAMED_UNIT ( * ) PLANE_ANGLE_UNIT ( ) SI_UNIT ( $, .RADIAN. ) );
#276 = VERTEX_POINT ( 'NONE', #171 ) ;
#277 = ORIENTED_EDGE ( 'NONE', *, *, #288, .F. ) ;
#278 = AXIS2_PLACEMENT_3D ( 'NONE', #28, #31, #233 ) ;
#279 = DIRECTION ( 'NONE',  ( 1.224646799147353207E-16, 0.0000000000000000000, 1.000000000000000000 ) ) ;
#280 = LENGTH_MEASURE_WITH_UNIT ( LENGTH_MEASURE( 0.02539999999999999897 ), #72 );
#281 = CYLINDRICAL_SURFACE ( 'NONE', #122, 0.1250000000000000000 ) ;
#282 = UNCERTAINTY_MEASURE_WITH_UNIT (LENGTH_MEASURE( 1.000000000000000082E-05 ), #155, 'distance_accuracy_value', 'NONE');
#283 = DIRECTION ( 'NONE',  ( -1.224646799147353207E-16, -0.0000000000000000000, -1.000000000000000000 ) ) ;
#284 = FACE_OUTER_BOUND ( 'NONE', #117, .T. ) ;
#285 = VECTOR ( 'NONE', #221, 39.37007874015747433 ) ;
#286 = CARTESIAN_POINT ( 'NONE',  ( 0.09365625000000006584, 0.0000000000000000000, 0.6250000000000000000 ) ) ;
#287 = DIRECTION ( 'NONE',  ( 0.0000000000000000000, 0.0000000000000000000, -1.000000000000000000 ) ) ;
#288 = EDGE_CURVE ( 'NONE', #87, #88, #131, .T. ) ;
#289 = SURFACE_SIDE_STYLE ('',( #134 ) ) ;
#290 = ORIENTED_EDGE ( 'NONE', *, *, #138, .F. ) ;
#291 = CARTESIAN_POINT ( 'NONE',  ( 0.0000000000000000000, 0.0000000000000000000, 0.0000000000000000000 ) ) ;
#292 = ORIENTED_EDGE ( 'NONE', *, *, #236, .T. ) ;
#293 = EDGE_CURVE ( 'NONE', #121, #185, #58, .T. ) ;
#294 = FILL_AREA_STYLE ('',( #40 ) ) ;
#295 = DIRECTION ( 'NONE',  ( -1.224646799147353207E-16, -0.0000000000000000000, -1.000000000000000000 ) ) ;
#296 = ORIENTED_EDGE ( 'NONE', *, *, #47, .T. ) ;
#297 = ORIENTED_EDGE ( 'NONE', *, *, #150, .F. ) ;
#298 = EDGE_CURVE ( 'NONE', #276, #61, #255, .T. ) ;
#299 = UNCERTAINTY_MEASURE_WITH_UNIT (LENGTH_MEASURE( 1.000000000000000082E-05 ), #147, 'distance_accuracy_value', 'NONE');
ENDSEC;
END-ISO-10303-21;
