ISO-10303-21;
HEADER;
FILE_DESCRIPTION (( 'STEP AP214' ),
    '1' );
FILE_NAME ('24137.STEP',
    '2023-06-22T16:59:14',
    ( '' ),
    ( '' ),
    'SwSTEP 2.0',
    'SolidWorks 2023',
    '' );
FILE_SCHEMA (( 'AUTOMOTIVE_DESIGN' ));
ENDSEC;

DATA;
#1 = CARTESIAN_POINT ( 'NONE',  ( 0.1562499999999999722, 4.000000000000000000, 0.000000000000000000 ) ) ;
#2 =( CONVERSION_BASED_UNIT ( 'INCH', #244 ) LENGTH_UNIT ( ) NAMED_UNIT ( #169 ) );
#3 = PRESENTATION_LAYER_ASSIGNMENT (  '', '', ( #50 ) ) ;
#4 = ADVANCED_FACE ( 'NONE', ( #107 ), #153, .T. ) ;
#5 = ORIENTED_EDGE ( 'NONE', *, *, #254, .T. ) ;
#6 = CARTESIAN_POINT ( 'NONE',  ( -6.123233995736766036E-17, 4.000000000000000000, 0.000000000000000000 ) ) ;
#7 = VERTEX_POINT ( 'NONE', #206 ) ;
#8 = DIRECTION ( 'NONE',  ( -3.061616997868383018E-17, 1.000000000000000000, -0.000000000000000000 ) ) ;
#9 = DIRECTION ( 'NONE',  ( -3.061616997868383018E-17, 1.000000000000000000, -0.000000000000000000 ) ) ;
#10 = AXIS2_PLACEMENT_3D ( 'NONE', #49, #46, #194 ) ;
#11 = DIRECTION ( 'NONE',  ( 0.000000000000000000, 0.000000000000000000, -1.000000000000000000 ) ) ;
#12 = ADVANCED_FACE ( 'NONE', ( #104 ), #74, .F. ) ;
#13 =( NAMED_UNIT ( * ) PLANE_ANGLE_UNIT ( ) SI_UNIT ( $, .RADIAN. ) );
#14 = DIRECTION ( 'NONE',  ( -1.000000000000000000, 0.000000000000000000, 0.000000000000000000 ) ) ;
#15 =( CONVERSION_BASED_UNIT ( 'INCH', #228 ) LENGTH_UNIT ( ) NAMED_UNIT ( #142 ) );
#16 = FILL_AREA_STYLE_COLOUR ( '', #20 ) ;
#17 = MECHANICAL_DESIGN_GEOMETRIC_PRESENTATION_REPRESENTATION (  '', ( #50 ), #267 ) ;
#18 =( LENGTH_UNIT ( ) NAMED_UNIT ( * ) SI_UNIT ( $, .METRE. ) );
#19 = DIRECTION ( 'NONE',  ( -0.000000000000000000, -1.000000000000000000, -0.000000000000000000 ) ) ;
#20 = COLOUR_RGB ( '',1.000000000000000000, 0.000000000000000000, 0.000000000000000000 ) ;
#21 = DIRECTION ( 'NONE',  ( -3.061616997868383018E-17, 1.000000000000000000, -0.000000000000000000 ) ) ;
#22 = SURFACE_SIDE_STYLE ('',( #91 ) ) ;
#23 =( CONVERSION_BASED_UNIT ( 'INCH', #234 ) LENGTH_UNIT ( ) NAMED_UNIT ( #137 ) );
#24 = UNCERTAINTY_MEASURE_WITH_UNIT (LENGTH_MEASURE( 1.000000000000000082E-05 ), #301, 'distance_accuracy_value', 'NONE');
#25 = CYLINDRICAL_SURFACE ( 'NONE', #192, 0.1562500000000000000 ) ;
#26 = AXIS2_PLACEMENT_3D ( 'NONE', #140, #210, #305 ) ;
#27 = PRESENTATION_STYLE_ASSIGNMENT (( #70 ) ) ;
#28 = FACE_OUTER_BOUND ( 'NONE', #32, .T. ) ;
#29 = VERTEX_POINT ( 'NONE', #207 ) ;
#30 = COLOUR_RGB ( '',1.000000000000000000, 0.000000000000000000, 0.000000000000000000 ) ;
#31 = DIRECTION ( 'NONE',  ( 0.000000000000000000, -1.000000000000000000, -0.000000000000000000 ) ) ;
#32 = EDGE_LOOP ( 'NONE', ( #180, #126, #266, #100 ) ) ;
#33 = APPLICATION_CONTEXT ( 'automotive_design' ) ;
#34 = DIRECTION ( 'NONE',  ( -3.061616997868383018E-17, 1.000000000000000000, -0.000000000000000000 ) ) ;
#35 = ORIENTED_EDGE ( 'NONE', *, *, #62, .F. ) ;
#36 = EDGE_CURVE ( 'NONE', #7, #29, #299, .T. ) ;
#37 = STYLED_ITEM ( 'NONE', ( #27 ), #71 ) ;
#38 = ORIENTED_EDGE ( 'NONE', *, *, #298, .F. ) ;
#39 = DIRECTION ( 'NONE',  ( 0.000000000000000000, 0.000000000000000000, -1.000000000000000000 ) ) ;
#40 = FACE_OUTER_BOUND ( 'NONE', #77, .T. ) ;
#41 = AXIS2_PLACEMENT_3D ( 'NONE', #229, #19, #39 ) ;
#42 =( NAMED_UNIT ( * ) SI_UNIT ( $, .STERADIAN. ) SOLID_ANGLE_UNIT ( ) );
#43 = PRESENTATION_STYLE_ASSIGNMENT (( #251 ) ) ;
#44 = DIRECTION ( 'NONE',  ( 0.000000000000000000, 1.000000000000000000, 0.000000000000000000 ) ) ;
#45 = ADVANCED_FACE ( 'NONE', ( #40 ), #133, .T. ) ;
#46 = DIRECTION ( 'NONE',  ( -0.000000000000000000, -1.000000000000000000, -0.000000000000000000 ) ) ;
#47 = DIRECTION ( 'NONE',  ( -3.061616997868383018E-17, 1.000000000000000000, -0.000000000000000000 ) ) ;
#48 =( NAMED_UNIT ( * ) PLANE_ANGLE_UNIT ( ) SI_UNIT ( $, .RADIAN. ) );
#49 = CARTESIAN_POINT ( 'NONE',  ( 0.000000000000000000, 0.000000000000000000, 0.000000000000000000 ) ) ;
#50 = STYLED_ITEM ( 'NONE', ( #111 ), #66 ) ;
#51 = DIRECTION ( 'NONE',  ( 3.061616997868383018E-17, -1.000000000000000000, 0.000000000000000000 ) ) ;
#52 = FACE_OUTER_BOUND ( 'NONE', #243, .T. ) ;
#53 = DIRECTION ( 'NONE',  ( 0.000000000000000000, 0.000000000000000000, -1.000000000000000000 ) ) ;
#54 = VERTEX_POINT ( 'NONE', #90 ) ;
#55 = ORIENTED_EDGE ( 'NONE', *, *, #216, .T. ) ;
#56 = FILL_AREA_STYLE_COLOUR ( '', #69 ) ;
#57 = UNCERTAINTY_MEASURE_WITH_UNIT (LENGTH_MEASURE( 1.000000000000000082E-05 ), #61, 'distance_accuracy_value', 'NONE');
#58 = ORIENTED_EDGE ( 'NONE', *, *, #262, .T. ) ;
#59 = APPLICATION_CONTEXT ( 'automotive_design' ) ;
#60 = CARTESIAN_POINT ( 'NONE',  ( 0.000000000000000000, 0.000000000000000000, 0.000000000000000000 ) ) ;
#61 =( CONVERSION_BASED_UNIT ( 'INCH', #223 ) LENGTH_UNIT ( ) NAMED_UNIT ( #263 ) );
#62 = EDGE_CURVE ( 'NONE', #248, #199, #72, .T. ) ;
#63 = LENGTH_MEASURE_WITH_UNIT ( LENGTH_MEASURE( 0.02539999999999999897 ), #224 );
#64 = VECTOR ( 'NONE', #21, 39.37007874015748143 ) ;
#65 = SURFACE_SIDE_STYLE ('',( #110 ) ) ;
#66 = ADVANCED_FACE ( 'NONE', ( #112 ), #302, .T. ) ;
#67 = PRESENTATION_STYLE_ASSIGNMENT (( #121 ) ) ;
#68 = FILL_AREA_STYLE_COLOUR ( '', #30 ) ;
#69 = COLOUR_RGB ( '',1.000000000000000000, 0.000000000000000000, 0.000000000000000000 ) ;
#70 = SURFACE_STYLE_USAGE ( .BOTH. , #22 ) ;
#71 = MANIFOLD_SOLID_BREP ( 'Revolve - Cutting Edge', #287 ) ;
#72 = CIRCLE ( 'NONE', #41, 0.1562499999999999722 ) ;
#73 = CARTESIAN_POINT ( 'NONE',  ( -6.123233995736766036E-17, 4.000000000000000000, 0.000000000000000000 ) ) ;
#74 = PLANE ( 'NONE',  #231 ) ;
#75 = PRODUCT ( '24137', '24137', '', ( #205 ) ) ;
#76 = CARTESIAN_POINT ( 'NONE',  ( 0.000000000000000000, 0.000000000000000000, 0.000000000000000000 ) ) ;
#77 = EDGE_LOOP ( 'NONE', ( #173, #218, #273, #204 ) ) ;
#78 = FILL_AREA_STYLE ('',( #221 ) ) ;
#79 = ORIENTED_EDGE ( 'NONE', *, *, #89, .F. ) ;
#80 = CARTESIAN_POINT ( 'NONE',  ( 0.000000000000000000, 2.000000000000000000, 0.000000000000000000 ) ) ;
#81 = ORIENTED_EDGE ( 'NONE', *, *, #102, .T. ) ;
#82 = LINE ( 'NONE', #127, #209 ) ;
#83 = EDGE_LOOP ( 'NONE', ( #79, #38 ) ) ;
#84 =( LENGTH_UNIT ( ) NAMED_UNIT ( * ) SI_UNIT ( $, .METRE. ) );
#85 = DIRECTION ( 'NONE',  ( -3.061616997868383018E-17, 1.000000000000000000, -0.000000000000000000 ) ) ;
#86 = CIRCLE ( 'NONE', #187, 0.1562500000000000000 ) ;
#87 =( CONVERSION_BASED_UNIT ( 'INCH', #226 ) LENGTH_UNIT ( ) NAMED_UNIT ( #212 ) );
#88 = COLOUR_RGB ( '',0.7921568627450980005, 0.8196078431372548767, 0.9333333333333333481 ) ;
#89 = EDGE_CURVE ( 'NONE', #149, #7, #241, .T. ) ;
#90 = CARTESIAN_POINT ( 'NONE',  ( 1.913510623667739463E-17, 0.000000000000000000, 0.1562500000000000000 ) ) ;
#91 = SURFACE_STYLE_FILL_AREA ( #191 ) ;
#92 = UNCERTAINTY_MEASURE_WITH_UNIT (LENGTH_MEASURE( 1.000000000000000082E-05 ), #15, 'distance_accuracy_value', 'NONE');
#93 = VECTOR ( 'NONE', #34, 39.37007874015748143 ) ;
#94 =( CONVERSION_BASED_UNIT ( 'INCH', #260 ) LENGTH_UNIT ( ) NAMED_UNIT ( #136 ) );
#95 = PRESENTATION_LAYER_ASSIGNMENT (  '', '', ( #37 ) ) ;
#96 = PLANE ( 'NONE',  #154 ) ;
#97 = CLOSED_SHELL ( 'NONE', ( #4, #12, #157, #122 ) ) ;
#98 = CARTESIAN_POINT ( 'NONE',  ( 1.913510623667739463E-17, 0.000000000000000000, 0.1562500000000000000 ) ) ;
#99 = SURFACE_STYLE_FILL_AREA ( #264 ) ;
#100 = ORIENTED_EDGE ( 'NONE', *, *, #185, .F. ) ;
#101 = DIRECTION ( 'NONE',  ( -0.000000000000000000, -1.000000000000000000, -0.000000000000000000 ) ) ;
#102 = EDGE_CURVE ( 'NONE', #269, #54, #159, .T. ) ;
#103 =( NAMED_UNIT ( * ) SI_UNIT ( $, .STERADIAN. ) SOLID_ANGLE_UNIT ( ) );
#104 = FACE_OUTER_BOUND ( 'NONE', #83, .T. ) ;
#105 = PRESENTATION_LAYER_ASSIGNMENT (  '', '', ( #183 ) ) ;
#106 = SURFACE_STYLE_USAGE ( .BOTH. , #268 ) ;
#107 = FACE_OUTER_BOUND ( 'NONE', #147, .T. ) ;
#108 = ADVANCED_FACE ( 'NONE', ( #286 ), #25, .T. ) ;
#109 = PRESENTATION_LAYER_ASSIGNMENT (  '', '', ( #259 ) ) ;
#110 = SURFACE_STYLE_FILL_AREA ( #134 ) ;
#111 = PRESENTATION_STYLE_ASSIGNMENT (( #276 ) ) ;
#112 = FACE_OUTER_BOUND ( 'NONE', #294, .T. ) ;
#113 = AXIS2_PLACEMENT_3D ( 'NONE', #256, #44, #230 ) ;
#114 =( NAMED_UNIT ( * ) PLANE_ANGLE_UNIT ( ) SI_UNIT ( $, .RADIAN. ) );
#115 = CIRCLE ( 'NONE', #250, 0.1562499999999999722 ) ;
#116 = FILL_AREA_STYLE_COLOUR ( '', #88 ) ;
#117 = DIMENSIONAL_EXPONENTS ( 1.000000000000000000, 0.000000000000000000, 0.000000000000000000, 0.000000000000000000, 0.000000000000000000, 0.000000000000000000, 0.000000000000000000 ) ;
#118 = COLOUR_RGB ( '',0.7921568627450980005, 0.8196078431372548767, 0.9333333333333333481 ) ;
#119 = AXIS2_PLACEMENT_3D ( 'NONE', #257, #47, #308 ) ;
#120 =( LENGTH_UNIT ( ) NAMED_UNIT ( * ) SI_UNIT ( $, .METRE. ) );
#121 = SURFACE_STYLE_USAGE ( .BOTH. , #170 ) ;
#122 = ADVANCED_FACE ( 'NONE', ( #258 ), #96, .F. ) ;
#123 = PLANE ( 'NONE',  #167 ) ;
#124 = DIRECTION ( 'NONE',  ( -0.000000000000000000, -1.000000000000000000, -0.000000000000000000 ) ) ;
#125 = MECHANICAL_DESIGN_GEOMETRIC_PRESENTATION_REPRESENTATION (  '', ( #190 ), #150 ) ;
#126 = ORIENTED_EDGE ( 'NONE', *, *, #298, .T. ) ;
#127 = CARTESIAN_POINT ( 'NONE',  ( 0.000000000000000000, 0.000000000000000000, -0.1562500000000000000 ) ) ;
#128 = ORIENTED_EDGE ( 'NONE', *, *, #89, .T. ) ;
#129 = DIRECTION ( 'NONE',  ( 0.000000000000000000, 0.000000000000000000, 1.000000000000000000 ) ) ;
#130 = ORIENTED_EDGE ( 'NONE', *, *, #216, .F. ) ;
#131 = DIRECTION ( 'NONE',  ( -1.000000000000000000, 0.000000000000000000, 0.000000000000000000 ) ) ;
#132 = STYLED_ITEM ( 'NONE', ( #67 ), #108 ) ;
#133 = CYLINDRICAL_SURFACE ( 'NONE', #281, 0.1562500000000000000 ) ;
#134 = FILL_AREA_STYLE ('',( #16 ) ) ;
#135 = COLOUR_RGB ( '',1.000000000000000000, 0.000000000000000000, 0.000000000000000000 ) ;
#136 = DIMENSIONAL_EXPONENTS ( 1.000000000000000000, 0.000000000000000000, 0.000000000000000000, 0.000000000000000000, 0.000000000000000000, 0.000000000000000000, 0.000000000000000000 ) ;
#137 = DIMENSIONAL_EXPONENTS ( 1.000000000000000000, 0.000000000000000000, 0.000000000000000000, 0.000000000000000000, 0.000000000000000000, 0.000000000000000000, 0.000000000000000000 ) ;
#138 = EDGE_CURVE ( 'NONE', #151, #29, #195, .T. ) ;
#139 = PRODUCT_DEFINITION_FORMATION_WITH_SPECIFIED_SOURCE ( 'ANY', '', #75, .NOT_KNOWN. ) ;
#140 = CARTESIAN_POINT ( 'NONE',  ( -6.123233995736766036E-17, 4.000000000000000000, 0.000000000000000000 ) ) ;
#141 = ADVANCED_BREP_SHAPE_REPRESENTATION ( '24137', ( #71, #283, #236 ), #270 ) ;
#142 = DIMENSIONAL_EXPONENTS ( 1.000000000000000000, 0.000000000000000000, 0.000000000000000000, 0.000000000000000000, 0.000000000000000000, 0.000000000000000000, 0.000000000000000000 ) ;
#143 = SURFACE_SIDE_STYLE ('',( #99 ) ) ;
#144 = ORIENTED_EDGE ( 'NONE', *, *, #138, .F. ) ;
#145 = CARTESIAN_POINT ( 'NONE',  ( -0.1562500000000000833, 4.000000000000000000, 0.000000000000000000 ) ) ;
#146 = AXIS2_PLACEMENT_3D ( 'NONE', #73, #152, #219 ) ;
#147 = EDGE_LOOP ( 'NONE', ( #128, #222, #144, #296 ) ) ;
#148 = PRESENTATION_STYLE_ASSIGNMENT (( #106 ) ) ;
#149 = VERTEX_POINT ( 'NONE', #165 ) ;
#150 =( GEOMETRIC_REPRESENTATION_CONTEXT ( 3 ) GLOBAL_UNCERTAINTY_ASSIGNED_CONTEXT ( ( #213 ) ) GLOBAL_UNIT_ASSIGNED_CONTEXT ( ( #2, #198, #103 ) ) REPRESENTATION_CONTEXT ( 'NONE', 'WORKASPACE' ) );
#151 = VERTEX_POINT ( 'NONE', #239 ) ;
#152 = DIRECTION ( 'NONE',  ( -3.061616997868383018E-17, 1.000000000000000000, -0.000000000000000000 ) ) ;
#153 = CYLINDRICAL_SURFACE ( 'NONE', #274, 0.1562500000000000000 ) ;
#154 = AXIS2_PLACEMENT_3D ( 'NONE', #1, #51, #307 ) ;
#155 = SHAPE_DEFINITION_REPRESENTATION ( #237, #141 ) ;
#156 = CARTESIAN_POINT ( 'NONE',  ( 0.000000000000000000, 0.000000000000000000, 0.000000000000000000 ) ) ;
#157 = ADVANCED_FACE ( 'NONE', ( #28 ), #291, .T. ) ;
#158 = CARTESIAN_POINT ( 'NONE',  ( 0.1562499999999999445, 4.000000000000000000, 1.913510623667739463E-17 ) ) ;
#159 = CIRCLE ( 'NONE', #10, 0.1562500000000000000 ) ;
#160 =( NAMED_UNIT ( * ) SI_UNIT ( $, .STERADIAN. ) SOLID_ANGLE_UNIT ( ) );
#161 = PRESENTATION_LAYER_ASSIGNMENT (  '', '', ( #190 ) ) ;
#162 = UNCERTAINTY_MEASURE_WITH_UNIT (LENGTH_MEASURE( 1.000000000000000082E-05 ), #87, 'distance_accuracy_value', 'NONE');
#163 = PRODUCT_DEFINITION ( 'UNKNOWN', '', #139, #265 ) ;
#164 =( GEOMETRIC_REPRESENTATION_CONTEXT ( 3 ) GLOBAL_UNCERTAINTY_ASSIGNED_CONTEXT ( ( #304 ) ) GLOBAL_UNIT_ASSIGNED_CONTEXT ( ( #94, #48, #288 ) ) REPRESENTATION_CONTEXT ( 'NONE', 'WORKASPACE' ) );
#165 = CARTESIAN_POINT ( 'NONE',  ( -0.1562499999999999722, 2.000000000000000000, 0.000000000000000000 ) ) ;
#166 =( NAMED_UNIT ( * ) SI_UNIT ( $, .STERADIAN. ) SOLID_ANGLE_UNIT ( ) );
#167 = AXIS2_PLACEMENT_3D ( 'NONE', #76, #31, #53 ) ;
#168 =( GEOMETRIC_REPRESENTATION_CONTEXT ( 3 ) GLOBAL_UNCERTAINTY_ASSIGNED_CONTEXT ( ( #57 ) ) GLOBAL_UNIT_ASSIGNED_CONTEXT ( ( #61, #114, #182 ) ) REPRESENTATION_CONTEXT ( 'NONE', 'WORKASPACE' ) );
#169 = DIMENSIONAL_EXPONENTS ( 1.000000000000000000, 0.000000000000000000, 0.000000000000000000, 0.000000000000000000, 0.000000000000000000, 0.000000000000000000, 0.000000000000000000 ) ;
#170 = SURFACE_SIDE_STYLE ('',( #211 ) ) ;
#171 = DIRECTION ( 'NONE',  ( -3.061616997868383018E-17, 1.000000000000000000, 0.000000000000000000 ) ) ;
#172 = DIRECTION ( 'NONE',  ( -1.000000000000000000, 0.000000000000000000, 0.000000000000000000 ) ) ;
#173 = ORIENTED_EDGE ( 'NONE', *, *, #62, .T. ) ;
#174 =( GEOMETRIC_REPRESENTATION_CONTEXT ( 3 ) GLOBAL_UNCERTAINTY_ASSIGNED_CONTEXT ( ( #92 ) ) GLOBAL_UNIT_ASSIGNED_CONTEXT ( ( #15, #13, #300 ) ) REPRESENTATION_CONTEXT ( 'NONE', 'WORKASPACE' ) );
#175 = SURFACE_STYLE_FILL_AREA ( #78 ) ;
#176 = ORIENTED_EDGE ( 'NONE', *, *, #138, .T. ) ;
#177 = SURFACE_STYLE_USAGE ( .BOTH. , #143 ) ;
#178 = CARTESIAN_POINT ( 'NONE',  ( 0.000000000000000000, 0.000000000000000000, -0.1562500000000000000 ) ) ;
#179 = EDGE_CURVE ( 'NONE', #199, #54, #247, .T. ) ;
#180 = ORIENTED_EDGE ( 'NONE', *, *, #36, .F. ) ;
#181 = APPLICATION_PROTOCOL_DEFINITION ( 'draft international standard', 'automotive_design', 1998, #59 ) ;
#182 =( NAMED_UNIT ( * ) SI_UNIT ( $, .STERADIAN. ) SOLID_ANGLE_UNIT ( ) );
#183 = STYLED_ITEM ( 'NONE', ( #43 ), #45 ) ;
#184 = DIRECTION ( 'NONE',  ( 1.000000000000000000, 0.000000000000000000, 0.000000000000000000 ) ) ;
#185 = EDGE_CURVE ( 'NONE', #29, #151, #303, .T. ) ;
#186 = APPLICATION_PROTOCOL_DEFINITION ( 'draft international standard', 'automotive_design', 1998, #33 ) ;
#187 = AXIS2_PLACEMENT_3D ( 'NONE', #196, #101, #201 ) ;
#188 = FILL_AREA_STYLE_COLOUR ( '', #135 ) ;
#189 = DIRECTION ( 'NONE',  ( -0.000000000000000000, -1.000000000000000000, -0.000000000000000000 ) ) ;
#190 = STYLED_ITEM ( 'NONE', ( #271 ), #233 ) ;
#191 = FILL_AREA_STYLE ('',( #116 ) ) ;
#192 = AXIS2_PLACEMENT_3D ( 'NONE', #261, #232, #214 ) ;
#193 =( NAMED_UNIT ( * ) PLANE_ANGLE_UNIT ( ) SI_UNIT ( $, .RADIAN. ) );
#194 = DIRECTION ( 'NONE',  ( 0.000000000000000000, 0.000000000000000000, -1.000000000000000000 ) ) ;
#195 = CIRCLE ( 'NONE', #26, 0.1562500000000000278 ) ;
#196 = CARTESIAN_POINT ( 'NONE',  ( 0.000000000000000000, 0.000000000000000000, 0.000000000000000000 ) ) ;
#197 = UNCERTAINTY_MEASURE_WITH_UNIT (LENGTH_MEASURE( 1.000000000000000082E-05 ), #23, 'distance_accuracy_value', 'NONE');
#198 =( NAMED_UNIT ( * ) PLANE_ANGLE_UNIT ( ) SI_UNIT ( $, .RADIAN. ) );
#199 = VERTEX_POINT ( 'NONE', #203 ) ;
#200 = CARTESIAN_POINT ( 'NONE',  ( 0.000000000000000000, 2.000000000000000000, 0.000000000000000000 ) ) ;
#201 = DIRECTION ( 'NONE',  ( 0.000000000000000000, 0.000000000000000000, -1.000000000000000000 ) ) ;
#202 = CARTESIAN_POINT ( 'NONE',  ( 7.323045813778600532E-35, 2.000000000000000000, 0.000000000000000000 ) ) ;
#203 = CARTESIAN_POINT ( 'NONE',  ( 1.913510623667738847E-17, 2.000000000000000000, 0.1562499999999999722 ) ) ;
#204 = ORIENTED_EDGE ( 'NONE', *, *, #254, .F. ) ;
#205 = PRODUCT_CONTEXT ( 'NONE', #59, 'mechanical' ) ;
#206 = CARTESIAN_POINT ( 'NONE',  ( 0.1562499999999999722, 2.000000000000000000, 1.913510623667739771E-17 ) ) ;
#207 = CARTESIAN_POINT ( 'NONE',  ( 0.1562499999999999722, 4.000000000000000000, 1.913510623667739771E-17 ) ) ;
#208 = PRESENTATION_LAYER_ASSIGNMENT (  '', '', ( #132 ) ) ;
#209 = VECTOR ( 'NONE', #242, 39.37007874015748143 ) ;
#210 = DIRECTION ( 'NONE',  ( -3.061616997868383018E-17, 1.000000000000000000, -0.000000000000000000 ) ) ;
#211 = SURFACE_STYLE_FILL_AREA ( #284 ) ;
#212 = DIMENSIONAL_EXPONENTS ( 1.000000000000000000, 0.000000000000000000, 0.000000000000000000, 0.000000000000000000, 0.000000000000000000, 0.000000000000000000, 0.000000000000000000 ) ;
#213 = UNCERTAINTY_MEASURE_WITH_UNIT (LENGTH_MEASURE( 1.000000000000000082E-05 ), #2, 'distance_accuracy_value', 'NONE');
#214 = DIRECTION ( 'NONE',  ( 0.000000000000000000, 0.000000000000000000, -1.000000000000000000 ) ) ;
#215 =( LENGTH_UNIT ( ) NAMED_UNIT ( * ) SI_UNIT ( $, .METRE. ) );
#216 = EDGE_CURVE ( 'NONE', #199, #248, #115, .T. ) ;
#217 = LINE ( 'NONE', #145, #93 ) ;
#218 = ORIENTED_EDGE ( 'NONE', *, *, #179, .T. ) ;
#219 = DIRECTION ( 'NONE',  ( -1.000000000000000000, 0.000000000000000000, 0.000000000000000000 ) ) ;
#220 = CARTESIAN_POINT ( 'NONE',  ( -6.123233995736766036E-17, 4.000000000000000000, 0.000000000000000000 ) ) ;
#221 = FILL_AREA_STYLE_COLOUR ( '', #118 ) ;
#222 = ORIENTED_EDGE ( 'NONE', *, *, #36, .T. ) ;
#223 = LENGTH_MEASURE_WITH_UNIT ( LENGTH_MEASURE( 0.02539999999999999897 ), #84 );
#224 =( LENGTH_UNIT ( ) NAMED_UNIT ( * ) SI_UNIT ( $, .METRE. ) );
#225 = VECTOR ( 'NONE', #124, 39.37007874015748143 ) ;
#226 = LENGTH_MEASURE_WITH_UNIT ( LENGTH_MEASURE( 0.02539999999999999897 ), #18 );
#227 =( NAMED_UNIT ( * ) PLANE_ANGLE_UNIT ( ) SI_UNIT ( $, .RADIAN. ) );
#228 = LENGTH_MEASURE_WITH_UNIT ( LENGTH_MEASURE( 0.02539999999999999897 ), #215 );
#229 = CARTESIAN_POINT ( 'NONE',  ( 0.000000000000000000, 2.000000000000000000, 0.000000000000000000 ) ) ;
#230 = DIRECTION ( 'NONE',  ( 0.000000000000000000, -0.000000000000000000, 1.000000000000000000 ) ) ;
#231 = AXIS2_PLACEMENT_3D ( 'NONE', #202, #171, #282 ) ;
#232 = DIRECTION ( 'NONE',  ( -0.000000000000000000, -1.000000000000000000, -0.000000000000000000 ) ) ;
#233 = ADVANCED_FACE ( 'NONE', ( #52 ), #123, .T. ) ;
#234 = LENGTH_MEASURE_WITH_UNIT ( LENGTH_MEASURE( 0.02539999999999999897 ), #289 );
#235 = MECHANICAL_DESIGN_GEOMETRIC_PRESENTATION_REPRESENTATION (  '', ( #183 ), #168 ) ;
#236 = AXIS2_PLACEMENT_3D ( 'NONE', #60, #129, #184 ) ;
#237 = PRODUCT_DEFINITION_SHAPE ( 'NONE', 'NONE',  #163 ) ;
#238 = AXIS2_PLACEMENT_3D ( 'NONE', #200, #85, #131 ) ;
#239 = CARTESIAN_POINT ( 'NONE',  ( -0.1562500000000001110, 4.000000000000000000, 0.000000000000000000 ) ) ;
#240 = ORIENTED_EDGE ( 'NONE', *, *, #179, .F. ) ;
#241 = CIRCLE ( 'NONE', #119, 0.1562499999999999722 ) ;
#242 = DIRECTION ( 'NONE',  ( -0.000000000000000000, -1.000000000000000000, -0.000000000000000000 ) ) ;
#243 = EDGE_LOOP ( 'NONE', ( #81, #58 ) ) ;
#244 = LENGTH_MEASURE_WITH_UNIT ( LENGTH_MEASURE( 0.02539999999999999897 ), #295 );
#245 = EDGE_CURVE ( 'NONE', #149, #151, #217, .T. ) ;
#246 = EDGE_LOOP ( 'NONE', ( #176, #249 ) ) ;
#247 = LINE ( 'NONE', #98, #225 ) ;
#248 = VERTEX_POINT ( 'NONE', #297 ) ;
#249 = ORIENTED_EDGE ( 'NONE', *, *, #185, .T. ) ;
#250 = AXIS2_PLACEMENT_3D ( 'NONE', #80, #292, #11 ) ;
#251 = SURFACE_STYLE_USAGE ( .BOTH. , #275 ) ;
#252 =( GEOMETRIC_REPRESENTATION_CONTEXT ( 3 ) GLOBAL_UNCERTAINTY_ASSIGNED_CONTEXT ( ( #197 ) ) GLOBAL_UNIT_ASSIGNED_CONTEXT ( ( #23, #193, #166 ) ) REPRESENTATION_CONTEXT ( 'NONE', 'WORKASPACE' ) );
#253 = AXIS2_PLACEMENT_3D ( 'NONE', #6, #8, #172 ) ;
#254 = EDGE_CURVE ( 'NONE', #248, #269, #82, .T. ) ;
#255 = FILL_AREA_STYLE ('',( #188 ) ) ;
#256 = CARTESIAN_POINT ( 'NONE',  ( 0.000000000000000000, 2.000000000000000000, 0.000000000000000000 ) ) ;
#257 = CARTESIAN_POINT ( 'NONE',  ( 0.000000000000000000, 2.000000000000000000, 0.000000000000000000 ) ) ;
#258 = FACE_OUTER_BOUND ( 'NONE', #246, .T. ) ;
#259 = STYLED_ITEM ( 'NONE', ( #148 ), #283 ) ;
#260 = LENGTH_MEASURE_WITH_UNIT ( LENGTH_MEASURE( 0.02539999999999999897 ), #120 );
#261 = CARTESIAN_POINT ( 'NONE',  ( 0.000000000000000000, 0.000000000000000000, 0.000000000000000000 ) ) ;
#262 = EDGE_CURVE ( 'NONE', #54, #269, #86, .T. ) ;
#263 = DIMENSIONAL_EXPONENTS ( 1.000000000000000000, 0.000000000000000000, 0.000000000000000000, 0.000000000000000000, 0.000000000000000000, 0.000000000000000000, 0.000000000000000000 ) ;
#264 = FILL_AREA_STYLE ('',( #56 ) ) ;
#265 = PRODUCT_DEFINITION_CONTEXT ( 'detailed design', #33, 'design' ) ;
#266 = ORIENTED_EDGE ( 'NONE', *, *, #245, .T. ) ;
#267 =( GEOMETRIC_REPRESENTATION_CONTEXT ( 3 ) GLOBAL_UNCERTAINTY_ASSIGNED_CONTEXT ( ( #24 ) ) GLOBAL_UNIT_ASSIGNED_CONTEXT ( ( #301, #227, #160 ) ) REPRESENTATION_CONTEXT ( 'NONE', 'WORKASPACE' ) );
#268 = SURFACE_SIDE_STYLE ('',( #175 ) ) ;
#269 = VERTEX_POINT ( 'NONE', #178 ) ;
#270 =( GEOMETRIC_REPRESENTATION_CONTEXT ( 3 ) GLOBAL_UNCERTAINTY_ASSIGNED_CONTEXT ( ( #162 ) ) GLOBAL_UNIT_ASSIGNED_CONTEXT ( ( #87, #279, #42 ) ) REPRESENTATION_CONTEXT ( 'NONE', 'WORKASPACE' ) );
#271 = PRESENTATION_STYLE_ASSIGNMENT (( #177 ) ) ;
#272 = EDGE_LOOP ( 'NONE', ( #240, #55, #5, #293 ) ) ;
#273 = ORIENTED_EDGE ( 'NONE', *, *, #102, .F. ) ;
#274 = AXIS2_PLACEMENT_3D ( 'NONE', #220, #9, #14 ) ;
#275 = SURFACE_SIDE_STYLE ('',( #277 ) ) ;
#276 = SURFACE_STYLE_USAGE ( .BOTH. , #65 ) ;
#277 = SURFACE_STYLE_FILL_AREA ( #255 ) ;
#278 = CIRCLE ( 'NONE', #238, 0.1562499999999999722 ) ;
#279 =( NAMED_UNIT ( * ) PLANE_ANGLE_UNIT ( ) SI_UNIT ( $, .RADIAN. ) );
#280 = DIRECTION ( 'NONE',  ( 0.000000000000000000, 0.000000000000000000, -1.000000000000000000 ) ) ;
#281 = AXIS2_PLACEMENT_3D ( 'NONE', #156, #189, #280 ) ;
#282 = DIRECTION ( 'NONE',  ( -1.000000000000000000, -3.061616997868383018E-17, 0.000000000000000000 ) ) ;
#283 = MANIFOLD_SOLID_BREP ( 'Revolve - Tool Body (Straight Shanked)', #97 ) ;
#284 = FILL_AREA_STYLE ('',( #68 ) ) ;
#285 = MECHANICAL_DESIGN_GEOMETRIC_PRESENTATION_REPRESENTATION (  '', ( #259 ), #174 ) ;
#286 = FACE_OUTER_BOUND ( 'NONE', #272, .T. ) ;
#287 = CLOSED_SHELL ( 'NONE', ( #45, #66, #108, #233 ) ) ;
#288 =( NAMED_UNIT ( * ) SI_UNIT ( $, .STERADIAN. ) SOLID_ANGLE_UNIT ( ) );
#289 =( LENGTH_UNIT ( ) NAMED_UNIT ( * ) SI_UNIT ( $, .METRE. ) );
#290 = MECHANICAL_DESIGN_GEOMETRIC_PRESENTATION_REPRESENTATION (  '', ( #37 ), #164 ) ;
#291 = CYLINDRICAL_SURFACE ( 'NONE', #146, 0.1562500000000000000 ) ;
#292 = DIRECTION ( 'NONE',  ( -0.000000000000000000, -1.000000000000000000, -0.000000000000000000 ) ) ;
#293 = ORIENTED_EDGE ( 'NONE', *, *, #262, .F. ) ;
#294 = EDGE_LOOP ( 'NONE', ( #35, #130 ) ) ;
#295 =( LENGTH_UNIT ( ) NAMED_UNIT ( * ) SI_UNIT ( $, .METRE. ) );
#296 = ORIENTED_EDGE ( 'NONE', *, *, #245, .F. ) ;
#297 = CARTESIAN_POINT ( 'NONE',  ( 0.000000000000000000, 2.000000000000000000, -0.1562499999999999722 ) ) ;
#298 = EDGE_CURVE ( 'NONE', #7, #149, #278, .T. ) ;
#299 = LINE ( 'NONE', #158, #64 ) ;
#300 =( NAMED_UNIT ( * ) SI_UNIT ( $, .STERADIAN. ) SOLID_ANGLE_UNIT ( ) );
#301 =( CONVERSION_BASED_UNIT ( 'INCH', #63 ) LENGTH_UNIT ( ) NAMED_UNIT ( #117 ) );
#302 = PLANE ( 'NONE',  #113 ) ;
#303 = CIRCLE ( 'NONE', #253, 0.1562500000000000278 ) ;
#304 = UNCERTAINTY_MEASURE_WITH_UNIT (LENGTH_MEASURE( 1.000000000000000082E-05 ), #94, 'distance_accuracy_value', 'NONE');
#305 = DIRECTION ( 'NONE',  ( -1.000000000000000000, 0.000000000000000000, 0.000000000000000000 ) ) ;
#306 = PRODUCT_RELATED_PRODUCT_CATEGORY ( 'part', '', ( #75 ) ) ;
#307 = DIRECTION ( 'NONE',  ( 1.000000000000000000, 3.061616997868383018E-17, 0.000000000000000000 ) ) ;
#308 = DIRECTION ( 'NONE',  ( -1.000000000000000000, 0.000000000000000000, 0.000000000000000000 ) ) ;
#309 = MECHANICAL_DESIGN_GEOMETRIC_PRESENTATION_REPRESENTATION (  '', ( #132 ), #252 ) ;
ENDSEC;
END-ISO-10303-21;
