ISO-10303-21;
HEADER;
FILE_DESCRIPTION (( 'STEP AP214' ),
    '1' );
FILE_NAME ('30742.STEP',
    '2023-06-22T19:09:55',
    ( '' ),
    ( '' ),
    'SwSTEP 2.0',
    'SolidWorks 2023',
    '' );
FILE_SCHEMA (( 'AUTOMOTIVE_DESIGN' ));
ENDSEC;

DATA;
#1 = DIRECTION ( 'NONE',  ( 0.000000000000000000, 0.000000000000000000, -1.000000000000000000 ) ) ;
#2 = CYLINDRICAL_SURFACE ( 'NONE', #103, 0.5000000000000001110 ) ;
#3 = CARTESIAN_POINT ( 'NONE',  ( 6.123233995736766036E-17, 0.000000000000000000, 0.5000000000000000000 ) ) ;
#4 = FILL_AREA_STYLE_COLOUR ( '', #71 ) ;
#5 = ORIENTED_EDGE ( 'NONE', *, *, #92, .T. ) ;
#6 = CARTESIAN_POINT ( 'NONE',  ( 0.000000000000000000, 0.000000000000000000, -0.5000000000000000000 ) ) ;
#7 = LINE ( 'NONE', #107, #206 ) ;
#8 = VERTEX_POINT ( 'NONE', #6 ) ;
#9 = CIRCLE ( 'NONE', #189, 0.5000000000000000000 ) ;
#10 = SURFACE_SIDE_STYLE ('',( #228 ) ) ;
#11 = EDGE_CURVE ( 'NONE', #8, #115, #145, .T. ) ;
#12 = DIRECTION ( 'NONE',  ( 1.000000000000000000, 4.082155997157848133E-17, 0.000000000000000000 ) ) ;
#13 = EDGE_LOOP ( 'NONE', ( #82, #89 ) ) ;
#14 = FILL_AREA_STYLE ('',( #279 ) ) ;
#15 = CARTESIAN_POINT ( 'NONE',  ( 0.5000000000000000000, 3.000000000000000444, 6.123233995736767268E-17 ) ) ;
#16 = STYLED_ITEM ( 'NONE', ( #280 ), #69 ) ;
#17 = CIRCLE ( 'NONE', #272, 0.5000000000000000000 ) ;
#18 =( NAMED_UNIT ( * ) PLANE_ANGLE_UNIT ( ) SI_UNIT ( $, .RADIAN. ) );
#19 = DIRECTION ( 'NONE',  ( -0.000000000000000000, -1.000000000000000000, -0.000000000000000000 ) ) ;
#20 = DIRECTION ( 'NONE',  ( -4.082155997157848133E-17, 1.000000000000000000, -0.000000000000000000 ) ) ;
#21 =( NAMED_UNIT ( * ) SI_UNIT ( $, .STERADIAN. ) SOLID_ANGLE_UNIT ( ) );
#22 = DIMENSIONAL_EXPONENTS ( 1.000000000000000000, 0.000000000000000000, 0.000000000000000000, 0.000000000000000000, 0.000000000000000000, 0.000000000000000000, 0.000000000000000000 ) ;
#23 = CARTESIAN_POINT ( 'NONE',  ( 0.000000000000000000, 0.000000000000000000, 0.000000000000000000 ) ) ;
#24 =( GEOMETRIC_REPRESENTATION_CONTEXT ( 3 ) GLOBAL_UNCERTAINTY_ASSIGNED_CONTEXT ( ( #283 ) ) GLOBAL_UNIT_ASSIGNED_CONTEXT ( ( #159, #258, #144 ) ) REPRESENTATION_CONTEXT ( 'NONE', 'WORKASPACE' ) );
#25 = CYLINDRICAL_SURFACE ( 'NONE', #102, 0.5000000000000001110 ) ;
#26 = CARTESIAN_POINT ( 'NONE',  ( -1.224646799147354440E-16, 6.000000000000000888, 0.000000000000000000 ) ) ;
#27 = VERTEX_POINT ( 'NONE', #138 ) ;
#28 = DIRECTION ( 'NONE',  ( 0.000000000000000000, 0.000000000000000000, -1.000000000000000000 ) ) ;
#29 =( GEOMETRIC_REPRESENTATION_CONTEXT ( 3 ) GLOBAL_UNCERTAINTY_ASSIGNED_CONTEXT ( ( #207 ) ) GLOBAL_UNIT_ASSIGNED_CONTEXT ( ( #50, #156, #296 ) ) REPRESENTATION_CONTEXT ( 'NONE', 'WORKASPACE' ) );
#30 = DIRECTION ( 'NONE',  ( 0.000000000000000000, 1.000000000000000000, 0.000000000000000000 ) ) ;
#31 = DIRECTION ( 'NONE',  ( 0.000000000000000000, 0.000000000000000000, -1.000000000000000000 ) ) ;
#32 = PRODUCT ( '30742', '30742', '', ( #187 ) ) ;
#33 = VERTEX_POINT ( 'NONE', #15 ) ;
#34 =( NAMED_UNIT ( * ) SI_UNIT ( $, .STERADIAN. ) SOLID_ANGLE_UNIT ( ) );
#35 = EDGE_CURVE ( 'NONE', #33, #232, #148, .T. ) ;
#36 =( LENGTH_UNIT ( ) NAMED_UNIT ( * ) SI_UNIT ( $, .METRE. ) );
#37 = CARTESIAN_POINT ( 'NONE',  ( 0.000000000000000000, 0.000000000000000000, 0.000000000000000000 ) ) ;
#38 = DIRECTION ( 'NONE',  ( -1.000000000000000000, -4.082155997157848133E-17, 0.000000000000000000 ) ) ;
#39 = MANIFOLD_SOLID_BREP ( 'Revolve - Cutting Edge', #93 ) ;
#40 = MANIFOLD_SOLID_BREP ( 'Revolve - Tool Body (Straight Shanked)', #117 ) ;
#41 =( LENGTH_UNIT ( ) NAMED_UNIT ( * ) SI_UNIT ( $, .METRE. ) );
#42 = MECHANICAL_DESIGN_GEOMETRIC_PRESENTATION_REPRESENTATION (  '', ( #160 ), #245 ) ;
#43 = UNCERTAINTY_MEASURE_WITH_UNIT (LENGTH_MEASURE( 1.000000000000000082E-05 ), #135, 'distance_accuracy_value', 'NONE');
#44 = ORIENTED_EDGE ( 'NONE', *, *, #269, .F. ) ;
#45 =( LENGTH_UNIT ( ) NAMED_UNIT ( * ) SI_UNIT ( $, .METRE. ) );
#46 = VERTEX_POINT ( 'NONE', #260 ) ;
#47 = COLOUR_RGB ( '',1.000000000000000000, 0.000000000000000000, 0.000000000000000000 ) ;
#48 = PRODUCT_DEFINITION_SHAPE ( 'NONE', 'NONE',  #197 ) ;
#49 = DIRECTION ( 'NONE',  ( -4.082155997157848133E-17, 1.000000000000000000, -0.000000000000000000 ) ) ;
#50 =( CONVERSION_BASED_UNIT ( 'INCH', #112 ) LENGTH_UNIT ( ) NAMED_UNIT ( #169 ) );
#51 = ORIENTED_EDGE ( 'NONE', *, *, #122, .F. ) ;
#52 = DIRECTION ( 'NONE',  ( -1.000000000000000000, 0.000000000000000000, 0.000000000000000000 ) ) ;
#53 = APPLICATION_CONTEXT ( 'automotive_design' ) ;
#54 = DIRECTION ( 'NONE',  ( -0.000000000000000000, -1.000000000000000000, -0.000000000000000000 ) ) ;
#55 = CARTESIAN_POINT ( 'NONE',  ( 0.4999999999999999445, 6.000000000000000888, 6.123233995736767268E-17 ) ) ;
#56 = PRESENTATION_STYLE_ASSIGNMENT (( #295 ) ) ;
#57 = DIRECTION ( 'NONE',  ( 0.000000000000000000, 0.000000000000000000, -1.000000000000000000 ) ) ;
#58 = ORIENTED_EDGE ( 'NONE', *, *, #60, .F. ) ;
#59 = AXIS2_PLACEMENT_3D ( 'NONE', #223, #153, #249 ) ;
#60 = EDGE_CURVE ( 'NONE', #275, #8, #165, .T. ) ;
#61 = ADVANCED_BREP_SHAPE_REPRESENTATION ( '30742', ( #39, #40, #186 ), #309 ) ;
#62 = SURFACE_SIDE_STYLE ('',( #246 ) ) ;
#63 = MECHANICAL_DESIGN_GEOMETRIC_PRESENTATION_REPRESENTATION (  '', ( #173 ), #150 ) ;
#64 = PRODUCT_DEFINITION_CONTEXT ( 'detailed design', #53, 'design' ) ;
#65 = LENGTH_MEASURE_WITH_UNIT ( LENGTH_MEASURE( 0.02539999999999999897 ), #237 );
#66 = ADVANCED_FACE ( 'NONE', ( #241 ), #25, .T. ) ;
#67 = UNCERTAINTY_MEASURE_WITH_UNIT (LENGTH_MEASURE( 1.000000000000000082E-05 ), #234, 'distance_accuracy_value', 'NONE');
#68 =( CONVERSION_BASED_UNIT ( 'INCH', #242 ) LENGTH_UNIT ( ) NAMED_UNIT ( #212 ) );
#69 = ADVANCED_FACE ( 'NONE', ( #282 ), #273, .T. ) ;
#70 = DIRECTION ( 'NONE',  ( -4.082155997157848133E-17, 1.000000000000000000, -0.000000000000000000 ) ) ;
#71 = COLOUR_RGB ( '',0.7921568627450980005, 0.8196078431372548767, 0.9333333333333333481 ) ;
#72 = DIRECTION ( 'NONE',  ( -4.082155997157848133E-17, 1.000000000000000000, -0.000000000000000000 ) ) ;
#73 = PRESENTATION_LAYER_ASSIGNMENT (  '', '', ( #160 ) ) ;
#74 = UNCERTAINTY_MEASURE_WITH_UNIT (LENGTH_MEASURE( 1.000000000000000082E-05 ), #164, 'distance_accuracy_value', 'NONE');
#75 = CIRCLE ( 'NONE', #200, 0.5000000000000000000 ) ;
#76 = EDGE_CURVE ( 'NONE', #46, #275, #118, .T. ) ;
#77 = FILL_AREA_STYLE_COLOUR ( '', #305 ) ;
#78 = ORIENTED_EDGE ( 'NONE', *, *, #60, .T. ) ;
#79 = COLOUR_RGB ( '',1.000000000000000000, 0.000000000000000000, 0.000000000000000000 ) ;
#80 = CIRCLE ( 'NONE', #192, 0.5000000000000001110 ) ;
#81 = CARTESIAN_POINT ( 'NONE',  ( 0.000000000000000000, 0.000000000000000000, 0.000000000000000000 ) ) ;
#82 = ORIENTED_EDGE ( 'NONE', *, *, #257, .F. ) ;
#83 = APPLICATION_CONTEXT ( 'automotive_design' ) ;
#84 = DIRECTION ( 'NONE',  ( -4.082155997157848133E-17, 1.000000000000000000, -0.000000000000000000 ) ) ;
#85 = PRESENTATION_LAYER_ASSIGNMENT (  '', '', ( #248 ) ) ;
#86 = STYLED_ITEM ( 'NONE', ( #216 ), #264 ) ;
#87 = SHAPE_DEFINITION_REPRESENTATION ( #48, #61 ) ;
#88 = SURFACE_STYLE_USAGE ( .BOTH. , #10 ) ;
#89 = ORIENTED_EDGE ( 'NONE', *, *, #185, .F. ) ;
#90 = FILL_AREA_STYLE_COLOUR ( '', #79 ) ;
#91 = ORIENTED_EDGE ( 'NONE', *, *, #130, .F. ) ;
#92 = EDGE_CURVE ( 'NONE', #27, #116, #7, .T. ) ;
#93 = CLOSED_SHELL ( 'NONE', ( #167, #69, #264, #253 ) ) ;
#94 = PRESENTATION_LAYER_ASSIGNMENT (  '', '', ( #86 ) ) ;
#95 = CARTESIAN_POINT ( 'NONE',  ( 0.000000000000000000, 0.000000000000000000, 0.000000000000000000 ) ) ;
#96 = DIMENSIONAL_EXPONENTS ( 1.000000000000000000, 0.000000000000000000, 0.000000000000000000, 0.000000000000000000, 0.000000000000000000, 0.000000000000000000, 0.000000000000000000 ) ;
#97 = SURFACE_STYLE_USAGE ( .BOTH. , #120 ) ;
#98 = DIRECTION ( 'NONE',  ( -1.000000000000000000, 0.000000000000000000, 0.000000000000000000 ) ) ;
#99 = FILL_AREA_STYLE ('',( #247 ) ) ;
#100 = LENGTH_MEASURE_WITH_UNIT ( LENGTH_MEASURE( 0.02539999999999999897 ), #149 );
#101 = PRESENTATION_STYLE_ASSIGNMENT (( #286 ) ) ;
#102 = AXIS2_PLACEMENT_3D ( 'NONE', #26, #126, #263 ) ;
#103 = AXIS2_PLACEMENT_3D ( 'NONE', #105, #49, #52 ) ;
#104 = FACE_OUTER_BOUND ( 'NONE', #300, .T. ) ;
#105 = CARTESIAN_POINT ( 'NONE',  ( -1.224646799147354440E-16, 6.000000000000000888, 0.000000000000000000 ) ) ;
#106 = SURFACE_STYLE_USAGE ( .BOTH. , #268 ) ;
#107 = CARTESIAN_POINT ( 'NONE',  ( -0.5000000000000002220, 6.000000000000000888, 0.000000000000000000 ) ) ;
#108 = DIRECTION ( 'NONE',  ( -0.000000000000000000, -1.000000000000000000, -0.000000000000000000 ) ) ;
#109 = LINE ( 'NONE', #278, #119 ) ;
#110 =( NAMED_UNIT ( * ) SI_UNIT ( $, .STERADIAN. ) SOLID_ANGLE_UNIT ( ) );
#111 = CARTESIAN_POINT ( 'NONE',  ( 0.000000000000000000, 0.000000000000000000, 0.000000000000000000 ) ) ;
#112 = LENGTH_MEASURE_WITH_UNIT ( LENGTH_MEASURE( 0.02539999999999999897 ), #229 );
#113 = PRESENTATION_LAYER_ASSIGNMENT (  '', '', ( #173 ) ) ;
#114 = DIRECTION ( 'NONE',  ( -4.082155997157848133E-17, 1.000000000000000000, 0.000000000000000000 ) ) ;
#115 = VERTEX_POINT ( 'NONE', #3 ) ;
#116 = VERTEX_POINT ( 'NONE', #297 ) ;
#117 = CLOSED_SHELL ( 'NONE', ( #266, #155, #66, #161 ) ) ;
#118 = CIRCLE ( 'NONE', #294, 0.5000000000000000000 ) ;
#119 = VECTOR ( 'NONE', #19, 39.37007874015748143 ) ;
#120 = SURFACE_SIDE_STYLE ('',( #236 ) ) ;
#121 = ORIENTED_EDGE ( 'NONE', *, *, #11, .F. ) ;
#122 = EDGE_CURVE ( 'NONE', #275, #46, #75, .T. ) ;
#123 = CIRCLE ( 'NONE', #284, 0.5000000000000000000 ) ;
#124 =( NAMED_UNIT ( * ) PLANE_ANGLE_UNIT ( ) SI_UNIT ( $, .RADIAN. ) );
#125 = UNCERTAINTY_MEASURE_WITH_UNIT (LENGTH_MEASURE( 1.000000000000000082E-05 ), #68, 'distance_accuracy_value', 'NONE');
#126 = DIRECTION ( 'NONE',  ( -4.082155997157848133E-17, 1.000000000000000000, -0.000000000000000000 ) ) ;
#127 = COLOUR_RGB ( '',1.000000000000000000, 0.000000000000000000, 0.000000000000000000 ) ;
#128 = UNCERTAINTY_MEASURE_WITH_UNIT (LENGTH_MEASURE( 1.000000000000000082E-05 ), #243, 'distance_accuracy_value', 'NONE');
#129 =( NAMED_UNIT ( * ) SI_UNIT ( $, .STERADIAN. ) SOLID_ANGLE_UNIT ( ) );
#130 = EDGE_CURVE ( 'NONE', #115, #8, #123, .T. ) ;
#131 = CARTESIAN_POINT ( 'NONE',  ( 0.000000000000000000, 3.000000000000000444, -0.5000000000000000000 ) ) ;
#132 = ORIENTED_EDGE ( 'NONE', *, *, #35, .F. ) ;
#133 = VECTOR ( 'NONE', #70, 39.37007874015748143 ) ;
#134 = AXIS2_PLACEMENT_3D ( 'NONE', #254, #114, #38 ) ;
#135 =( CONVERSION_BASED_UNIT ( 'INCH', #250 ) LENGTH_UNIT ( ) NAMED_UNIT ( #96 ) );
#136 = PLANE ( 'NONE',  #178 ) ;
#137 = EDGE_LOOP ( 'NONE', ( #132, #181, #5, #143 ) ) ;
#138 = CARTESIAN_POINT ( 'NONE',  ( -0.5000000000000000000, 3.000000000000000444, 0.000000000000000000 ) ) ;
#139 = ORIENTED_EDGE ( 'NONE', *, *, #130, .T. ) ;
#140 = AXIS2_PLACEMENT_3D ( 'NONE', #37, #230, #203 ) ;
#141 =( NAMED_UNIT ( * ) SI_UNIT ( $, .STERADIAN. ) SOLID_ANGLE_UNIT ( ) );
#142 = PRODUCT_RELATED_PRODUCT_CATEGORY ( 'part', '', ( #32 ) ) ;
#143 = ORIENTED_EDGE ( 'NONE', *, *, #194, .F. ) ;
#144 =( NAMED_UNIT ( * ) SI_UNIT ( $, .STERADIAN. ) SOLID_ANGLE_UNIT ( ) );
#145 = CIRCLE ( 'NONE', #184, 0.5000000000000000000 ) ;
#146 = FILL_AREA_STYLE ('',( #90 ) ) ;
#147 =( NAMED_UNIT ( * ) PLANE_ANGLE_UNIT ( ) SI_UNIT ( $, .RADIAN. ) );
#148 = LINE ( 'NONE', #55, #133 ) ;
#149 =( LENGTH_UNIT ( ) NAMED_UNIT ( * ) SI_UNIT ( $, .METRE. ) );
#150 =( GEOMETRIC_REPRESENTATION_CONTEXT ( 3 ) GLOBAL_UNCERTAINTY_ASSIGNED_CONTEXT ( ( #67 ) ) GLOBAL_UNIT_ASSIGNED_CONTEXT ( ( #234, #18, #34 ) ) REPRESENTATION_CONTEXT ( 'NONE', 'WORKASPACE' ) );
#151 = DIRECTION ( 'NONE',  ( -0.000000000000000000, -1.000000000000000000, -0.000000000000000000 ) ) ;
#152 = CARTESIAN_POINT ( 'NONE',  ( 0.000000000000000000, 0.000000000000000000, 0.000000000000000000 ) ) ;
#153 = DIRECTION ( 'NONE',  ( -4.082155997157848133E-17, 1.000000000000000000, -0.000000000000000000 ) ) ;
#154 = CYLINDRICAL_SURFACE ( 'NONE', #240, 0.5000000000000000000 ) ;
#155 = ADVANCED_FACE ( 'NONE', ( #198 ), #226, .F. ) ;
#156 =( NAMED_UNIT ( * ) PLANE_ANGLE_UNIT ( ) SI_UNIT ( $, .RADIAN. ) );
#157 = MECHANICAL_DESIGN_GEOMETRIC_PRESENTATION_REPRESENTATION (  '', ( #86 ), #24 ) ;
#158 = EDGE_LOOP ( 'NONE', ( #177, #227, #78, #91 ) ) ;
#159 =( CONVERSION_BASED_UNIT ( 'INCH', #65 ) LENGTH_UNIT ( ) NAMED_UNIT ( #244 ) );
#160 = STYLED_ITEM ( 'NONE', ( #101 ), #167 ) ;
#161 = ADVANCED_FACE ( 'NONE', ( #201 ), #136, .F. ) ;
#162 = APPLICATION_PROTOCOL_DEFINITION ( 'draft international standard', 'automotive_design', 1998, #83 ) ;
#163 = FILL_AREA_STYLE ('',( #290 ) ) ;
#164 =( CONVERSION_BASED_UNIT ( 'INCH', #259 ) LENGTH_UNIT ( ) NAMED_UNIT ( #22 ) );
#165 = LINE ( 'NONE', #171, #238 ) ;
#166 = EDGE_LOOP ( 'NONE', ( #298, #267, #121, #58 ) ) ;
#167 = ADVANCED_FACE ( 'NONE', ( #196 ), #265, .T. ) ;
#168 = PRESENTATION_LAYER_ASSIGNMENT (  '', '', ( #301 ) ) ;
#169 = DIMENSIONAL_EXPONENTS ( 1.000000000000000000, 0.000000000000000000, 0.000000000000000000, 0.000000000000000000, 0.000000000000000000, 0.000000000000000000, 0.000000000000000000 ) ;
#170 = DIRECTION ( 'NONE',  ( -1.000000000000000000, 0.000000000000000000, 0.000000000000000000 ) ) ;
#171 = CARTESIAN_POINT ( 'NONE',  ( 0.000000000000000000, 0.000000000000000000, -0.5000000000000000000 ) ) ;
#172 = DIRECTION ( 'NONE',  ( -1.000000000000000000, 0.000000000000000000, 0.000000000000000000 ) ) ;
#173 = STYLED_ITEM ( 'NONE', ( #56 ), #253 ) ;
#174 = FILL_AREA_STYLE ('',( #4 ) ) ;
#175 = DIRECTION ( 'NONE',  ( 4.082155997157848133E-17, -1.000000000000000000, 0.000000000000000000 ) ) ;
#176 = ORIENTED_EDGE ( 'NONE', *, *, #76, .F. ) ;
#177 = ORIENTED_EDGE ( 'NONE', *, *, #281, .F. ) ;
#178 = AXIS2_PLACEMENT_3D ( 'NONE', #231, #175, #12 ) ;
#179 = CARTESIAN_POINT ( 'NONE',  ( 0.000000000000000000, 3.000000000000000444, 0.000000000000000000 ) ) ;
#180 = LENGTH_MEASURE_WITH_UNIT ( LENGTH_MEASURE( 0.02539999999999999897 ), #41 );
#181 = ORIENTED_EDGE ( 'NONE', *, *, #185, .T. ) ;
#182 = EDGE_LOOP ( 'NONE', ( #51, #176 ) ) ;
#183 = DIRECTION ( 'NONE',  ( -0.000000000000000000, -1.000000000000000000, -0.000000000000000000 ) ) ;
#184 = AXIS2_PLACEMENT_3D ( 'NONE', #111, #108, #199 ) ;
#185 = EDGE_CURVE ( 'NONE', #33, #27, #17, .T. ) ;
#186 = AXIS2_PLACEMENT_3D ( 'NONE', #23, #214, #190 ) ;
#187 = PRODUCT_CONTEXT ( 'NONE', #83, 'mechanical' ) ;
#188 = DIRECTION ( 'NONE',  ( -0.000000000000000000, -1.000000000000000000, -0.000000000000000000 ) ) ;
#189 = AXIS2_PLACEMENT_3D ( 'NONE', #193, #20, #172 ) ;
#190 = DIRECTION ( 'NONE',  ( 1.000000000000000000, 0.000000000000000000, 0.000000000000000000 ) ) ;
#191 = CARTESIAN_POINT ( 'NONE',  ( -1.224646799147354440E-16, 6.000000000000000888, 0.000000000000000000 ) ) ;
#192 = AXIS2_PLACEMENT_3D ( 'NONE', #191, #72, #170 ) ;
#193 = CARTESIAN_POINT ( 'NONE',  ( 1.516480271171051896E-32, 3.000000000000000444, 0.000000000000000000 ) ) ;
#194 = EDGE_CURVE ( 'NONE', #232, #116, #80, .T. ) ;
#195 = DIRECTION ( 'NONE',  ( -0.000000000000000000, -1.000000000000000000, -0.000000000000000000 ) ) ;
#196 = FACE_OUTER_BOUND ( 'NONE', #166, .T. ) ;
#197 = PRODUCT_DEFINITION ( 'UNKNOWN', '', #219, #64 ) ;
#198 = FACE_OUTER_BOUND ( 'NONE', #13, .T. ) ;
#199 = DIRECTION ( 'NONE',  ( 0.000000000000000000, 0.000000000000000000, -1.000000000000000000 ) ) ;
#200 = AXIS2_PLACEMENT_3D ( 'NONE', #293, #183, #57 ) ;
#201 = FACE_OUTER_BOUND ( 'NONE', #208, .T. ) ;
#202 = CARTESIAN_POINT ( 'NONE',  ( 0.000000000000000000, 3.000000000000000444, 0.000000000000000000 ) ) ;
#203 = DIRECTION ( 'NONE',  ( 0.000000000000000000, 0.000000000000000000, -1.000000000000000000 ) ) ;
#204 = SURFACE_STYLE_FILL_AREA ( #163 ) ;
#205 = COLOUR_RGB ( '',0.7921568627450980005, 0.8196078431372548767, 0.9333333333333333481 ) ;
#206 = VECTOR ( 'NONE', #84, 39.37007874015748143 ) ;
#207 = UNCERTAINTY_MEASURE_WITH_UNIT (LENGTH_MEASURE( 1.000000000000000082E-05 ), #50, 'distance_accuracy_value', 'NONE');
#208 = EDGE_LOOP ( 'NONE', ( #291, #302 ) ) ;
#209 = DIMENSIONAL_EXPONENTS ( 1.000000000000000000, 0.000000000000000000, 0.000000000000000000, 0.000000000000000000, 0.000000000000000000, 0.000000000000000000, 0.000000000000000000 ) ;
#210 =( NAMED_UNIT ( * ) PLANE_ANGLE_UNIT ( ) SI_UNIT ( $, .RADIAN. ) );
#211 =( LENGTH_UNIT ( ) NAMED_UNIT ( * ) SI_UNIT ( $, .METRE. ) );
#212 = DIMENSIONAL_EXPONENTS ( 1.000000000000000000, 0.000000000000000000, 0.000000000000000000, 0.000000000000000000, 0.000000000000000000, 0.000000000000000000, 0.000000000000000000 ) ;
#213 =( GEOMETRIC_REPRESENTATION_CONTEXT ( 3 ) GLOBAL_UNCERTAINTY_ASSIGNED_CONTEXT ( ( #125 ) ) GLOBAL_UNIT_ASSIGNED_CONTEXT ( ( #68, #210, #141 ) ) REPRESENTATION_CONTEXT ( 'NONE', 'WORKASPACE' ) );
#214 = DIRECTION ( 'NONE',  ( 0.000000000000000000, 0.000000000000000000, 1.000000000000000000 ) ) ;
#215 = DIRECTION ( 'NONE',  ( -4.082155997157848133E-17, 1.000000000000000000, -0.000000000000000000 ) ) ;
#216 = PRESENTATION_STYLE_ASSIGNMENT (( #239 ) ) ;
#217 = MECHANICAL_DESIGN_GEOMETRIC_PRESENTATION_REPRESENTATION (  '', ( #248 ), #213 ) ;
#218 = CARTESIAN_POINT ( 'NONE',  ( 1.516480271171051896E-32, 3.000000000000000444, 0.000000000000000000 ) ) ;
#219 = PRODUCT_DEFINITION_FORMATION_WITH_SPECIFIED_SOURCE ( 'ANY', '', #32, .NOT_KNOWN. ) ;
#220 = SURFACE_STYLE_FILL_AREA ( #174 ) ;
#221 = DIRECTION ( 'NONE',  ( 0.000000000000000000, -0.000000000000000000, 1.000000000000000000 ) ) ;
#222 = ORIENTED_EDGE ( 'NONE', *, *, #257, .T. ) ;
#223 = CARTESIAN_POINT ( 'NONE',  ( -1.224646799147354440E-16, 6.000000000000000888, 0.000000000000000000 ) ) ;
#224 = PRESENTATION_STYLE_ASSIGNMENT (( #106 ) ) ;
#225 = ORIENTED_EDGE ( 'NONE', *, *, #92, .F. ) ;
#226 = PLANE ( 'NONE',  #134 ) ;
#227 = ORIENTED_EDGE ( 'NONE', *, *, #76, .T. ) ;
#228 = SURFACE_STYLE_FILL_AREA ( #99 ) ;
#229 =( LENGTH_UNIT ( ) NAMED_UNIT ( * ) SI_UNIT ( $, .METRE. ) );
#230 = DIRECTION ( 'NONE',  ( 0.000000000000000000, -1.000000000000000000, -0.000000000000000000 ) ) ;
#231 = CARTESIAN_POINT ( 'NONE',  ( 0.5000000000000000000, 6.000000000000000888, 0.000000000000000000 ) ) ;
#232 = VERTEX_POINT ( 'NONE', #251 ) ;
#233 = APPLICATION_PROTOCOL_DEFINITION ( 'draft international standard', 'automotive_design', 1998, #53 ) ;
#234 =( CONVERSION_BASED_UNIT ( 'INCH', #180 ) LENGTH_UNIT ( ) NAMED_UNIT ( #306 ) );
#235 =( GEOMETRIC_REPRESENTATION_CONTEXT ( 3 ) GLOBAL_UNCERTAINTY_ASSIGNED_CONTEXT ( ( #43 ) ) GLOBAL_UNIT_ASSIGNED_CONTEXT ( ( #135, #289, #110 ) ) REPRESENTATION_CONTEXT ( 'NONE', 'WORKASPACE' ) );
#236 = SURFACE_STYLE_FILL_AREA ( #146 ) ;
#237 =( LENGTH_UNIT ( ) NAMED_UNIT ( * ) SI_UNIT ( $, .METRE. ) );
#238 = VECTOR ( 'NONE', #188, 39.37007874015748143 ) ;
#239 = SURFACE_STYLE_USAGE ( .BOTH. , #62 ) ;
#240 = AXIS2_PLACEMENT_3D ( 'NONE', #95, #195, #1 ) ;
#241 = FACE_OUTER_BOUND ( 'NONE', #137, .T. ) ;
#242 = LENGTH_MEASURE_WITH_UNIT ( LENGTH_MEASURE( 0.02539999999999999897 ), #45 );
#243 =( CONVERSION_BASED_UNIT ( 'INCH', #100 ) LENGTH_UNIT ( ) NAMED_UNIT ( #209 ) );
#244 = DIMENSIONAL_EXPONENTS ( 1.000000000000000000, 0.000000000000000000, 0.000000000000000000, 0.000000000000000000, 0.000000000000000000, 0.000000000000000000, 0.000000000000000000 ) ;
#245 =( GEOMETRIC_REPRESENTATION_CONTEXT ( 3 ) GLOBAL_UNCERTAINTY_ASSIGNED_CONTEXT ( ( #128 ) ) GLOBAL_UNIT_ASSIGNED_CONTEXT ( ( #243, #147, #129 ) ) REPRESENTATION_CONTEXT ( 'NONE', 'WORKASPACE' ) );
#246 = SURFACE_STYLE_FILL_AREA ( #14 ) ;
#247 = FILL_AREA_STYLE_COLOUR ( '', #205 ) ;
#248 = STYLED_ITEM ( 'NONE', ( #299 ), #40 ) ;
#249 = DIRECTION ( 'NONE',  ( -1.000000000000000000, 0.000000000000000000, 0.000000000000000000 ) ) ;
#250 = LENGTH_MEASURE_WITH_UNIT ( LENGTH_MEASURE( 0.02539999999999999897 ), #36 );
#251 = CARTESIAN_POINT ( 'NONE',  ( 0.5000000000000000000, 6.000000000000000888, 6.123233995736767268E-17 ) ) ;
#252 = DIRECTION ( 'NONE',  ( 0.000000000000000000, 0.000000000000000000, -1.000000000000000000 ) ) ;
#253 = ADVANCED_FACE ( 'NONE', ( #292 ), #276, .T. ) ;
#254 = CARTESIAN_POINT ( 'NONE',  ( 4.165999396282946067E-34, 3.000000000000000444, 0.000000000000000000 ) ) ;
#255 = SURFACE_SIDE_STYLE ('',( #204 ) ) ;
#256 = AXIS2_PLACEMENT_3D ( 'NONE', #202, #30, #221 ) ;
#257 = EDGE_CURVE ( 'NONE', #27, #33, #9, .T. ) ;
#258 =( NAMED_UNIT ( * ) PLANE_ANGLE_UNIT ( ) SI_UNIT ( $, .RADIAN. ) );
#259 = LENGTH_MEASURE_WITH_UNIT ( LENGTH_MEASURE( 0.02539999999999999897 ), #211 );
#260 = CARTESIAN_POINT ( 'NONE',  ( 6.123233995736766036E-17, 3.000000000000000444, 0.5000000000000000000 ) ) ;
#261 = ORIENTED_EDGE ( 'NONE', *, *, #11, .T. ) ;
#262 = CIRCLE ( 'NONE', #59, 0.5000000000000001110 ) ;
#263 = DIRECTION ( 'NONE',  ( -1.000000000000000000, 0.000000000000000000, 0.000000000000000000 ) ) ;
#264 = ADVANCED_FACE ( 'NONE', ( #285 ), #154, .T. ) ;
#265 = CYLINDRICAL_SURFACE ( 'NONE', #304, 0.5000000000000000000 ) ;
#266 = ADVANCED_FACE ( 'NONE', ( #104 ), #2, .T. ) ;
#267 = ORIENTED_EDGE ( 'NONE', *, *, #281, .T. ) ;
#268 = SURFACE_SIDE_STYLE ('',( #220 ) ) ;
#269 = EDGE_CURVE ( 'NONE', #116, #232, #262, .T. ) ;
#270 = FILL_AREA_STYLE ('',( #77 ) ) ;
#271 = SURFACE_STYLE_FILL_AREA ( #270 ) ;
#272 = AXIS2_PLACEMENT_3D ( 'NONE', #218, #215, #98 ) ;
#273 = PLANE ( 'NONE',  #256 ) ;
#274 = ORIENTED_EDGE ( 'NONE', *, *, #35, .T. ) ;
#275 = VERTEX_POINT ( 'NONE', #131 ) ;
#276 = PLANE ( 'NONE',  #140 ) ;
#277 = PRESENTATION_LAYER_ASSIGNMENT (  '', '', ( #16 ) ) ;
#278 = CARTESIAN_POINT ( 'NONE',  ( 6.123233995736766036E-17, 0.000000000000000000, 0.5000000000000000000 ) ) ;
#279 = FILL_AREA_STYLE_COLOUR ( '', #47 ) ;
#280 = PRESENTATION_STYLE_ASSIGNMENT (( #97 ) ) ;
#281 = EDGE_CURVE ( 'NONE', #46, #115, #109, .T. ) ;
#282 = FACE_OUTER_BOUND ( 'NONE', #182, .T. ) ;
#283 = UNCERTAINTY_MEASURE_WITH_UNIT (LENGTH_MEASURE( 1.000000000000000082E-05 ), #159, 'distance_accuracy_value', 'NONE');
#284 = AXIS2_PLACEMENT_3D ( 'NONE', #81, #54, #31 ) ;
#285 = FACE_OUTER_BOUND ( 'NONE', #158, .T. ) ;
#286 = SURFACE_STYLE_USAGE ( .BOTH. , #307 ) ;
#287 = DIRECTION ( 'NONE',  ( -0.000000000000000000, -1.000000000000000000, -0.000000000000000000 ) ) ;
#288 = EDGE_LOOP ( 'NONE', ( #261, #139 ) ) ;
#289 =( NAMED_UNIT ( * ) PLANE_ANGLE_UNIT ( ) SI_UNIT ( $, .RADIAN. ) );
#290 = FILL_AREA_STYLE_COLOUR ( '', #127 ) ;
#291 = ORIENTED_EDGE ( 'NONE', *, *, #269, .T. ) ;
#292 = FACE_OUTER_BOUND ( 'NONE', #288, .T. ) ;
#293 = CARTESIAN_POINT ( 'NONE',  ( 0.000000000000000000, 3.000000000000000444, 0.000000000000000000 ) ) ;
#294 = AXIS2_PLACEMENT_3D ( 'NONE', #179, #287, #252 ) ;
#295 = SURFACE_STYLE_USAGE ( .BOTH. , #255 ) ;
#296 =( NAMED_UNIT ( * ) SI_UNIT ( $, .STERADIAN. ) SOLID_ANGLE_UNIT ( ) );
#297 = CARTESIAN_POINT ( 'NONE',  ( -0.5000000000000002220, 6.000000000000000888, 0.000000000000000000 ) ) ;
#298 = ORIENTED_EDGE ( 'NONE', *, *, #122, .T. ) ;
#299 = PRESENTATION_STYLE_ASSIGNMENT (( #88 ) ) ;
#300 = EDGE_LOOP ( 'NONE', ( #222, #274, #44, #225 ) ) ;
#301 = STYLED_ITEM ( 'NONE', ( #224 ), #39 ) ;
#302 = ORIENTED_EDGE ( 'NONE', *, *, #194, .T. ) ;
#303 = MECHANICAL_DESIGN_GEOMETRIC_PRESENTATION_REPRESENTATION (  '', ( #301 ), #29 ) ;
#304 = AXIS2_PLACEMENT_3D ( 'NONE', #152, #151, #28 ) ;
#305 = COLOUR_RGB ( '',1.000000000000000000, 0.000000000000000000, 0.000000000000000000 ) ;
#306 = DIMENSIONAL_EXPONENTS ( 1.000000000000000000, 0.000000000000000000, 0.000000000000000000, 0.000000000000000000, 0.000000000000000000, 0.000000000000000000, 0.000000000000000000 ) ;
#307 = SURFACE_SIDE_STYLE ('',( #271 ) ) ;
#308 = MECHANICAL_DESIGN_GEOMETRIC_PRESENTATION_REPRESENTATION (  '', ( #16 ), #235 ) ;
#309 =( GEOMETRIC_REPRESENTATION_CONTEXT ( 3 ) GLOBAL_UNCERTAINTY_ASSIGNED_CONTEXT ( ( #74 ) ) GLOBAL_UNIT_ASSIGNED_CONTEXT ( ( #164, #124, #21 ) ) REPRESENTATION_CONTEXT ( 'NONE', 'WORKASPACE' ) );
ENDSEC;
END-ISO-10303-21;
