ISO-10303-21;
HEADER;
FILE_DESCRIPTION (( 'STEP AP214' ),
    '1' );
FILE_NAME ('Micro_RDA-70.STEP',
    '2021-08-31T16:59:06',
    ( '' ),
    ( '' ),
    'SwSTEP 2.0',
    'SolidWorks 2020',
    '' );
FILE_SCHEMA (( 'AUTOMOTIVE_DESIGN' ));
ENDSEC;

DATA;
#1 = ADVANCED_FACE ( 'NONE', ( #226 ), #56, .F. ) ;
#2 = AXIS2_PLACEMENT_3D ( 'NONE', #127, #145, #71 ) ;
#3 = CARTESIAN_POINT ( 'NONE',  ( 1.872825028598994811E-33, 0.0000000000000000000, 1.529277690435257475E-17 ) ) ;
#4 = CARTESIAN_POINT ( 'NONE',  ( 0.0000000000000000000, 0.0000000000000000000, 2.500000000000000000 ) ) ;
#5 = CIRCLE ( 'NONE', #175, 0.1100000000000001948 ) ;
#6 = LINE ( 'NONE', #9, #121 ) ;
#7 = ORIENTED_EDGE ( 'NONE', *, *, #39, .F. ) ;
#8 = DIRECTION ( 'NONE',  ( 1.000000000000000000, 0.0000000000000000000, 0.0000000000000000000 ) ) ;
#9 = CARTESIAN_POINT ( 'NONE',  ( -0.1248749999999999444, 1.529277690435257783E-17, 0.7500000000000001110 ) ) ;
#10 = AXIS2_PLACEMENT_3D ( 'NONE', #64, #204, #38 ) ;
#11 = DIRECTION ( 'NONE',  ( -1.000000000000000000, 0.0000000000000000000, 1.224646799147353454E-16 ) ) ;
#12 = VECTOR ( 'NONE', #117, 39.37007874015748143 ) ;
#13 = ORIENTED_EDGE ( 'NONE', *, *, #244, .T. ) ;
#14 = ORIENTED_EDGE ( 'NONE', *, *, #294, .T. ) ;
#15 = CARTESIAN_POINT ( 'NONE',  ( 0.1248750000000001109, 0.0000000000000000000, 0.7500000000000001110 ) ) ;
#16 = DIRECTION ( 'NONE',  ( 1.224646799147353207E-16, 0.0000000000000000000, 1.000000000000000000 ) ) ;
#17 = CARTESIAN_POINT ( 'NONE',  ( 0.0000000000000000000, 0.0000000000000000000, 2.500000000000000000 ) ) ;
#18 = CARTESIAN_POINT ( 'NONE',  ( 0.0000000000000000000, 0.0000000000000000000, 0.0000000000000000000 ) ) ;
#19 = SURFACE_STYLE_FILL_AREA ( #163 ) ;
#20 = CYLINDRICAL_SURFACE ( 'NONE', #221, 0.1250000000000000000 ) ;
#21 = CARTESIAN_POINT ( 'NONE',  ( -0.1250000000000000000, 0.0000000000000000000, 2.485000000000000320 ) ) ;
#22 = PRESENTATION_STYLE_ASSIGNMENT (( #62 ) ) ;
#23 = PRODUCT_DEFINITION_FORMATION_WITH_SPECIFIED_SOURCE ( 'ANY', '', #202, .NOT_KNOWN. ) ;
#24 =( LENGTH_UNIT ( ) NAMED_UNIT ( * ) SI_UNIT ( $, .METRE. ) );
#25 = CARTESIAN_POINT ( 'NONE',  ( 0.1100000000000001948, 1.347111479062090784E-17, 2.500000000000000000 ) ) ;
#26 = CONICAL_SURFACE ( 'NONE', #200, 0.1100000000000001948, 0.7853981633974517207 ) ;
#27 = VERTEX_POINT ( 'NONE', #133 ) ;
#28 = DIRECTION ( 'NONE',  ( -1.000000000000000000, 0.0000000000000000000, 0.0000000000000000000 ) ) ;
#29 = ADVANCED_BREP_SHAPE_REPRESENTATION ( 'Micro_RDA-70', ( #72, #88 ), #183 ) ;
#30 = DIRECTION ( 'NONE',  ( -1.000000000000000000, 0.0000000000000000000, 1.224646799147353207E-16 ) ) ;
#31 = COLOUR_RGB ( '',0.7921568627450980005, 0.8196078431372548767, 0.9333333333333333481 ) ;
#32 = CARTESIAN_POINT ( 'NONE',  ( 9.184850993605150903E-17, 0.0000000000000000000, 0.7500000000000001110 ) ) ;
#33 = ORIENTED_EDGE ( 'NONE', *, *, #95, .F. ) ;
#34 = ADVANCED_FACE ( 'NONE', ( #224 ), #298, .T. ) ;
#35 = DIRECTION ( 'NONE',  ( 1.000000000000000000, 0.0000000000000000000, -0.0000000000000000000 ) ) ;
#36 = EDGE_LOOP ( 'NONE', ( #250, #196, #14, #268 ) ) ;
#37 = CIRCLE ( 'NONE', #129, 0.1250000000000000000 ) ;
#38 = DIRECTION ( 'NONE',  ( -1.000000000000000000, 0.0000000000000000000, 1.224646799147353207E-16 ) ) ;
#39 = EDGE_CURVE ( 'NONE', #27, #136, #5, .T. ) ;
#40 = ORIENTED_EDGE ( 'NONE', *, *, #57, .F. ) ;
#41 = DIRECTION ( 'NONE',  ( -0.0000000000000000000, -0.0000000000000000000, -1.000000000000000000 ) ) ;
#42 = DIRECTION ( 'NONE',  ( -1.000000000000000000, 0.0000000000000000000, 0.0000000000000000000 ) ) ;
#43 = EDGE_CURVE ( 'NONE', #289, #55, #111, .T. ) ;
#44 = DIRECTION ( 'NONE',  ( 0.0000000000000000000, 0.0000000000000000000, 1.000000000000000000 ) ) ;
#45 = EDGE_CURVE ( 'NONE', #281, #79, #61, .T. ) ;
#46 = STYLED_ITEM ( 'NONE', ( #22 ), #29 ) ;
#47 = AXIS2_PLACEMENT_3D ( 'NONE', #152, #282, #193 ) ;
#48 =( NAMED_UNIT ( * ) SI_UNIT ( $, .STERADIAN. ) SOLID_ANGLE_UNIT ( ) );
#49 = CARTESIAN_POINT ( 'NONE',  ( -0.1100000000000001948, 0.0000000000000000000, 2.500000000000000000 ) ) ;
#50 = EDGE_LOOP ( 'NONE', ( #173, #130, #59, #203 ) ) ;
#51 = DIRECTION ( 'NONE',  ( -1.224646799147353207E-16, -0.0000000000000000000, -1.000000000000000000 ) ) ;
#52 = CARTESIAN_POINT ( 'NONE',  ( -0.1248749999999999444, 1.530043094684724646E-17, 0.7500000000000001110 ) ) ;
#53 = CARTESIAN_POINT ( 'NONE',  ( 0.1250000000000000000, 1.530808498934191509E-17, 2.500000000000000000 ) ) ;
#54 = AXIS2_PLACEMENT_3D ( 'NONE', #4, #100, #219 ) ;
#55 = VERTEX_POINT ( 'NONE', #162 ) ;
#56 = PLANE ( 'NONE',  #86 ) ;
#57 = EDGE_CURVE ( 'NONE', #222, #243, #178, .T. ) ;
#58 = FILL_AREA_STYLE_COLOUR ( '', #287 ) ;
#59 = ORIENTED_EDGE ( 'NONE', *, *, #146, .T. ) ;
#60 = DIRECTION ( 'NONE',  ( -1.000000000000000000, 0.0000000000000000000, 0.0000000000000000000 ) ) ;
#61 = LINE ( 'NONE', #228, #216 ) ;
#62 = SURFACE_STYLE_USAGE ( .BOTH. , #246 ) ;
#63 = DIRECTION ( 'NONE',  ( -1.224646799147353207E-16, -0.0000000000000000000, -1.000000000000000000 ) ) ;
#64 = CARTESIAN_POINT ( 'NONE',  ( 0.0000000000000000000, 0.0000000000000000000, 0.0000000000000000000 ) ) ;
#65 =( CONVERSION_BASED_UNIT ( 'INCH', #177 ) LENGTH_UNIT ( ) NAMED_UNIT ( #114 ) );
#66 = SHAPE_DEFINITION_REPRESENTATION ( #236, #29 ) ;
#67 = ADVANCED_FACE ( 'NONE', ( #85 ), #26, .T. ) ;
#68 = CARTESIAN_POINT ( 'NONE',  ( -0.1249999999999999167, 0.0000000000000000000, 0.7507089102274521197 ) ) ;
#69 = VECTOR ( 'NONE', #63, 39.37007874015748143 ) ;
#70 =( CONVERSION_BASED_UNIT ( 'INCH', #165 ) LENGTH_UNIT ( ) NAMED_UNIT ( #210 ) );
#71 = DIRECTION ( 'NONE',  ( -1.000000000000000000, 0.0000000000000000000, 0.0000000000000000000 ) ) ;
#72 = MANIFOLD_SOLID_BREP ( 'Cut-Revolve1', #263 ) ;
#73 = PRODUCT_DEFINITION ( 'UNKNOWN', '', #23, #205 ) ;
#74 = CYLINDRICAL_SURFACE ( 'NONE', #170, 0.1250000000000000000 ) ;
#75 = CARTESIAN_POINT ( 'NONE',  ( 0.1248749999999999999, 1.529277690435257475E-17, 1.895600338963814870E-33 ) ) ;
#76 = AXIS2_PLACEMENT_3D ( 'NONE', #3, #112, #11 ) ;
#77 = FACE_OUTER_BOUND ( 'NONE', #218, .T. ) ;
#78 = ORIENTED_EDGE ( 'NONE', *, *, #43, .T. ) ;
#79 = VERTEX_POINT ( 'NONE', #68 ) ;
#80 = ORIENTED_EDGE ( 'NONE', *, *, #198, .T. ) ;
#81 = DIRECTION ( 'NONE',  ( -0.0000000000000000000, -0.0000000000000000000, -1.000000000000000000 ) ) ;
#82 = ADVANCED_FACE ( 'NONE', ( #259 ), #140, .T. ) ;
#83 = UNCERTAINTY_MEASURE_WITH_UNIT (LENGTH_MEASURE( 1.000000000000000082E-05 ), #70, 'distance_accuracy_value', 'NONE');
#84 = ORIENTED_EDGE ( 'NONE', *, *, #255, .F. ) ;
#85 = FACE_OUTER_BOUND ( 'NONE', #240, .T. ) ;
#86 = AXIS2_PLACEMENT_3D ( 'NONE', #18, #245, #35 ) ;
#87 = VECTOR ( 'NONE', #220, 39.37007874015748143 ) ;
#88 = AXIS2_PLACEMENT_3D ( 'NONE', #187, #44, #122 ) ;
#89 =( LENGTH_UNIT ( ) NAMED_UNIT ( * ) SI_UNIT ( $, .METRE. ) );
#90 = AXIS2_PLACEMENT_3D ( 'NONE', #123, #51, #217 ) ;
#91 = EDGE_CURVE ( 'NONE', #222, #270, #230, .T. ) ;
#92 = FACE_OUTER_BOUND ( 'NONE', #174, .T. ) ;
#93 = CARTESIAN_POINT ( 'NONE',  ( 0.0000000000000000000, 0.0000000000000000000, 2.500000000000000000 ) ) ;
#94 = CARTESIAN_POINT ( 'NONE',  ( 0.0000000000000000000, 0.0000000000000000000, 2.485000000000000320 ) ) ;
#95 = EDGE_CURVE ( 'NONE', #55, #79, #209, .T. ) ;
#96 = ORIENTED_EDGE ( 'NONE', *, *, #124, .T. ) ;
#97 = DIRECTION ( 'NONE',  ( 1.000000000000000000, 0.0000000000000000000, 0.0000000000000000000 ) ) ;
#98 = DIRECTION ( 'NONE',  ( 1.000000000000000000, 0.0000000000000000000, 0.0000000000000000000 ) ) ;
#99 = ADVANCED_FACE ( 'NONE', ( #92 ), #135, .T. ) ;
#100 = DIRECTION ( 'NONE',  ( 0.0000000000000000000, 0.0000000000000000000, 1.000000000000000000 ) ) ;
#101 = MECHANICAL_DESIGN_GEOMETRIC_PRESENTATION_REPRESENTATION (  '', ( #46 ), #104 ) ;
#102 = AXIS2_PLACEMENT_3D ( 'NONE', #172, #169, #30 ) ;
#103 = ORIENTED_EDGE ( 'NONE', *, *, #109, .F. ) ;
#104 =( GEOMETRIC_REPRESENTATION_CONTEXT ( 3 ) GLOBAL_UNCERTAINTY_ASSIGNED_CONTEXT ( ( #83 ) ) GLOBAL_UNIT_ASSIGNED_CONTEXT ( ( #70, #232, #143 ) ) REPRESENTATION_CONTEXT ( 'NONE', 'WORKASPACE' ) );
#105 = CARTESIAN_POINT ( 'NONE',  ( 0.0000000000000000000, 0.0000000000000000000, 2.485000000000000320 ) ) ;
#106 = ORIENTED_EDGE ( 'NONE', *, *, #45, .F. ) ;
#107 = ORIENTED_EDGE ( 'NONE', *, *, #255, .T. ) ;
#108 = FACE_OUTER_BOUND ( 'NONE', #288, .T. ) ;
#109 = EDGE_CURVE ( 'NONE', #27, #289, #190, .T. ) ;
#110 = PRESENTATION_LAYER_ASSIGNMENT (  '', '', ( #241 ) ) ;
#111 = LINE ( 'NONE', #53, #120 ) ;
#112 = DIRECTION ( 'NONE',  ( -1.224646799147353207E-16, -0.0000000000000000000, -1.000000000000000000 ) ) ;
#113 = CARTESIAN_POINT ( 'NONE',  ( 0.0000000000000000000, 0.0000000000000000000, 2.500000000000000000 ) ) ;
#114 = DIMENSIONAL_EXPONENTS ( 1.000000000000000000, 0.0000000000000000000, 0.0000000000000000000, 0.0000000000000000000, 0.0000000000000000000, 0.0000000000000000000, 0.0000000000000000000 ) ;
#115 = DIRECTION ( 'NONE',  ( 0.0000000000000000000, 0.0000000000000000000, 1.000000000000000000 ) ) ;
#116 = SURFACE_SIDE_STYLE ('',( #19 ) ) ;
#117 = DIRECTION ( 'NONE',  ( 0.1736481776669312749, 0.0000000000000000000, 0.9848077530122077983 ) ) ;
#118 = VECTOR ( 'NONE', #147, 39.37007874015748143 ) ;
#119 = DIRECTION ( 'NONE',  ( -1.224646799147353207E-16, -0.0000000000000000000, -1.000000000000000000 ) ) ;
#120 = VECTOR ( 'NONE', #292, 39.37007874015748143 ) ;
#121 = VECTOR ( 'NONE', #278, 39.37007874015748854 ) ;
#122 = DIRECTION ( 'NONE',  ( 1.000000000000000000, 0.0000000000000000000, 0.0000000000000000000 ) ) ;
#123 = CARTESIAN_POINT ( 'NONE',  ( 9.193532640014470902E-17, 0.0000000000000000000, 0.7507089102274521197 ) ) ;
#124 = EDGE_CURVE ( 'NONE', #136, #281, #280, .T. ) ;
#125 = ORIENTED_EDGE ( 'NONE', *, *, #45, .T. ) ;
#126 =( LENGTH_UNIT ( ) NAMED_UNIT ( * ) SI_UNIT ( $, .METRE. ) );
#127 = CARTESIAN_POINT ( 'NONE',  ( 9.184850993605150903E-17, 0.0000000000000000000, 0.7500000000000001110 ) ) ;
#128 = CARTESIAN_POINT ( 'NONE',  ( -0.1248749999999999999, 0.0000000000000000000, 3.058555380870514950E-17 ) ) ;
#129 = AXIS2_PLACEMENT_3D ( 'NONE', #94, #262, #97 ) ;
#130 = ORIENTED_EDGE ( 'NONE', *, *, #157, .T. ) ;
#131 = CONICAL_SURFACE ( 'NONE', #144, 0.1248750000000000276, 0.1745329251994337805 ) ;
#132 = ORIENTED_EDGE ( 'NONE', *, *, #124, .F. ) ;
#133 = CARTESIAN_POINT ( 'NONE',  ( 0.1100000000000001948, 1.438959988998141146E-17, 2.500000000000000000 ) ) ;
#134 = CARTESIAN_POINT ( 'NONE',  ( 0.0000000000000000000, 0.0000000000000000000, 2.500000000000000000 ) ) ;
#135 = CONICAL_SURFACE ( 'NONE', #284, 0.1100000000000001948, 0.7853981633974517207 ) ;
#136 = VERTEX_POINT ( 'NONE', #238 ) ;
#137 = CARTESIAN_POINT ( 'NONE',  ( 0.1248750000000001109, 0.0000000000000000000, 0.7500000000000001110 ) ) ;
#138 = CARTESIAN_POINT ( 'NONE',  ( -0.1248750000000000276, 0.0000000000000000000, 1.529277690435257783E-17 ) ) ;
#139 = CARTESIAN_POINT ( 'NONE',  ( 1.872825028598994811E-33, 0.0000000000000000000, 1.529277690435257475E-17 ) ) ;
#140 = PLANE ( 'NONE',  #54 ) ;
#141 = CYLINDRICAL_SURFACE ( 'NONE', #10, 0.1248750000000000276 ) ;
#142 = APPLICATION_PROTOCOL_DEFINITION ( 'draft international standard', 'automotive_design', 1998, #148 ) ;
#143 =( NAMED_UNIT ( * ) SI_UNIT ( $, .STERADIAN. ) SOLID_ANGLE_UNIT ( ) );
#144 = AXIS2_PLACEMENT_3D ( 'NONE', #252, #225, #201 ) ;
#145 = DIRECTION ( 'NONE',  ( -1.224646799147353207E-16, -0.0000000000000000000, -1.000000000000000000 ) ) ;
#146 = EDGE_CURVE ( 'NONE', #79, #55, #279, .T. ) ;
#147 = DIRECTION ( 'NONE',  ( -0.7071067811865499042, 0.0000000000000000000, -0.7071067811865451302 ) ) ;
#148 = APPLICATION_CONTEXT ( 'automotive_design' ) ;
#149 = EDGE_LOOP ( 'NONE', ( #199, #78, #156, #106 ) ) ;
#150 = CARTESIAN_POINT ( 'NONE',  ( 0.0000000000000000000, 0.0000000000000000000, 2.500000000000000000 ) ) ;
#151 = ORIENTED_EDGE ( 'NONE', *, *, #277, .T. ) ;
#152 = CARTESIAN_POINT ( 'NONE',  ( 9.184850993605150903E-17, 0.0000000000000000000, 0.7500000000000001110 ) ) ;
#153 = DIRECTION ( 'NONE',  ( -1.000000000000000000, 0.0000000000000000000, 0.0000000000000000000 ) ) ;
#154 = ORIENTED_EDGE ( 'NONE', *, *, #253, .F. ) ;
#155 = EDGE_LOOP ( 'NONE', ( #267, #247 ) ) ;
#156 = ORIENTED_EDGE ( 'NONE', *, *, #146, .F. ) ;
#157 = EDGE_CURVE ( 'NONE', #222, #79, #6, .T. ) ;
#158 = SURFACE_STYLE_FILL_AREA ( #295 ) ;
#159 = ORIENTED_EDGE ( 'NONE', *, *, #43, .F. ) ;
#160 = LINE ( 'NONE', #137, #12 ) ;
#161 = CARTESIAN_POINT ( 'NONE',  ( 0.1248750000000000276, 1.529277690435257783E-17, -1.529277690435257783E-17 ) ) ;
#162 = CARTESIAN_POINT ( 'NONE',  ( 0.1250000000000000833, 1.530808498934192433E-17, 0.7507089102274521197 ) ) ;
#163 = FILL_AREA_STYLE ('',( #276 ) ) ;
#164 = DIRECTION ( 'NONE',  ( -1.224646799147353207E-16, -0.0000000000000000000, -1.000000000000000000 ) ) ;
#165 = LENGTH_MEASURE_WITH_UNIT ( LENGTH_MEASURE( 0.02539999999999999897 ), #24 );
#166 = AXIS2_PLACEMENT_3D ( 'NONE', #32, #16, #293 ) ;
#167 = LENGTH_MEASURE_WITH_UNIT ( LENGTH_MEASURE( 0.02539999999999999897 ), #126 );
#168 = DIRECTION ( 'NONE',  ( -1.224646799147353207E-16, -0.0000000000000000000, -1.000000000000000000 ) ) ;
#169 = DIRECTION ( 'NONE',  ( -1.224646799147353207E-16, -0.0000000000000000000, -1.000000000000000000 ) ) ;
#170 = AXIS2_PLACEMENT_3D ( 'NONE', #150, #237, #28 ) ;
#171 = ORIENTED_EDGE ( 'NONE', *, *, #191, .F. ) ;
#172 = CARTESIAN_POINT ( 'NONE',  ( 0.0000000000000000000, 0.0000000000000000000, 0.0000000000000000000 ) ) ;
#173 = ORIENTED_EDGE ( 'NONE', *, *, #91, .F. ) ;
#174 = EDGE_LOOP ( 'NONE', ( #7, #269, #171, #132 ) ) ;
#175 = AXIS2_PLACEMENT_3D ( 'NONE', #113, #206, #272 ) ;
#176 = VERTEX_POINT ( 'NONE', #75 ) ;
#177 = LENGTH_MEASURE_WITH_UNIT ( LENGTH_MEASURE( 0.02539999999999999897 ), #89 );
#178 = LINE ( 'NONE', #138, #69 ) ;
#179 = ORIENTED_EDGE ( 'NONE', *, *, #91, .T. ) ;
#180 = DIRECTION ( 'NONE',  ( 1.000000000000000000, 0.0000000000000000000, 0.0000000000000000000 ) ) ;
#181 = CIRCLE ( 'NONE', #256, 0.1248749999999999999 ) ;
#182 = CARTESIAN_POINT ( 'NONE',  ( 0.0000000000000000000, 0.0000000000000000000, 2.500000000000000000 ) ) ;
#183 =( GEOMETRIC_REPRESENTATION_CONTEXT ( 3 ) GLOBAL_UNCERTAINTY_ASSIGNED_CONTEXT ( ( #296 ) ) GLOBAL_UNIT_ASSIGNED_CONTEXT ( ( #65, #254, #275 ) ) REPRESENTATION_CONTEXT ( 'NONE', 'WORKASPACE' ) );
#184 = DIMENSIONAL_EXPONENTS ( 1.000000000000000000, 0.0000000000000000000, 0.0000000000000000000, 0.0000000000000000000, 0.0000000000000000000, 0.0000000000000000000, 0.0000000000000000000 ) ;
#185 = DIRECTION ( 'NONE',  ( 0.0000000000000000000, 0.0000000000000000000, -1.000000000000000000 ) ) ;
#186 = FACE_OUTER_BOUND ( 'NONE', #36, .T. ) ;
#187 = CARTESIAN_POINT ( 'NONE',  ( 0.0000000000000000000, 0.0000000000000000000, 0.0000000000000000000 ) ) ;
#188 =( NAMED_UNIT ( * ) PLANE_ANGLE_UNIT ( ) SI_UNIT ( $, .RADIAN. ) );
#189 =( GEOMETRIC_REPRESENTATION_CONTEXT ( 3 ) GLOBAL_UNCERTAINTY_ASSIGNED_CONTEXT ( ( #227 ) ) GLOBAL_UNIT_ASSIGNED_CONTEXT ( ( #192, #188, #48 ) ) REPRESENTATION_CONTEXT ( 'NONE', 'WORKASPACE' ) );
#190 = LINE ( 'NONE', #25, #87 ) ;
#191 = EDGE_CURVE ( 'NONE', #281, #289, #37, .T. ) ;
#192 =( CONVERSION_BASED_UNIT ( 'INCH', #167 ) LENGTH_UNIT ( ) NAMED_UNIT ( #184 ) );
#193 = DIRECTION ( 'NONE',  ( -1.000000000000000000, 0.0000000000000000000, 0.0000000000000000000 ) ) ;
#194 = AXIS2_PLACEMENT_3D ( 'NONE', #105, #185, #98 ) ;
#195 = LINE ( 'NONE', #161, #299 ) ;
#196 = ORIENTED_EDGE ( 'NONE', *, *, #198, .F. ) ;
#197 = EDGE_LOOP ( 'NONE', ( #151, #13 ) ) ;
#198 = EDGE_CURVE ( 'NONE', #270, #222, #234, .T. ) ;
#199 = ORIENTED_EDGE ( 'NONE', *, *, #191, .T. ) ;
#200 = AXIS2_PLACEMENT_3D ( 'NONE', #182, #251, #42 ) ;
#201 = DIRECTION ( 'NONE',  ( 1.000000000000000000, 0.0000000000000000000, 0.0000000000000000000 ) ) ;
#202 = PRODUCT ( 'Micro_RDA-70', 'Micro_RDA-70', '', ( #233 ) ) ;
#203 = ORIENTED_EDGE ( 'NONE', *, *, #294, .F. ) ;
#204 = DIRECTION ( 'NONE',  ( -1.224646799147353207E-16, -0.0000000000000000000, -1.000000000000000000 ) ) ;
#205 = PRODUCT_DEFINITION_CONTEXT ( 'detailed design', #148, 'design' ) ;
#206 = DIRECTION ( 'NONE',  ( 0.0000000000000000000, 0.0000000000000000000, 1.000000000000000000 ) ) ;
#207 = SURFACE_STYLE_USAGE ( .BOTH. , #116 ) ;
#208 = MECHANICAL_DESIGN_GEOMETRIC_PRESENTATION_REPRESENTATION (  '', ( #241 ), #189 ) ;
#209 = CIRCLE ( 'NONE', #242, 0.1250000000000000000 ) ;
#210 = DIMENSIONAL_EXPONENTS ( 1.000000000000000000, 0.0000000000000000000, 0.0000000000000000000, 0.0000000000000000000, 0.0000000000000000000, 0.0000000000000000000, 0.0000000000000000000 ) ;
#211 = CARTESIAN_POINT ( 'NONE',  ( 0.1250000000000000000, 1.530808498934191509E-17, 2.485000000000000320 ) ) ;
#212 = ADVANCED_FACE ( 'NONE', ( #285 ), #74, .T. ) ;
#213 = PRODUCT_RELATED_PRODUCT_CATEGORY ( 'part', '', ( #202 ) ) ;
#214 = CIRCLE ( 'NONE', #76, 0.1248749999999999999 ) ;
#215 = APPLICATION_CONTEXT ( 'automotive_design' ) ;
#216 = VECTOR ( 'NONE', #81, 39.37007874015748143 ) ;
#217 = DIRECTION ( 'NONE',  ( 1.000000000000000000, 0.0000000000000000000, 0.0000000000000000000 ) ) ;
#218 = EDGE_LOOP ( 'NONE', ( #84, #80, #266, #260 ) ) ;
#219 = DIRECTION ( 'NONE',  ( 1.000000000000000000, 0.0000000000000000000, -0.0000000000000000000 ) ) ;
#220 = DIRECTION ( 'NONE',  ( 0.7071067811865499042, 8.659560562354961208E-17, -0.7071067811865451302 ) ) ;
#221 = AXIS2_PLACEMENT_3D ( 'NONE', #134, #41, #60 ) ;
#222 = VERTEX_POINT ( 'NONE', #52 ) ;
#223 = ORIENTED_EDGE ( 'NONE', *, *, #277, .F. ) ;
#224 = FACE_OUTER_BOUND ( 'NONE', #50, .T. ) ;
#225 = DIRECTION ( 'NONE',  ( 1.224646799147353207E-16, 0.0000000000000000000, 1.000000000000000000 ) ) ;
#226 = FACE_OUTER_BOUND ( 'NONE', #197, .T. ) ;
#227 = UNCERTAINTY_MEASURE_WITH_UNIT (LENGTH_MEASURE( 1.000000000000000082E-05 ), #192, 'distance_accuracy_value', 'NONE');
#228 = CARTESIAN_POINT ( 'NONE',  ( -0.1250000000000000000, 0.0000000000000000000, 2.500000000000000000 ) ) ;
#229 = APPLICATION_PROTOCOL_DEFINITION ( 'draft international standard', 'automotive_design', 1998, #215 ) ;
#230 = CIRCLE ( 'NONE', #2, 0.1248750000000000276 ) ;
#231 = ADVANCED_FACE ( 'NONE', ( #77 ), #283, .T. ) ;
#232 =( NAMED_UNIT ( * ) PLANE_ANGLE_UNIT ( ) SI_UNIT ( $, .RADIAN. ) );
#233 = PRODUCT_CONTEXT ( 'NONE', #215, 'mechanical' ) ;
#234 = CIRCLE ( 'NONE', #47, 0.1248750000000000276 ) ;
#235 = PRESENTATION_LAYER_ASSIGNMENT (  '', '', ( #46 ) ) ;
#236 = PRODUCT_DEFINITION_SHAPE ( 'NONE', 'NONE',  #73 ) ;
#237 = DIRECTION ( 'NONE',  ( -0.0000000000000000000, -0.0000000000000000000, -1.000000000000000000 ) ) ;
#238 = CARTESIAN_POINT ( 'NONE',  ( -0.1100000000000001948, 0.0000000000000000000, 2.500000000000000000 ) ) ;
#239 = ORIENTED_EDGE ( 'NONE', *, *, #253, .T. ) ;
#240 = EDGE_LOOP ( 'NONE', ( #103, #264, #96, #154 ) ) ;
#241 = STYLED_ITEM ( 'NONE', ( #297 ), #72 ) ;
#242 = AXIS2_PLACEMENT_3D ( 'NONE', #265, #168, #8 ) ;
#243 = VERTEX_POINT ( 'NONE', #128 ) ;
#244 = EDGE_CURVE ( 'NONE', #176, #243, #214, .T. ) ;
#245 = DIRECTION ( 'NONE',  ( 0.0000000000000000000, 0.0000000000000000000, 1.000000000000000000 ) ) ;
#246 = SURFACE_SIDE_STYLE ('',( #158 ) ) ;
#247 = ORIENTED_EDGE ( 'NONE', *, *, #39, .T. ) ;
#248 = DIRECTION ( 'NONE',  ( -1.000000000000000000, 0.0000000000000000000, 1.224646799147353454E-16 ) ) ;
#249 = CIRCLE ( 'NONE', #273, 0.1100000000000001948 ) ;
#250 = ORIENTED_EDGE ( 'NONE', *, *, #157, .F. ) ;
#251 = DIRECTION ( 'NONE',  ( 0.0000000000000000000, 0.0000000000000000000, -1.000000000000000000 ) ) ;
#252 = CARTESIAN_POINT ( 'NONE',  ( 9.184850993605150903E-17, 0.0000000000000000000, 0.7500000000000001110 ) ) ;
#253 = EDGE_CURVE ( 'NONE', #289, #281, #274, .T. ) ;
#254 =( NAMED_UNIT ( * ) PLANE_ANGLE_UNIT ( ) SI_UNIT ( $, .RADIAN. ) );
#255 = EDGE_CURVE ( 'NONE', #270, #176, #195, .T. ) ;
#256 = AXIS2_PLACEMENT_3D ( 'NONE', #139, #119, #248 ) ;
#257 = DIRECTION ( 'NONE',  ( 0.0000000000000000000, 0.0000000000000000000, -1.000000000000000000 ) ) ;
#258 = ADVANCED_FACE ( 'NONE', ( #108 ), #141, .T. ) ;
#259 = FACE_OUTER_BOUND ( 'NONE', #155, .T. ) ;
#260 = ORIENTED_EDGE ( 'NONE', *, *, #244, .F. ) ;
#261 = ADVANCED_FACE ( 'NONE', ( #271 ), #20, .T. ) ;
#262 = DIRECTION ( 'NONE',  ( 0.0000000000000000000, 0.0000000000000000000, -1.000000000000000000 ) ) ;
#263 = CLOSED_SHELL ( 'NONE', ( #258, #34, #99, #212, #261, #82, #67, #286, #231, #1 ) ) ;
#264 = ORIENTED_EDGE ( 'NONE', *, *, #291, .F. ) ;
#265 = CARTESIAN_POINT ( 'NONE',  ( 9.193532640014470902E-17, 0.0000000000000000000, 0.7507089102274521197 ) ) ;
#266 = ORIENTED_EDGE ( 'NONE', *, *, #57, .T. ) ;
#267 = ORIENTED_EDGE ( 'NONE', *, *, #291, .T. ) ;
#268 = ORIENTED_EDGE ( 'NONE', *, *, #95, .T. ) ;
#269 = ORIENTED_EDGE ( 'NONE', *, *, #109, .T. ) ;
#270 = VERTEX_POINT ( 'NONE', #15 ) ;
#271 = FACE_OUTER_BOUND ( 'NONE', #290, .T. ) ;
#272 = DIRECTION ( 'NONE',  ( 1.000000000000000000, 0.0000000000000000000, 0.0000000000000000000 ) ) ;
#273 = AXIS2_PLACEMENT_3D ( 'NONE', #17, #115, #180 ) ;
#274 = CIRCLE ( 'NONE', #194, 0.1250000000000000000 ) ;
#275 =( NAMED_UNIT ( * ) SI_UNIT ( $, .STERADIAN. ) SOLID_ANGLE_UNIT ( ) );
#276 = FILL_AREA_STYLE_COLOUR ( '', #31 ) ;
#277 = EDGE_CURVE ( 'NONE', #243, #176, #181, .T. ) ;
#278 = DIRECTION ( 'NONE',  ( -0.1736481776669310528, 2.126576849575781776E-17, 0.9848077530122080203 ) ) ;
#279 = CIRCLE ( 'NONE', #90, 0.1250000000000000000 ) ;
#280 = LINE ( 'NONE', #49, #118 ) ;
#281 = VERTEX_POINT ( 'NONE', #21 ) ;
#282 = DIRECTION ( 'NONE',  ( -1.224646799147353207E-16, -0.0000000000000000000, -1.000000000000000000 ) ) ;
#283 = CYLINDRICAL_SURFACE ( 'NONE', #102, 0.1248750000000000276 ) ;
#284 = AXIS2_PLACEMENT_3D ( 'NONE', #93, #257, #153 ) ;
#285 = FACE_OUTER_BOUND ( 'NONE', #149, .T. ) ;
#286 = ADVANCED_FACE ( 'NONE', ( #186 ), #131, .T. ) ;
#287 = COLOUR_RGB ( '',0.7921568627450980005, 0.8196078431372548767, 0.9333333333333333481 ) ;
#288 = EDGE_LOOP ( 'NONE', ( #179, #107, #223, #40 ) ) ;
#289 = VERTEX_POINT ( 'NONE', #211 ) ;
#290 = EDGE_LOOP ( 'NONE', ( #159, #239, #125, #33 ) ) ;
#291 = EDGE_CURVE ( 'NONE', #136, #27, #249, .T. ) ;
#292 = DIRECTION ( 'NONE',  ( -0.0000000000000000000, -0.0000000000000000000, -1.000000000000000000 ) ) ;
#293 = DIRECTION ( 'NONE',  ( 1.000000000000000000, 0.0000000000000000000, 0.0000000000000000000 ) ) ;
#294 = EDGE_CURVE ( 'NONE', #270, #55, #160, .T. ) ;
#295 = FILL_AREA_STYLE ('',( #58 ) ) ;
#296 = UNCERTAINTY_MEASURE_WITH_UNIT (LENGTH_MEASURE( 1.000000000000000082E-05 ), #65, 'distance_accuracy_value', 'NONE');
#297 = PRESENTATION_STYLE_ASSIGNMENT (( #207 ) ) ;
#298 = CONICAL_SURFACE ( 'NONE', #166, 0.1248750000000000276, 0.1745329251994337805 ) ;
#299 = VECTOR ( 'NONE', #164, 39.37007874015748143 ) ;
ENDSEC;
END-ISO-10303-21;
