ISO-10303-21;
HEADER;
FILE_DESCRIPTION (( 'STEP AP214' ),
    '1' );
FILE_NAME ('59541.STEP',
    '2023-07-24T15:09:56',
    ( '' ),
    ( '' ),
    'SwSTEP 2.0',
    'SolidWorks 2023',
    '' );
FILE_SCHEMA (( 'AUTOMOTIVE_DESIGN' ));
ENDSEC;

DATA;
#1 = FACE_OUTER_BOUND ( 'NONE', #296, .T. ) ;
#2 = SURFACE_STYLE_FILL_AREA ( #304 ) ;
#3 = DIRECTION ( 'NONE',  ( -0.000000000000000000, -1.000000000000000000, -0.000000000000000000 ) ) ;
#4 = EDGE_LOOP ( 'NONE', ( #173, #266, #318, #235 ) ) ;
#5 = CIRCLE ( 'NONE', #106, 5.000000000000000000 ) ;
#6 = DIRECTION ( 'NONE',  ( -4.697880814296055710E-17, 1.000000000000000000, 0.000000000000000000 ) ) ;
#7 = VERTEX_POINT ( 'NONE', #21 ) ;
#8 = DIRECTION ( 'NONE',  ( -1.224646799147353454E-16, 0.000000000000000000, -1.000000000000000000 ) ) ;
#9 = EDGE_CURVE ( 'NONE', #94, #17, #241, .T. ) ;
#10 = ADVANCED_BREP_SHAPE_REPRESENTATION ( '59541', ( #299, #300, #134 ), #236 ) ;
#11 = DIRECTION ( 'NONE',  ( -4.697880814296055710E-17, 1.000000000000000000, -0.000000000000000000 ) ) ;
#12 = DIRECTION ( 'NONE',  ( 0.000000000000000000, 0.000000000000000000, 1.000000000000000000 ) ) ;
#13 = DIRECTION ( 'NONE',  ( -0.000000000000000000, -1.000000000000000000, -0.000000000000000000 ) ) ;
#14 = PRESENTATION_LAYER_ASSIGNMENT (  '', '', ( #190 ) ) ;
#15 =( NAMED_UNIT ( * ) PLANE_ANGLE_UNIT ( ) SI_UNIT ( $, .RADIAN. ) );
#16 = EDGE_CURVE ( 'NONE', #146, #88, #268, .T. ) ;
#17 = VERTEX_POINT ( 'NONE', #24 ) ;
#18 = PRESENTATION_STYLE_ASSIGNMENT (( #178 ) ) ;
#19 = COLOUR_RGB ( '',1.000000000000000000, 0.000000000000000000, 0.000000000000000000 ) ;
#20 = SURFACE_SIDE_STYLE ('',( #272 ) ) ;
#21 = CARTESIAN_POINT ( 'NONE',  ( 0.000000000000000000, 0.000000000000000000, -4.500000000000000888 ) ) ;
#22 = ADVANCED_FACE ( 'NONE', ( #279 ), #87, .T. ) ;
#23 = FILL_AREA_STYLE_COLOUR ( '', #359 ) ;
#24 = CARTESIAN_POINT ( 'NONE',  ( 5.000000000000000000, 20.00000000000000355, 6.123233995736762338E-16 ) ) ;
#25 = CIRCLE ( 'NONE', #242, 4.500000000000000888 ) ;
#26 = DIRECTION ( 'NONE',  ( -0.000000000000000000, -1.000000000000000000, -0.000000000000000000 ) ) ;
#27 = PRESENTATION_STYLE_ASSIGNMENT (( #344 ) ) ;
#28 = COLOUR_RGB ( '',1.000000000000000000, 0.000000000000000000, 0.000000000000000000 ) ;
#29 = AXIS2_PLACEMENT_3D ( 'NONE', #183, #135, #271 ) ;
#30 = CARTESIAN_POINT ( 'NONE',  ( 0.000000000000000000, 0.5000000000000000000, 0.000000000000000000 ) ) ;
#31 = CARTESIAN_POINT ( 'NONE',  ( 3.184081677783117402E-15, 63.00000000000000000, 0.000000000000000000 ) ) ;
#32 = PRESENTATION_STYLE_ASSIGNMENT (( #332 ) ) ;
#33 = DIRECTION ( 'NONE',  ( 0.000000000000000000, 0.000000000000000000, -1.000000000000000000 ) ) ;
#34 = ORIENTED_EDGE ( 'NONE', *, *, #368, .T. ) ;
#35 =( LENGTH_UNIT ( ) NAMED_UNIT ( * ) SI_UNIT ( .MILLI., .METRE. ) );
#36 = CIRCLE ( 'NONE', #153, 4.999999999999996447 ) ;
#37 =( GEOMETRIC_REPRESENTATION_CONTEXT ( 3 ) GLOBAL_UNCERTAINTY_ASSIGNED_CONTEXT ( ( #323 ) ) GLOBAL_UNIT_ASSIGNED_CONTEXT ( ( #191, #59, #367 ) ) REPRESENTATION_CONTEXT ( 'NONE', 'WORKASPACE' ) );
#38 = CARTESIAN_POINT ( 'NONE',  ( 0.000000000000000000, 0.5000000000000000000, 0.000000000000000000 ) ) ;
#39 = ORIENTED_EDGE ( 'NONE', *, *, #310, .T. ) ;
#40 = AXIS2_PLACEMENT_3D ( 'NONE', #142, #61, #245 ) ;
#41 = DIRECTION ( 'NONE',  ( -1.000000000000000000, -4.697880814296055710E-17, 0.000000000000000000 ) ) ;
#42 = LINE ( 'NONE', #147, #225 ) ;
#43 =( LENGTH_UNIT ( ) NAMED_UNIT ( * ) SI_UNIT ( .MILLI., .METRE. ) );
#44 = FILL_AREA_STYLE ('',( #151 ) ) ;
#45 = CIRCLE ( 'NONE', #113, 0.4999999999999995559 ) ;
#46 = ORIENTED_EDGE ( 'NONE', *, *, #47, .T. ) ;
#47 = EDGE_CURVE ( 'NONE', #338, #351, #5, .T. ) ;
#48 = CARTESIAN_POINT ( 'NONE',  ( 0.000000000000000000, 20.00000000000000000, -5.000000000000000000 ) ) ;
#49 = ORIENTED_EDGE ( 'NONE', *, *, #267, .T. ) ;
#50 = FACE_OUTER_BOUND ( 'NONE', #215, .T. ) ;
#51 = DIRECTION ( 'NONE',  ( -4.697880814296055710E-17, 1.000000000000000000, -0.000000000000000000 ) ) ;
#52 = CARTESIAN_POINT ( 'NONE',  ( 0.000000000000000000, 0.000000000000000000, 0.000000000000000000 ) ) ;
#53 = DIRECTION ( 'NONE',  ( 1.000000000000000000, 0.000000000000000000, 0.000000000000000000 ) ) ;
#54 = CARTESIAN_POINT ( 'NONE',  ( 4.999999999999999112, 63.00000000000000000, 6.123233995736761352E-16 ) ) ;
#55 = UNCERTAINTY_MEASURE_WITH_UNIT (LENGTH_MEASURE( 1.000000000000000082E-05 ), #226, 'distance_accuracy_value', 'NONE');
#56 = COLOUR_RGB ( '',1.000000000000000000, 0.000000000000000000, 0.000000000000000000 ) ;
#57 = TOROIDAL_SURFACE ( 'NONE', #144, 4.500000000000000888, 0.4999999999999997780 ) ;
#58 = MECHANICAL_DESIGN_GEOMETRIC_PRESENTATION_REPRESENTATION (  '', ( #305 ), #316 ) ;
#59 =( NAMED_UNIT ( * ) PLANE_ANGLE_UNIT ( ) SI_UNIT ( $, .RADIAN. ) );
#60 = FILL_AREA_STYLE ('',( #370 ) ) ;
#61 = DIRECTION ( 'NONE',  ( 4.697880814296055710E-17, -1.000000000000000000, 0.000000000000000000 ) ) ;
#62 = SURFACE_STYLE_USAGE ( .BOTH. , #277 ) ;
#63 = CARTESIAN_POINT ( 'NONE',  ( 0.000000000000000000, 0.000000000000000000, 0.000000000000000000 ) ) ;
#64 =( NAMED_UNIT ( * ) PLANE_ANGLE_UNIT ( ) SI_UNIT ( $, .RADIAN. ) );
#65 = FACE_OUTER_BOUND ( 'NONE', #349, .T. ) ;
#66 = ORIENTED_EDGE ( 'NONE', *, *, #218, .F. ) ;
#67 = CARTESIAN_POINT ( 'NONE',  ( 0.000000000000000000, 0.5000000000000000000, 0.000000000000000000 ) ) ;
#68 = AXIS2_PLACEMENT_3D ( 'NONE', #63, #101, #33 ) ;
#69 = SURFACE_STYLE_USAGE ( .BOTH. , #172 ) ;
#70 = DIRECTION ( 'NONE',  ( -1.000000000000000000, 0.000000000000000000, 0.000000000000000000 ) ) ;
#71 =( NAMED_UNIT ( * ) PLANE_ANGLE_UNIT ( ) SI_UNIT ( $, .RADIAN. ) );
#72 = SURFACE_STYLE_USAGE ( .BOTH. , #263 ) ;
#73 = DIRECTION ( 'NONE',  ( -0.000000000000000000, -1.000000000000000000, -0.000000000000000000 ) ) ;
#74 = FILL_AREA_STYLE_COLOUR ( '', #80 ) ;
#75 = STYLED_ITEM ( 'NONE', ( #32 ), #237 ) ;
#76 = PRESENTATION_LAYER_ASSIGNMENT (  '', '', ( #84 ) ) ;
#77 = CARTESIAN_POINT ( 'NONE',  ( 0.000000000000000000, 0.5000000000000000000, -4.500000000000000888 ) ) ;
#78 = ADVANCED_FACE ( 'NONE', ( #339 ), #57, .T. ) ;
#79 = AXIS2_PLACEMENT_3D ( 'NONE', #138, #240, #105 ) ;
#80 = COLOUR_RGB ( '',0.7921568627450980005, 0.8196078431372548767, 0.9333333333333333481 ) ;
#81 = ORIENTED_EDGE ( 'NONE', *, *, #302, .F. ) ;
#82 = ADVANCED_FACE ( 'NONE', ( #125 ), #352, .T. ) ;
#83 = PRESENTATION_LAYER_ASSIGNMENT (  '', '', ( #314 ) ) ;
#84 = STYLED_ITEM ( 'NONE', ( #18 ), #300 ) ;
#85 = PRODUCT_DEFINITION_SHAPE ( 'NONE', 'NONE',  #186 ) ;
#86 =( NAMED_UNIT ( * ) SI_UNIT ( $, .STERADIAN. ) SOLID_ANGLE_UNIT ( ) );
#87 = PLANE ( 'NONE',  #214 ) ;
#88 = VERTEX_POINT ( 'NONE', #354 ) ;
#89 = FACE_OUTER_BOUND ( 'NONE', #286, .T. ) ;
#90 = AXIS2_PLACEMENT_3D ( 'NONE', #38, #258, #203 ) ;
#91 = ORIENTED_EDGE ( 'NONE', *, *, #368, .F. ) ;
#92 = DIRECTION ( 'NONE',  ( -4.697880814296055710E-17, 1.000000000000000000, -0.000000000000000000 ) ) ;
#93 =( NAMED_UNIT ( * ) PLANE_ANGLE_UNIT ( ) SI_UNIT ( $, .RADIAN. ) );
#94 = VERTEX_POINT ( 'NONE', #292 ) ;
#95 = PRESENTATION_LAYER_ASSIGNMENT (  '', '', ( #247 ) ) ;
#96 = AXIS2_PLACEMENT_3D ( 'NONE', #204, #73, #182 ) ;
#97 = AXIS2_PLACEMENT_3D ( 'NONE', #77, #70, #12 ) ;
#98 = PLANE ( 'NONE',  #208 ) ;
#99 = CARTESIAN_POINT ( 'NONE',  ( 0.000000000000000000, 0.5000000000000000000, -5.000000000000000000 ) ) ;
#100 = DIRECTION ( 'NONE',  ( -0.000000000000000000, -1.000000000000000000, -0.000000000000000000 ) ) ;
#101 = DIRECTION ( 'NONE',  ( -0.000000000000000000, -1.000000000000000000, -0.000000000000000000 ) ) ;
#102 = ORIENTED_EDGE ( 'NONE', *, *, #16, .F. ) ;
#103 = SURFACE_SIDE_STYLE ('',( #362 ) ) ;
#104 = DIRECTION ( 'NONE',  ( 0.000000000000000000, 0.000000000000000000, 1.000000000000000000 ) ) ;
#105 = DIRECTION ( 'NONE',  ( 0.000000000000000000, 0.000000000000000000, -1.000000000000000000 ) ) ;
#106 = AXIS2_PLACEMENT_3D ( 'NONE', #365, #222, #313 ) ;
#107 = COLOUR_RGB ( '',0.7921568627450980005, 0.8196078431372548767, 0.9333333333333333481 ) ;
#108 = EDGE_CURVE ( 'NONE', #205, #184, #202, .T. ) ;
#109 = APPLICATION_PROTOCOL_DEFINITION ( 'draft international standard', 'automotive_design', 1998, #342 ) ;
#110 = PRESENTATION_STYLE_ASSIGNMENT (( #195 ) ) ;
#111 =( NAMED_UNIT ( * ) PLANE_ANGLE_UNIT ( ) SI_UNIT ( $, .RADIAN. ) );
#112 = CARTESIAN_POINT ( 'NONE',  ( 5.204170427930421283E-15, 20.00000000000000355, 0.000000000000000000 ) ) ;
#113 = AXIS2_PLACEMENT_3D ( 'NONE', #175, #152, #8 ) ;
#114 = PRESENTATION_STYLE_ASSIGNMENT (( #62 ) ) ;
#115 = PRODUCT_RELATED_PRODUCT_CATEGORY ( 'part', '', ( #251 ) ) ;
#116 = DIRECTION ( 'NONE',  ( -1.000000000000000000, 0.000000000000000000, 0.000000000000000000 ) ) ;
#117 = ORIENTED_EDGE ( 'NONE', *, *, #293, .F. ) ;
#118 = FILL_AREA_STYLE ('',( #145 ) ) ;
#119 =( LENGTH_UNIT ( ) NAMED_UNIT ( * ) SI_UNIT ( .MILLI., .METRE. ) );
#120 = ORIENTED_EDGE ( 'NONE', *, *, #310, .F. ) ;
#121 = AXIS2_PLACEMENT_3D ( 'NONE', #132, #238, #264 ) ;
#122 = CARTESIAN_POINT ( 'NONE',  ( 5.817072295949928412E-16, 0.000000000000000000, 4.500000000000000888 ) ) ;
#123 = PLANE ( 'NONE',  #79 ) ;
#124 = ORIENTED_EDGE ( 'NONE', *, *, #139, .F. ) ;
#125 = FACE_OUTER_BOUND ( 'NONE', #259, .T. ) ;
#126 = VECTOR ( 'NONE', #51, 1000.000000000000000 ) ;
#127 = DIRECTION ( 'NONE',  ( 0.000000000000000000, 0.000000000000000000, -1.000000000000000000 ) ) ;
#128 =( NAMED_UNIT ( * ) SI_UNIT ( $, .STERADIAN. ) SOLID_ANGLE_UNIT ( ) );
#129 = DIRECTION ( 'NONE',  ( -0.000000000000000000, -1.000000000000000000, -0.000000000000000000 ) ) ;
#130 =( LENGTH_UNIT ( ) NAMED_UNIT ( * ) SI_UNIT ( .MILLI., .METRE. ) );
#131 = ORIENTED_EDGE ( 'NONE', *, *, #160, .T. ) ;
#132 = CARTESIAN_POINT ( 'NONE',  ( 0.000000000000000000, 20.00000000000000000, 0.000000000000000000 ) ) ;
#133 = FILL_AREA_STYLE ('',( #23 ) ) ;
#134 = AXIS2_PLACEMENT_3D ( 'NONE', #52, #104, #53 ) ;
#135 = DIRECTION ( 'NONE',  ( -4.697880814296055710E-17, 1.000000000000000000, -0.000000000000000000 ) ) ;
#136 = UNCERTAINTY_MEASURE_WITH_UNIT (LENGTH_MEASURE( 1.000000000000000082E-05 ), #355, 'distance_accuracy_value', 'NONE');
#137 = PRODUCT_CONTEXT ( 'NONE', #342, 'mechanical' ) ;
#138 = CARTESIAN_POINT ( 'NONE',  ( 0.000000000000000000, 0.000000000000000000, 0.000000000000000000 ) ) ;
#139 = EDGE_CURVE ( 'NONE', #88, #146, #36, .T. ) ;
#140 = MECHANICAL_DESIGN_GEOMETRIC_PRESENTATION_REPRESENTATION (  '', ( #75 ), #275 ) ;
#141 = CIRCLE ( 'NONE', #169, 4.999999999999994671 ) ;
#142 = CARTESIAN_POINT ( 'NONE',  ( 5.000000000000000000, 63.00000000000000000, 0.000000000000000000 ) ) ;
#143 = SURFACE_STYLE_USAGE ( .BOTH. , #224 ) ;
#144 = AXIS2_PLACEMENT_3D ( 'NONE', #67, #129, #231 ) ;
#145 = FILL_AREA_STYLE_COLOUR ( '', #28 ) ;
#146 = VERTEX_POINT ( 'NONE', #228 ) ;
#147 = CARTESIAN_POINT ( 'NONE',  ( -4.999999999999992006, 63.00000000000000000, 0.000000000000000000 ) ) ;
#148 = ORIENTED_EDGE ( 'NONE', *, *, #336, .T. ) ;
#149 = COLOUR_RGB ( '',1.000000000000000000, 0.000000000000000000, 0.000000000000000000 ) ;
#150 = VECTOR ( 'NONE', #100, 1000.000000000000000 ) ;
#151 = FILL_AREA_STYLE_COLOUR ( '', #19 ) ;
#152 = DIRECTION ( 'NONE',  ( 1.000000000000000000, 0.000000000000000000, -1.224646799147353207E-16 ) ) ;
#153 = AXIS2_PLACEMENT_3D ( 'NONE', #294, #232, #230 ) ;
#154 = LINE ( 'NONE', #357, #150 ) ;
#155 = MECHANICAL_DESIGN_GEOMETRIC_PRESENTATION_REPRESENTATION (  '', ( #190 ), #346 ) ;
#156 = ORIENTED_EDGE ( 'NONE', *, *, #47, .F. ) ;
#157 = CARTESIAN_POINT ( 'NONE',  ( 6.123233995736766282E-16, 20.00000000000000000, 5.000000000000000000 ) ) ;
#158 = ORIENTED_EDGE ( 'NONE', *, *, #9, .T. ) ;
#159 = CYLINDRICAL_SURFACE ( 'NONE', #29, 4.999999999999995559 ) ;
#160 = EDGE_CURVE ( 'NONE', #338, #205, #348, .T. ) ;
#161 = CLOSED_SHELL ( 'NONE', ( #324, #171, #82, #285 ) ) ;
#162 = APPLICATION_PROTOCOL_DEFINITION ( 'draft international standard', 'automotive_design', 1998, #363 ) ;
#163 = CYLINDRICAL_SURFACE ( 'NONE', #256, 5.000000000000000000 ) ;
#164 = PRESENTATION_LAYER_ASSIGNMENT (  '', '', ( #220 ) ) ;
#165 = PRODUCT_DEFINITION_FORMATION_WITH_SPECIFIED_SOURCE ( 'ANY', '', #251, .NOT_KNOWN. ) ;
#166 = FILL_AREA_STYLE ('',( #253 ) ) ;
#167 = SURFACE_STYLE_FILL_AREA ( #60 ) ;
#168 = PRESENTATION_LAYER_ASSIGNMENT (  '', '', ( #176 ) ) ;
#169 = AXIS2_PLACEMENT_3D ( 'NONE', #112, #221, #343 ) ;
#170 = VERTEX_POINT ( 'NONE', #122 ) ;
#171 = ADVANCED_FACE ( 'NONE', ( #179 ), #98, .F. ) ;
#172 = SURFACE_SIDE_STYLE ('',( #353 ) ) ;
#173 = ORIENTED_EDGE ( 'NONE', *, *, #211, .F. ) ;
#174 =( NAMED_UNIT ( * ) SI_UNIT ( $, .STERADIAN. ) SOLID_ANGLE_UNIT ( ) );
#175 = CARTESIAN_POINT ( 'NONE',  ( 5.510910596163089556E-16, 0.5000000000000000000, 4.500000000000000888 ) ) ;
#176 = STYLED_ITEM ( 'NONE', ( #287 ), #227 ) ;
#177 = ADVANCED_FACE ( 'NONE', ( #65 ), #291, .T. ) ;
#178 = SURFACE_STYLE_USAGE ( .BOTH. , #103 ) ;
#179 = FACE_OUTER_BOUND ( 'NONE', #360, .T. ) ;
#180 = UNCERTAINTY_MEASURE_WITH_UNIT (LENGTH_MEASURE( 1.000000000000000082E-05 ), #261, 'distance_accuracy_value', 'NONE');
#181 =( NAMED_UNIT ( * ) SI_UNIT ( $, .STERADIAN. ) SOLID_ANGLE_UNIT ( ) );
#182 = DIRECTION ( 'NONE',  ( 0.000000000000000000, 0.000000000000000000, -1.000000000000000000 ) ) ;
#183 = CARTESIAN_POINT ( 'NONE',  ( 3.184081677783117402E-15, 63.00000000000000000, 0.000000000000000000 ) ) ;
#184 = VERTEX_POINT ( 'NONE', #99 ) ;
#185 = FACE_OUTER_BOUND ( 'NONE', #284, .T. ) ;
#186 = PRODUCT_DEFINITION ( 'UNKNOWN', '', #165, #288 ) ;
#187 = UNCERTAINTY_MEASURE_WITH_UNIT (LENGTH_MEASURE( 1.000000000000000082E-05 ), #130, 'distance_accuracy_value', 'NONE');
#188 = CARTESIAN_POINT ( 'NONE',  ( 5.204170427930421283E-15, 20.00000000000000355, 0.000000000000000000 ) ) ;
#189 = DIRECTION ( 'NONE',  ( -0.000000000000000000, -1.000000000000000000, -0.000000000000000000 ) ) ;
#190 = STYLED_ITEM ( 'NONE', ( #27 ), #299 ) ;
#191 =( LENGTH_UNIT ( ) NAMED_UNIT ( * ) SI_UNIT ( .MILLI., .METRE. ) );
#192 =( NAMED_UNIT ( * ) PLANE_ANGLE_UNIT ( ) SI_UNIT ( $, .RADIAN. ) );
#193 = EDGE_CURVE ( 'NONE', #94, #88, #42, .T. ) ;
#194 = ORIENTED_EDGE ( 'NONE', *, *, #218, .T. ) ;
#195 = SURFACE_STYLE_USAGE ( .BOTH. , #317 ) ;
#196 =( NAMED_UNIT ( * ) PLANE_ANGLE_UNIT ( ) SI_UNIT ( $, .RADIAN. ) );
#197 = CARTESIAN_POINT ( 'NONE',  ( 6.123233995736766282E-16, 0.000000000000000000, 5.000000000000000000 ) ) ;
#198 = ORIENTED_EDGE ( 'NONE', *, *, #211, .T. ) ;
#199 = CARTESIAN_POINT ( 'NONE',  ( 5.204170427930421283E-15, 20.00000000000000000, 0.000000000000000000 ) ) ;
#200 = ORIENTED_EDGE ( 'NONE', *, *, #193, .T. ) ;
#201 = UNCERTAINTY_MEASURE_WITH_UNIT (LENGTH_MEASURE( 1.000000000000000082E-05 ), #119, 'distance_accuracy_value', 'NONE');
#202 = CIRCLE ( 'NONE', #96, 5.000000000000000000 ) ;
#203 = DIRECTION ( 'NONE',  ( 0.000000000000000000, 0.000000000000000000, -1.000000000000000000 ) ) ;
#204 = CARTESIAN_POINT ( 'NONE',  ( 0.000000000000000000, 0.5000000000000000000, 0.000000000000000000 ) ) ;
#205 = VERTEX_POINT ( 'NONE', #319 ) ;
#206 =( NAMED_UNIT ( * ) SI_UNIT ( $, .STERADIAN. ) SOLID_ANGLE_UNIT ( ) );
#207 = AXIS2_PLACEMENT_3D ( 'NONE', #188, #273, #116 ) ;
#208 = AXIS2_PLACEMENT_3D ( 'NONE', #199, #6, #41 ) ;
#209 = ORIENTED_EDGE ( 'NONE', *, *, #267, .F. ) ;
#210 = CIRCLE ( 'NONE', #97, 0.4999999999999995559 ) ;
#211 = EDGE_CURVE ( 'NONE', #205, #170, #45, .T. ) ;
#212 = SHAPE_DEFINITION_REPRESENTATION ( #85, #10 ) ;
#213 = LINE ( 'NONE', #54, #126 ) ;
#214 = AXIS2_PLACEMENT_3D ( 'NONE', #282, #243, #244 ) ;
#215 = EDGE_LOOP ( 'NONE', ( #158, #298, #124, #311 ) ) ;
#216 = CARTESIAN_POINT ( 'NONE',  ( 0.000000000000000000, 0.000000000000000000, 0.000000000000000000 ) ) ;
#217 = FILL_AREA_STYLE_COLOUR ( '', #56 ) ;
#218 = EDGE_CURVE ( 'NONE', #184, #205, #340, .T. ) ;
#219 = CLOSED_SHELL ( 'NONE', ( #177, #252, #227, #78, #237, #22 ) ) ;
#220 = STYLED_ITEM ( 'NONE', ( #356 ), #177 ) ;
#221 = DIRECTION ( 'NONE',  ( -4.697880814296055710E-17, 1.000000000000000000, -0.000000000000000000 ) ) ;
#222 = DIRECTION ( 'NONE',  ( -0.000000000000000000, -1.000000000000000000, -0.000000000000000000 ) ) ;
#223 = ORIENTED_EDGE ( 'NONE', *, *, #16, .T. ) ;
#224 = SURFACE_SIDE_STYLE ('',( #309 ) ) ;
#225 = VECTOR ( 'NONE', #92, 1000.000000000000000 ) ;
#226 =( LENGTH_UNIT ( ) NAMED_UNIT ( * ) SI_UNIT ( .MILLI., .METRE. ) );
#227 = ADVANCED_FACE ( 'NONE', ( #262 ), #123, .T. ) ;
#228 = CARTESIAN_POINT ( 'NONE',  ( 5.000000000000000000, 63.00000000000000000, 6.123233995736762338E-16 ) ) ;
#229 =( GEOMETRIC_REPRESENTATION_CONTEXT ( 3 ) GLOBAL_UNCERTAINTY_ASSIGNED_CONTEXT ( ( #180 ) ) GLOBAL_UNIT_ASSIGNED_CONTEXT ( ( #261, #15, #265 ) ) REPRESENTATION_CONTEXT ( 'NONE', 'WORKASPACE' ) );
#230 = DIRECTION ( 'NONE',  ( -1.000000000000000000, 0.000000000000000000, 0.000000000000000000 ) ) ;
#231 = DIRECTION ( 'NONE',  ( 0.000000000000000000, 0.000000000000000000, -1.000000000000000000 ) ) ;
#232 = DIRECTION ( 'NONE',  ( -4.697880814296055710E-17, 1.000000000000000000, -0.000000000000000000 ) ) ;
#233 = EDGE_CURVE ( 'NONE', #17, #146, #213, .T. ) ;
#234 = MECHANICAL_DESIGN_GEOMETRIC_PRESENTATION_REPRESENTATION (  '', ( #220 ), #281 ) ;
#235 = ORIENTED_EDGE ( 'NONE', *, *, #336, .F. ) ;
#236 =( GEOMETRIC_REPRESENTATION_CONTEXT ( 3 ) GLOBAL_UNCERTAINTY_ASSIGNED_CONTEXT ( ( #136 ) ) GLOBAL_UNIT_ASSIGNED_CONTEXT ( ( #355, #192, #341 ) ) REPRESENTATION_CONTEXT ( 'NONE', 'WORKASPACE' ) );
#237 = ADVANCED_FACE ( 'NONE', ( #185 ), #163, .T. ) ;
#238 = DIRECTION ( 'NONE',  ( -0.000000000000000000, -1.000000000000000000, -0.000000000000000000 ) ) ;
#239 = ORIENTED_EDGE ( 'NONE', *, *, #139, .T. ) ;
#240 = DIRECTION ( 'NONE',  ( 0.000000000000000000, -1.000000000000000000, -0.000000000000000000 ) ) ;
#241 = CIRCLE ( 'NONE', #207, 4.999999999999994671 ) ;
#242 = AXIS2_PLACEMENT_3D ( 'NONE', #278, #26, #366 ) ;
#243 = DIRECTION ( 'NONE',  ( 0.000000000000000000, 1.000000000000000000, 0.000000000000000000 ) ) ;
#244 = DIRECTION ( 'NONE',  ( 0.000000000000000000, -0.000000000000000000, 1.000000000000000000 ) ) ;
#245 = DIRECTION ( 'NONE',  ( 1.000000000000000000, 4.697880814296055710E-17, 0.000000000000000000 ) ) ;
#246 = DIRECTION ( 'NONE',  ( -1.000000000000000000, 0.000000000000000000, 0.000000000000000000 ) ) ;
#247 = STYLED_ITEM ( 'NONE', ( #114 ), #22 ) ;
#248 =( GEOMETRIC_REPRESENTATION_CONTEXT ( 3 ) GLOBAL_UNCERTAINTY_ASSIGNED_CONTEXT ( ( #331 ) ) GLOBAL_UNIT_ASSIGNED_CONTEXT ( ( #337, #111, #86 ) ) REPRESENTATION_CONTEXT ( 'NONE', 'WORKASPACE' ) );
#249 =( GEOMETRIC_REPRESENTATION_CONTEXT ( 3 ) GLOBAL_UNCERTAINTY_ASSIGNED_CONTEXT ( ( #260 ) ) GLOBAL_UNIT_ASSIGNED_CONTEXT ( ( #43, #330, #206 ) ) REPRESENTATION_CONTEXT ( 'NONE', 'WORKASPACE' ) );
#250 = PLANE ( 'NONE',  #40 ) ;
#251 = PRODUCT ( '59541', '59541', '', ( #137 ) ) ;
#252 = ADVANCED_FACE ( 'NONE', ( #1 ), #334, .T. ) ;
#253 = FILL_AREA_STYLE_COLOUR ( '', #327 ) ;
#254 = ORIENTED_EDGE ( 'NONE', *, *, #233, .F. ) ;
#255 =( NAMED_UNIT ( * ) SI_UNIT ( $, .STERADIAN. ) SOLID_ANGLE_UNIT ( ) );
#256 = AXIS2_PLACEMENT_3D ( 'NONE', #216, #3, #347 ) ;
#257 = AXIS2_PLACEMENT_3D ( 'NONE', #301, #297, #127 ) ;
#258 = DIRECTION ( 'NONE',  ( -0.000000000000000000, -1.000000000000000000, -0.000000000000000000 ) ) ;
#259 = EDGE_LOOP ( 'NONE', ( #254, #326, #200, #102 ) ) ;
#260 = UNCERTAINTY_MEASURE_WITH_UNIT (LENGTH_MEASURE( 1.000000000000000082E-05 ), #43, 'distance_accuracy_value', 'NONE');
#261 =( LENGTH_UNIT ( ) NAMED_UNIT ( * ) SI_UNIT ( .MILLI., .METRE. ) );
#262 = FACE_OUTER_BOUND ( 'NONE', #321, .T. ) ;
#263 = SURFACE_SIDE_STYLE ('',( #320 ) ) ;
#264 = DIRECTION ( 'NONE',  ( 0.000000000000000000, 0.000000000000000000, -1.000000000000000000 ) ) ;
#265 =( NAMED_UNIT ( * ) SI_UNIT ( $, .STERADIAN. ) SOLID_ANGLE_UNIT ( ) );
#266 = ORIENTED_EDGE ( 'NONE', *, *, #108, .T. ) ;
#267 = EDGE_CURVE ( 'NONE', #7, #170, #25, .T. ) ;
#268 = CIRCLE ( 'NONE', #274, 4.999999999999996447 ) ;
#269 = MECHANICAL_DESIGN_GEOMETRIC_PRESENTATION_REPRESENTATION (  '', ( #314 ), #37 ) ;
#270 = MECHANICAL_DESIGN_GEOMETRIC_PRESENTATION_REPRESENTATION (  '', ( #84 ), #249 ) ;
#271 = DIRECTION ( 'NONE',  ( -1.000000000000000000, 0.000000000000000000, 0.000000000000000000 ) ) ;
#272 = SURFACE_STYLE_FILL_AREA ( #133 ) ;
#273 = DIRECTION ( 'NONE',  ( -4.697880814296055710E-17, 1.000000000000000000, -0.000000000000000000 ) ) ;
#274 = AXIS2_PLACEMENT_3D ( 'NONE', #31, #312, #246 ) ;
#275 =( GEOMETRIC_REPRESENTATION_CONTEXT ( 3 ) GLOBAL_UNCERTAINTY_ASSIGNED_CONTEXT ( ( #335 ) ) GLOBAL_UNIT_ASSIGNED_CONTEXT ( ( #35, #196, #255 ) ) REPRESENTATION_CONTEXT ( 'NONE', 'WORKASPACE' ) );
#276 = CIRCLE ( 'NONE', #121, 5.000000000000000000 ) ;
#277 = SURFACE_SIDE_STYLE ('',( #2 ) ) ;
#278 = CARTESIAN_POINT ( 'NONE',  ( 0.000000000000000000, 0.000000000000000000, 0.000000000000000000 ) ) ;
#279 = FACE_OUTER_BOUND ( 'NONE', #315, .T. ) ;
#280 = SURFACE_SIDE_STYLE ('',( #167 ) ) ;
#281 =( GEOMETRIC_REPRESENTATION_CONTEXT ( 3 ) GLOBAL_UNCERTAINTY_ASSIGNED_CONTEXT ( ( #55 ) ) GLOBAL_UNIT_ASSIGNED_CONTEXT ( ( #226, #93, #128 ) ) REPRESENTATION_CONTEXT ( 'NONE', 'WORKASPACE' ) );
#282 = CARTESIAN_POINT ( 'NONE',  ( 0.000000000000000000, 20.00000000000000000, 0.000000000000000000 ) ) ;
#283 = SURFACE_STYLE_FILL_AREA ( #166 ) ;
#284 = EDGE_LOOP ( 'NONE', ( #307, #46, #39, #303 ) ) ;
#285 = ADVANCED_FACE ( 'NONE', ( #89 ), #250, .F. ) ;
#286 = EDGE_LOOP ( 'NONE', ( #239, #223 ) ) ;
#287 = PRESENTATION_STYLE_ASSIGNMENT (( #72 ) ) ;
#288 = PRODUCT_DEFINITION_CONTEXT ( 'detailed design', #363, 'design' ) ;
#289 = CARTESIAN_POINT ( 'NONE',  ( 3.184081677783117402E-15, 63.00000000000000000, 0.000000000000000000 ) ) ;
#290 = FILL_AREA_STYLE ('',( #74 ) ) ;
#291 = CYLINDRICAL_SURFACE ( 'NONE', #68, 5.000000000000000000 ) ;
#292 = CARTESIAN_POINT ( 'NONE',  ( -4.999999999999989342, 20.00000000000000355, 0.000000000000000000 ) ) ;
#293 = EDGE_CURVE ( 'NONE', #17, #94, #141, .T. ) ;
#294 = CARTESIAN_POINT ( 'NONE',  ( 3.184081677783117402E-15, 63.00000000000000000, 0.000000000000000000 ) ) ;
#295 = PRESENTATION_LAYER_ASSIGNMENT (  '', '', ( #75 ) ) ;
#296 = EDGE_LOOP ( 'NONE', ( #194, #198, #209, #81 ) ) ;
#297 = DIRECTION ( 'NONE',  ( -0.000000000000000000, -1.000000000000000000, -0.000000000000000000 ) ) ;
#298 = ORIENTED_EDGE ( 'NONE', *, *, #233, .T. ) ;
#299 = MANIFOLD_SOLID_BREP ( 'Revolve - Cutting Edge', #219 ) ;
#300 = MANIFOLD_SOLID_BREP ( 'Revolve - Tool Body (Straight Shanked)', #161 ) ;
#301 = CARTESIAN_POINT ( 'NONE',  ( 0.000000000000000000, 0.000000000000000000, 0.000000000000000000 ) ) ;
#302 = EDGE_CURVE ( 'NONE', #184, #7, #210, .T. ) ;
#303 = ORIENTED_EDGE ( 'NONE', *, *, #108, .F. ) ;
#304 = FILL_AREA_STYLE ('',( #217 ) ) ;
#305 = STYLED_ITEM ( 'NONE', ( #110 ), #252 ) ;
#306 = PRESENTATION_LAYER_ASSIGNMENT (  '', '', ( #305 ) ) ;
#307 = ORIENTED_EDGE ( 'NONE', *, *, #160, .F. ) ;
#308 = DIRECTION ( 'NONE',  ( 0.000000000000000000, 0.000000000000000000, -1.000000000000000000 ) ) ;
#309 = SURFACE_STYLE_FILL_AREA ( #118 ) ;
#310 = EDGE_CURVE ( 'NONE', #351, #184, #154, .T. ) ;
#311 = ORIENTED_EDGE ( 'NONE', *, *, #193, .F. ) ;
#312 = DIRECTION ( 'NONE',  ( -4.697880814296055710E-17, 1.000000000000000000, -0.000000000000000000 ) ) ;
#313 = DIRECTION ( 'NONE',  ( 0.000000000000000000, 0.000000000000000000, -1.000000000000000000 ) ) ;
#314 = STYLED_ITEM ( 'NONE', ( #345 ), #78 ) ;
#315 = EDGE_LOOP ( 'NONE', ( #91, #156 ) ) ;
#316 =( GEOMETRIC_REPRESENTATION_CONTEXT ( 3 ) GLOBAL_UNCERTAINTY_ASSIGNED_CONTEXT ( ( #201 ) ) GLOBAL_UNIT_ASSIGNED_CONTEXT ( ( #119, #64, #174 ) ) REPRESENTATION_CONTEXT ( 'NONE', 'WORKASPACE' ) );
#317 = SURFACE_SIDE_STYLE ('',( #283 ) ) ;
#318 = ORIENTED_EDGE ( 'NONE', *, *, #302, .T. ) ;
#319 = CARTESIAN_POINT ( 'NONE',  ( 6.123233995736766282E-16, 0.5000000000000000000, 5.000000000000000000 ) ) ;
#320 = SURFACE_STYLE_FILL_AREA ( #325 ) ;
#321 = EDGE_LOOP ( 'NONE', ( #49, #148 ) ) ;
#322 = MECHANICAL_DESIGN_GEOMETRIC_PRESENTATION_REPRESENTATION (  '', ( #176 ), #229 ) ;
#323 = UNCERTAINTY_MEASURE_WITH_UNIT (LENGTH_MEASURE( 1.000000000000000082E-05 ), #191, 'distance_accuracy_value', 'NONE');
#324 = ADVANCED_FACE ( 'NONE', ( #50 ), #159, .T. ) ;
#325 = FILL_AREA_STYLE ('',( #350 ) ) ;
#326 = ORIENTED_EDGE ( 'NONE', *, *, #293, .T. ) ;
#327 = COLOUR_RGB ( '',1.000000000000000000, 0.000000000000000000, 0.000000000000000000 ) ;
#328 = AXIS2_PLACEMENT_3D ( 'NONE', #30, #189, #308 ) ;
#329 = ORIENTED_EDGE ( 'NONE', *, *, #9, .F. ) ;
#330 =( NAMED_UNIT ( * ) PLANE_ANGLE_UNIT ( ) SI_UNIT ( $, .RADIAN. ) );
#331 = UNCERTAINTY_MEASURE_WITH_UNIT (LENGTH_MEASURE( 1.000000000000000082E-05 ), #337, 'distance_accuracy_value', 'NONE');
#332 = SURFACE_STYLE_USAGE ( .BOTH. , #20 ) ;
#333 = AXIS2_PLACEMENT_3D ( 'NONE', #289, #11, #358 ) ;
#334 = TOROIDAL_SURFACE ( 'NONE', #328, 4.500000000000000888, 0.4999999999999997780 ) ;
#335 = UNCERTAINTY_MEASURE_WITH_UNIT (LENGTH_MEASURE( 1.000000000000000082E-05 ), #35, 'distance_accuracy_value', 'NONE');
#336 = EDGE_CURVE ( 'NONE', #170, #7, #361, .T. ) ;
#337 =( LENGTH_UNIT ( ) NAMED_UNIT ( * ) SI_UNIT ( .MILLI., .METRE. ) );
#338 = VERTEX_POINT ( 'NONE', #157 ) ;
#339 = FACE_OUTER_BOUND ( 'NONE', #4, .T. ) ;
#340 = CIRCLE ( 'NONE', #90, 5.000000000000000000 ) ;
#341 =( NAMED_UNIT ( * ) SI_UNIT ( $, .STERADIAN. ) SOLID_ANGLE_UNIT ( ) );
#342 = APPLICATION_CONTEXT ( 'automotive_design' ) ;
#343 = DIRECTION ( 'NONE',  ( -1.000000000000000000, 0.000000000000000000, 0.000000000000000000 ) ) ;
#344 = SURFACE_STYLE_USAGE ( .BOTH. , #280 ) ;
#345 = PRESENTATION_STYLE_ASSIGNMENT (( #143 ) ) ;
#346 =( GEOMETRIC_REPRESENTATION_CONTEXT ( 3 ) GLOBAL_UNCERTAINTY_ASSIGNED_CONTEXT ( ( #187 ) ) GLOBAL_UNIT_ASSIGNED_CONTEXT ( ( #130, #71, #181 ) ) REPRESENTATION_CONTEXT ( 'NONE', 'WORKASPACE' ) );
#347 = DIRECTION ( 'NONE',  ( 0.000000000000000000, 0.000000000000000000, -1.000000000000000000 ) ) ;
#348 = LINE ( 'NONE', #197, #364 ) ;
#349 = EDGE_LOOP ( 'NONE', ( #34, #131, #66, #120 ) ) ;
#350 = FILL_AREA_STYLE_COLOUR ( '', #149 ) ;
#351 = VERTEX_POINT ( 'NONE', #48 ) ;
#352 = CYLINDRICAL_SURFACE ( 'NONE', #333, 4.999999999999995559 ) ;
#353 = SURFACE_STYLE_FILL_AREA ( #44 ) ;
#354 = CARTESIAN_POINT ( 'NONE',  ( -4.999999999999992895, 63.00000000000000000, 0.000000000000000000 ) ) ;
#355 =( LENGTH_UNIT ( ) NAMED_UNIT ( * ) SI_UNIT ( .MILLI., .METRE. ) );
#356 = PRESENTATION_STYLE_ASSIGNMENT (( #69 ) ) ;
#357 = CARTESIAN_POINT ( 'NONE',  ( 0.000000000000000000, 0.000000000000000000, -5.000000000000000000 ) ) ;
#358 = DIRECTION ( 'NONE',  ( -1.000000000000000000, 0.000000000000000000, 0.000000000000000000 ) ) ;
#359 = COLOUR_RGB ( '',1.000000000000000000, 0.000000000000000000, 0.000000000000000000 ) ;
#360 = EDGE_LOOP ( 'NONE', ( #329, #117 ) ) ;
#361 = CIRCLE ( 'NONE', #257, 4.500000000000000888 ) ;
#362 = SURFACE_STYLE_FILL_AREA ( #290 ) ;
#363 = APPLICATION_CONTEXT ( 'automotive_design' ) ;
#364 = VECTOR ( 'NONE', #13, 1000.000000000000000 ) ;
#365 = CARTESIAN_POINT ( 'NONE',  ( 0.000000000000000000, 20.00000000000000000, 0.000000000000000000 ) ) ;
#366 = DIRECTION ( 'NONE',  ( 0.000000000000000000, 0.000000000000000000, -1.000000000000000000 ) ) ;
#367 =( NAMED_UNIT ( * ) SI_UNIT ( $, .STERADIAN. ) SOLID_ANGLE_UNIT ( ) );
#368 = EDGE_CURVE ( 'NONE', #351, #338, #276, .T. ) ;
#369 = MECHANICAL_DESIGN_GEOMETRIC_PRESENTATION_REPRESENTATION (  '', ( #247 ), #248 ) ;
#370 = FILL_AREA_STYLE_COLOUR ( '', #107 ) ;
ENDSEC;
END-ISO-10303-21;
