ISO-10303-21;
HEADER;
FILE_DESCRIPTION (( 'STEP AP214' ),
    '1' );
FILE_NAME ('Micro_EMS-001-6.STEP',
    '2021-09-01T17:30:02',
    ( '' ),
    ( '' ),
    'SwSTEP 2.0',
    'SolidWorks 2020',
    '' );
FILE_SCHEMA (( 'AUTOMOTIVE_DESIGN' ));
ENDSEC;

DATA;
#1 = CARTESIAN_POINT ( 'NONE',  ( 0.4850000000000004308, 5.939536975864668392E-17, 5.000000000000000000 ) ) ;
#2 = VECTOR ( 'NONE', #198, 39.37007874015747433 ) ;
#3 = AXIS2_PLACEMENT_3D ( 'NONE', #48, #236, #4 ) ;
#4 = DIRECTION ( 'NONE',  ( -1.000000000000000000, 0.0000000000000000000, 1.224646799147353454E-16 ) ) ;
#5 = ORIENTED_EDGE ( 'NONE', *, *, #246, .T. ) ;
#6 =( LENGTH_UNIT ( ) NAMED_UNIT ( * ) SI_UNIT ( $, .METRE. ) );
#7 = CONICAL_SURFACE ( 'NONE', #123, 0.4994999999999999996, 0.1745329251994338082 ) ;
#8 = AXIS2_PLACEMENT_3D ( 'NONE', #93, #76, #208 ) ;
#9 = EDGE_CURVE ( 'NONE', #15, #245, #160, .T. ) ;
#10 = ORIENTED_EDGE ( 'NONE', *, *, #140, .T. ) ;
#11 = DIMENSIONAL_EXPONENTS ( 1.000000000000000000, 0.0000000000000000000, 0.0000000000000000000, 0.0000000000000000000, 0.0000000000000000000, 0.0000000000000000000, 0.0000000000000000000 ) ;
#12 = ORIENTED_EDGE ( 'NONE', *, *, #188, .F. ) ;
#13 = CIRCLE ( 'NONE', #174, 0.4994999999999999996 ) ;
#14 = DIRECTION ( 'NONE',  ( 1.224646799147353207E-16, 0.0000000000000000000, 1.000000000000000000 ) ) ;
#15 = VERTEX_POINT ( 'NONE', #170 ) ;
#16 = VERTEX_POINT ( 'NONE', #86 ) ;
#17 = DIRECTION ( 'NONE',  ( -1.224646799147353207E-16, -0.0000000000000000000, -1.000000000000000000 ) ) ;
#18 = CIRCLE ( 'NONE', #3, 0.4994999999999999996 ) ;
#19 = CARTESIAN_POINT ( 'NONE',  ( 0.0000000000000000000, 0.0000000000000000000, 0.0000000000000000000 ) ) ;
#20 = DIRECTION ( 'NONE',  ( 0.0000000000000000000, 0.0000000000000000000, 1.000000000000000000 ) ) ;
#21 = CARTESIAN_POINT ( 'NONE',  ( 0.0000000000000000000, 0.0000000000000000000, 4.985000000000000320 ) ) ;
#22 = SURFACE_SIDE_STYLE ('',( #176 ) ) ;
#23 = VECTOR ( 'NONE', #118, 39.37007874015748143 ) ;
#24 = CARTESIAN_POINT ( 'NONE',  ( 3.061616997868383141E-16, 0.0000000000000000000, 2.500000000000000000 ) ) ;
#25 = CARTESIAN_POINT ( 'NONE',  ( -0.4994999999999999996, 0.0000000000000000000, 6.117110761741029900E-17 ) ) ;
#26 = EDGE_LOOP ( 'NONE', ( #200, #194, #221, #5 ) ) ;
#27 = ORIENTED_EDGE ( 'NONE', *, *, #9, .F. ) ;
#28 = VECTOR ( 'NONE', #271, 39.37007874015748143 ) ;
#29 = AXIS2_PLACEMENT_3D ( 'NONE', #278, #277, #162 ) ;
#30 = PLANE ( 'NONE',  #191 ) ;
#31 = EDGE_CURVE ( 'NONE', #150, #104, #219, .T. ) ;
#32 = ADVANCED_FACE ( 'NONE', ( #263 ), #151, .T. ) ;
#33 = VECTOR ( 'NONE', #36, 39.37007874015748143 ) ;
#34 = DIRECTION ( 'NONE',  ( 0.0000000000000000000, 0.0000000000000000000, 1.000000000000000000 ) ) ;
#35 = DIRECTION ( 'NONE',  ( -1.224646799147353207E-16, -0.0000000000000000000, -1.000000000000000000 ) ) ;
#36 = DIRECTION ( 'NONE',  ( -0.7071067811865443531, 0.0000000000000000000, -0.7071067811865507924 ) ) ;
#37 = PRESENTATION_LAYER_ASSIGNMENT (  '', '', ( #45 ) ) ;
#38 = VECTOR ( 'NONE', #230, 39.37007874015748143 ) ;
#39 = ORIENTED_EDGE ( 'NONE', *, *, #156, .T. ) ;
#40 = ORIENTED_EDGE ( 'NONE', *, *, #273, .F. ) ;
#41 = ADVANCED_FACE ( 'NONE', ( #85 ), #240, .T. ) ;
#42 = CARTESIAN_POINT ( 'NONE',  ( -0.4994999999999999996, 0.0000000000000000000, 1.223422152348205980E-16 ) ) ;
#43 = LINE ( 'NONE', #202, #129 ) ;
#44 = FILL_AREA_STYLE ('',( #158 ) ) ;
#45 = STYLED_ITEM ( 'NONE', ( #247 ), #185 ) ;
#46 = CIRCLE ( 'NONE', #29, 0.4994999999999999996 ) ;
#47 = DIRECTION ( 'NONE',  ( 0.0000000000000000000, 0.0000000000000000000, 1.000000000000000000 ) ) ;
#48 = CARTESIAN_POINT ( 'NONE',  ( 7.491300114395979244E-33, 0.0000000000000000000, 6.117110761741029900E-17 ) ) ;
#49 = CIRCLE ( 'NONE', #258, 0.4994999999999999996 ) ;
#50 = AXIS2_PLACEMENT_3D ( 'NONE', #255, #145, #99 ) ;
#51 = CARTESIAN_POINT ( 'NONE',  ( -0.4850000000000004308, 0.0000000000000000000, 5.000000000000000000 ) ) ;
#52 =( NAMED_UNIT ( * ) SI_UNIT ( $, .STERADIAN. ) SOLID_ANGLE_UNIT ( ) );
#53 = EDGE_CURVE ( 'NONE', #245, #101, #131, .T. ) ;
#54 = PRODUCT_DEFINITION_SHAPE ( 'NONE', 'NONE',  #117 ) ;
#55 = DIMENSIONAL_EXPONENTS ( 1.000000000000000000, 0.0000000000000000000, 0.0000000000000000000, 0.0000000000000000000, 0.0000000000000000000, 0.0000000000000000000, 0.0000000000000000000 ) ;
#56 = ORIENTED_EDGE ( 'NONE', *, *, #9, .T. ) ;
#57 = STYLED_ITEM ( 'NONE', ( #220 ), #154 ) ;
#58 = EDGE_LOOP ( 'NONE', ( #212, #12, #88, #63 ) ) ;
#59 =( LENGTH_UNIT ( ) NAMED_UNIT ( * ) SI_UNIT ( $, .METRE. ) );
#60 = ORIENTED_EDGE ( 'NONE', *, *, #188, .T. ) ;
#61 = EDGE_LOOP ( 'NONE', ( #289, #81, #103, #149 ) ) ;
#62 =( GEOMETRIC_REPRESENTATION_CONTEXT ( 3 ) GLOBAL_UNCERTAINTY_ASSIGNED_CONTEXT ( ( #109 ) ) GLOBAL_UNIT_ASSIGNED_CONTEXT ( ( #98, #94, #256 ) ) REPRESENTATION_CONTEXT ( 'NONE', 'WORKASPACE' ) );
#63 = ORIENTED_EDGE ( 'NONE', *, *, #163, .F. ) ;
#64 = DIRECTION ( 'NONE',  ( -1.224646799147353207E-16, -0.0000000000000000000, -1.000000000000000000 ) ) ;
#65 = EDGE_CURVE ( 'NONE', #150, #173, #13, .T. ) ;
#66 = APPLICATION_PROTOCOL_DEFINITION ( 'draft international standard', 'automotive_design', 1998, #136 ) ;
#67 = DIRECTION ( 'NONE',  ( -1.000000000000000000, 0.0000000000000000000, 0.0000000000000000000 ) ) ;
#68 = SURFACE_STYLE_USAGE ( .BOTH. , #127 ) ;
#69 = DIRECTION ( 'NONE',  ( 0.1736481776669313026, 0.0000000000000000000, 0.9848077530122077983 ) ) ;
#70 =( GEOMETRIC_REPRESENTATION_CONTEXT ( 3 ) GLOBAL_UNCERTAINTY_ASSIGNED_CONTEXT ( ( #288 ) ) GLOBAL_UNIT_ASSIGNED_CONTEXT ( ( #106, #102, #197 ) ) REPRESENTATION_CONTEXT ( 'NONE', 'WORKASPACE' ) );
#71 = CARTESIAN_POINT ( 'NONE',  ( 3.061616997868383141E-16, 0.0000000000000000000, 2.500000000000000000 ) ) ;
#72 = CARTESIAN_POINT ( 'NONE',  ( 0.4995000000000002771, 0.0000000000000000000, 2.500000000000000000 ) ) ;
#73 = FACE_OUTER_BOUND ( 'NONE', #58, .T. ) ;
#74 = MECHANICAL_DESIGN_GEOMETRIC_PRESENTATION_REPRESENTATION (  '', ( #57 ), #70 ) ;
#75 = ADVANCED_FACE ( 'NONE', ( #113 ), #203, .T. ) ;
#76 = DIRECTION ( 'NONE',  ( -1.224646799147353207E-16, -0.0000000000000000000, -1.000000000000000000 ) ) ;
#77 = AXIS2_PLACEMENT_3D ( 'NONE', #148, #34, #287 ) ;
#78 = FACE_OUTER_BOUND ( 'NONE', #187, .T. ) ;
#79 = SHAPE_DEFINITION_REPRESENTATION ( #54, #154 ) ;
#80 = VERTEX_POINT ( 'NONE', #42 ) ;
#81 = ORIENTED_EDGE ( 'NONE', *, *, #31, .T. ) ;
#82 = PRODUCT ( 'Micro_EMS-001-6', 'Micro_EMS-001-6', '', ( #193 ) ) ;
#83 = EDGE_CURVE ( 'NONE', #173, #199, #155, .T. ) ;
#84 = DIRECTION ( 'NONE',  ( 1.000000000000000000, 0.0000000000000000000, 0.0000000000000000000 ) ) ;
#85 = FACE_OUTER_BOUND ( 'NONE', #265, .T. ) ;
#86 = CARTESIAN_POINT ( 'NONE',  ( 0.5000000000000000000, 6.123233995736766036E-17, 4.985000000000000320 ) ) ;
#87 = ADVANCED_FACE ( 'NONE', ( #226 ), #91, .T. ) ;
#88 = ORIENTED_EDGE ( 'NONE', *, *, #53, .T. ) ;
#89 = LINE ( 'NONE', #178, #28 ) ;
#90 = DIRECTION ( 'NONE',  ( -1.000000000000000000, 0.0000000000000000000, 0.0000000000000000000 ) ) ;
#91 = CYLINDRICAL_SURFACE ( 'NONE', #227, 0.5000000000000000000 ) ;
#92 = SURFACE_STYLE_USAGE ( .BOTH. , #22 ) ;
#93 = CARTESIAN_POINT ( 'NONE',  ( 3.065089656432111634E-16, 0.0000000000000000000, 2.502835640909808923 ) ) ;
#94 =( NAMED_UNIT ( * ) PLANE_ANGLE_UNIT ( ) SI_UNIT ( $, .RADIAN. ) );
#95 = ADVANCED_FACE ( 'NONE', ( #182 ), #120, .T. ) ;
#96 = DIRECTION ( 'NONE',  ( 0.0000000000000000000, 0.0000000000000000000, -1.000000000000000000 ) ) ;
#97 = ORIENTED_EDGE ( 'NONE', *, *, #293, .T. ) ;
#98 =( CONVERSION_BASED_UNIT ( 'INCH', #276 ) LENGTH_UNIT ( ) NAMED_UNIT ( #279 ) );
#99 = DIRECTION ( 'NONE',  ( -1.000000000000000000, 0.0000000000000000000, 1.224646799147353454E-16 ) ) ;
#100 = AXIS2_PLACEMENT_3D ( 'NONE', #252, #292, #67 ) ;
#101 = VERTEX_POINT ( 'NONE', #291 ) ;
#102 =( NAMED_UNIT ( * ) PLANE_ANGLE_UNIT ( ) SI_UNIT ( $, .RADIAN. ) );
#103 = ORIENTED_EDGE ( 'NONE', *, *, #105, .T. ) ;
#104 = VERTEX_POINT ( 'NONE', #180 ) ;
#105 = EDGE_CURVE ( 'NONE', #104, #199, #267, .T. ) ;
#106 =( CONVERSION_BASED_UNIT ( 'INCH', #270 ) LENGTH_UNIT ( ) NAMED_UNIT ( #55 ) );
#107 = CARTESIAN_POINT ( 'NONE',  ( 0.0000000000000000000, 0.0000000000000000000, 0.0000000000000000000 ) ) ;
#108 = EDGE_LOOP ( 'NONE', ( #27, #97, #284, #234 ) ) ;
#109 = UNCERTAINTY_MEASURE_WITH_UNIT (LENGTH_MEASURE( 1.000000000000000082E-05 ), #98, 'distance_accuracy_value', 'NONE');
#110 = ORIENTED_EDGE ( 'NONE', *, *, #105, .F. ) ;
#111 = CIRCLE ( 'NONE', #8, 0.5000000000000000000 ) ;
#112 = DIRECTION ( 'NONE',  ( -1.000000000000000000, 0.0000000000000000000, 0.0000000000000000000 ) ) ;
#113 = FACE_OUTER_BOUND ( 'NONE', #209, .T. ) ;
#114 = DIRECTION ( 'NONE',  ( 0.0000000000000000000, 0.0000000000000000000, -1.000000000000000000 ) ) ;
#115 = DIRECTION ( 'NONE',  ( 1.000000000000000000, 0.0000000000000000000, 0.0000000000000000000 ) ) ;
#116 = CARTESIAN_POINT ( 'NONE',  ( 3.061616997868383141E-16, 0.0000000000000000000, 2.500000000000000000 ) ) ;
#117 = PRODUCT_DEFINITION ( 'UNKNOWN', '', #175, #204 ) ;
#118 = DIRECTION ( 'NONE',  ( -1.224646799147353207E-16, -0.0000000000000000000, -1.000000000000000000 ) ) ;
#119 = ORIENTED_EDGE ( 'NONE', *, *, #168, .T. ) ;
#120 = CONICAL_SURFACE ( 'NONE', #282, 0.4850000000000004308, 0.7853981633974437271 ) ;
#121 = VERTEX_POINT ( 'NONE', #269 ) ;
#122 = DIRECTION ( 'NONE',  ( 1.000000000000000000, 0.0000000000000000000, -0.0000000000000000000 ) ) ;
#123 = AXIS2_PLACEMENT_3D ( 'NONE', #116, #248, #115 ) ;
#124 = CARTESIAN_POINT ( 'NONE',  ( 3.061616997868383141E-16, 0.0000000000000000000, 2.500000000000000000 ) ) ;
#125 = ADVANCED_FACE ( 'NONE', ( #298 ), #229, .F. ) ;
#126 = ORIENTED_EDGE ( 'NONE', *, *, #163, .T. ) ;
#127 = SURFACE_SIDE_STYLE ('',( #261 ) ) ;
#128 = EDGE_LOOP ( 'NONE', ( #264, #152 ) ) ;
#129 = VECTOR ( 'NONE', #207, 39.37007874015748143 ) ;
#130 = ORIENTED_EDGE ( 'NONE', *, *, #232, .T. ) ;
#131 = LINE ( 'NONE', #241, #33 ) ;
#132 = DIRECTION ( 'NONE',  ( 1.000000000000000000, 0.0000000000000000000, 0.0000000000000000000 ) ) ;
#133 = ADVANCED_FACE ( 'NONE', ( #206 ), #7, .T. ) ;
#134 = CARTESIAN_POINT ( 'NONE',  ( -0.4994999999999997775, 6.120172378738898584E-17, 2.500000000000000000 ) ) ;
#135 = CARTESIAN_POINT ( 'NONE',  ( 0.4995000000000002771, 0.0000000000000000000, 2.500000000000000000 ) ) ;
#136 = APPLICATION_CONTEXT ( 'automotive_design' ) ;
#137 = AXIS2_PLACEMENT_3D ( 'NONE', #272, #64, #275 ) ;
#138 = DIRECTION ( 'NONE',  ( -1.000000000000000000, 0.0000000000000000000, 0.0000000000000000000 ) ) ;
#139 = AXIS2_PLACEMENT_3D ( 'NONE', #260, #215, #161 ) ;
#140 = EDGE_CURVE ( 'NONE', #16, #199, #89, .T. ) ;
#141 = DIRECTION ( 'NONE',  ( 1.000000000000000000, 0.0000000000000000000, 0.0000000000000000000 ) ) ;
#142 = DIRECTION ( 'NONE',  ( 1.000000000000000000, 0.0000000000000000000, 0.0000000000000000000 ) ) ;
#143 =( CONVERSION_BASED_UNIT ( 'INCH', #214 ) LENGTH_UNIT ( ) NAMED_UNIT ( #11 ) );
#144 = CIRCLE ( 'NONE', #237, 0.4850000000000004308 ) ;
#145 = DIRECTION ( 'NONE',  ( -1.224646799147353207E-16, -0.0000000000000000000, -1.000000000000000000 ) ) ;
#146 = ORIENTED_EDGE ( 'NONE', *, *, #147, .T. ) ;
#147 = EDGE_CURVE ( 'NONE', #173, #121, #43, .T. ) ;
#148 = CARTESIAN_POINT ( 'NONE',  ( 0.0000000000000000000, 0.0000000000000000000, 5.000000000000000000 ) ) ;
#149 = ORIENTED_EDGE ( 'NONE', *, *, #83, .F. ) ;
#150 = VERTEX_POINT ( 'NONE', #134 ) ;
#151 = CONICAL_SURFACE ( 'NONE', #249, 0.4994999999999999996, 0.1745329251994338082 ) ;
#152 = ORIENTED_EDGE ( 'NONE', *, *, #273, .T. ) ;
#153 = DIRECTION ( 'NONE',  ( -1.000000000000000000, 0.0000000000000000000, 0.0000000000000000000 ) ) ;
#154 = ADVANCED_BREP_SHAPE_REPRESENTATION ( 'Micro_EMS-001-6', ( #185, #244 ), #62 ) ;
#155 = LINE ( 'NONE', #135, #190 ) ;
#156 = EDGE_CURVE ( 'NONE', #173, #150, #49, .T. ) ;
#157 = DIRECTION ( 'NONE',  ( -0.0000000000000000000, -0.0000000000000000000, -1.000000000000000000 ) ) ;
#158 = FILL_AREA_STYLE_COLOUR ( '', #165 ) ;
#159 = DIRECTION ( 'NONE',  ( 0.0000000000000000000, 0.0000000000000000000, -1.000000000000000000 ) ) ;
#160 = CIRCLE ( 'NONE', #77, 0.4850000000000004308 ) ;
#161 = DIRECTION ( 'NONE',  ( -1.000000000000000000, 0.0000000000000000000, 0.0000000000000000000 ) ) ;
#162 = DIRECTION ( 'NONE',  ( -1.000000000000000000, 0.0000000000000000000, 1.224646799147353454E-16 ) ) ;
#163 = EDGE_CURVE ( 'NONE', #16, #101, #295, .T. ) ;
#164 = FACE_OUTER_BOUND ( 'NONE', #286, .T. ) ;
#165 = COLOUR_RGB ( '',0.7921568627450980005, 0.8196078431372548767, 0.9333333333333333481 ) ;
#166 = AXIS2_PLACEMENT_3D ( 'NONE', #21, #114, #132 ) ;
#167 = LINE ( 'NONE', #1, #283 ) ;
#168 = EDGE_CURVE ( 'NONE', #101, #104, #251, .T. ) ;
#169 = FILL_AREA_STYLE ('',( #217 ) ) ;
#170 = CARTESIAN_POINT ( 'NONE',  ( 0.4850000000000004308, 6.031385485800716598E-17, 5.000000000000000000 ) ) ;
#171 = ORIENTED_EDGE ( 'NONE', *, *, #297, .T. ) ;
#172 = CARTESIAN_POINT ( 'NONE',  ( -0.4994999999999997775, 6.117110761741029900E-17, 2.500000000000000000 ) ) ;
#173 = VERTEX_POINT ( 'NONE', #72 ) ;
#174 = AXIS2_PLACEMENT_3D ( 'NONE', #24, #17, #138 ) ;
#175 = PRODUCT_DEFINITION_FORMATION_WITH_SPECIFIED_SOURCE ( 'ANY', '', #82, .NOT_KNOWN. ) ;
#176 = SURFACE_STYLE_FILL_AREA ( #44 ) ;
#177 = APPLICATION_PROTOCOL_DEFINITION ( 'draft international standard', 'automotive_design', 1998, #299 ) ;
#178 = CARTESIAN_POINT ( 'NONE',  ( 0.5000000000000000000, 6.123233995736766036E-17, 5.000000000000000000 ) ) ;
#179 = PRODUCT_RELATED_PRODUCT_CATEGORY ( 'part', '', ( #82 ) ) ;
#180 = CARTESIAN_POINT ( 'NONE',  ( -0.4999999999999997224, 0.0000000000000000000, 2.502835640909808923 ) ) ;
#181 = CARTESIAN_POINT ( 'NONE',  ( 0.0000000000000000000, 0.0000000000000000000, 5.000000000000000000 ) ) ;
#182 = FACE_OUTER_BOUND ( 'NONE', #108, .T. ) ;
#183 =( NAMED_UNIT ( * ) PLANE_ANGLE_UNIT ( ) SI_UNIT ( $, .RADIAN. ) );
#184 = AXIS2_PLACEMENT_3D ( 'NONE', #107, #35, #266 ) ;
#185 = MANIFOLD_SOLID_BREP ( 'Cut-Revolve1', #235 ) ;
#186 = CYLINDRICAL_SURFACE ( 'NONE', #50, 0.4994999999999999996 ) ;
#187 = EDGE_LOOP ( 'NONE', ( #60, #56 ) ) ;
#188 = EDGE_CURVE ( 'NONE', #245, #15, #144, .T. ) ;
#189 = DIRECTION ( 'NONE',  ( 0.0000000000000000000, 0.0000000000000000000, 1.000000000000000000 ) ) ;
#190 = VECTOR ( 'NONE', #69, 39.37007874015748143 ) ;
#191 = AXIS2_PLACEMENT_3D ( 'NONE', #233, #189, #122 ) ;
#192 = EDGE_CURVE ( 'NONE', #80, #121, #46, .T. ) ;
#193 = PRODUCT_CONTEXT ( 'NONE', #299, 'mechanical' ) ;
#194 = ORIENTED_EDGE ( 'NONE', *, *, #156, .F. ) ;
#195 = ORIENTED_EDGE ( 'NONE', *, *, #140, .F. ) ;
#196 = CONICAL_SURFACE ( 'NONE', #139, 0.4850000000000004308, 0.7853981633974437271 ) ;
#197 =( NAMED_UNIT ( * ) SI_UNIT ( $, .STERADIAN. ) SOLID_ANGLE_UNIT ( ) );
#198 = DIRECTION ( 'NONE',  ( -0.1736481776669311083, 2.126576849575782084E-17, 0.9848077530122080203 ) ) ;
#199 = VERTEX_POINT ( 'NONE', #257 ) ;
#200 = ORIENTED_EDGE ( 'NONE', *, *, #31, .F. ) ;
#201 = ADVANCED_FACE ( 'NONE', ( #73 ), #196, .T. ) ;
#202 = CARTESIAN_POINT ( 'NONE',  ( 0.4994999999999999996, 6.117110761741029900E-17, -6.117110761741029900E-17 ) ) ;
#203 = CYLINDRICAL_SURFACE ( 'NONE', #100, 0.5000000000000000000 ) ;
#204 = PRODUCT_DEFINITION_CONTEXT ( 'detailed design', #136, 'design' ) ;
#205 = CARTESIAN_POINT ( 'NONE',  ( -0.5000000000000000000, 0.0000000000000000000, 5.000000000000000000 ) ) ;
#206 = FACE_OUTER_BOUND ( 'NONE', #26, .T. ) ;
#207 = DIRECTION ( 'NONE',  ( -1.224646799147353207E-16, -0.0000000000000000000, -1.000000000000000000 ) ) ;
#208 = DIRECTION ( 'NONE',  ( 1.000000000000000000, 0.0000000000000000000, 0.0000000000000000000 ) ) ;
#209 = EDGE_LOOP ( 'NONE', ( #171, #10, #110, #238 ) ) ;
#210 = LINE ( 'NONE', #25, #23 ) ;
#211 = COLOUR_RGB ( '',0.7921568627450980005, 0.8196078431372548767, 0.9333333333333333481 ) ;
#212 = ORIENTED_EDGE ( 'NONE', *, *, #293, .F. ) ;
#213 = CARTESIAN_POINT ( 'NONE',  ( 0.0000000000000000000, 0.0000000000000000000, 4.985000000000000320 ) ) ;
#214 = LENGTH_MEASURE_WITH_UNIT ( LENGTH_MEASURE( 0.02539999999999999897 ), #231 );
#215 = DIRECTION ( 'NONE',  ( 0.0000000000000000000, 0.0000000000000000000, -1.000000000000000000 ) ) ;
#216 = AXIS2_PLACEMENT_3D ( 'NONE', #213, #96, #142 ) ;
#217 = FILL_AREA_STYLE_COLOUR ( '', #211 ) ;
#218 = DIRECTION ( 'NONE',  ( 1.000000000000000000, 0.0000000000000000000, 0.0000000000000000000 ) ) ;
#219 = LINE ( 'NONE', #172, #2 ) ;
#220 = PRESENTATION_STYLE_ASSIGNMENT (( #68 ) ) ;
#221 = ORIENTED_EDGE ( 'NONE', *, *, #83, .T. ) ;
#222 = ADVANCED_FACE ( 'NONE', ( #164 ), #186, .T. ) ;
#223 = ORIENTED_EDGE ( 'NONE', *, *, #192, .F. ) ;
#224 = UNCERTAINTY_MEASURE_WITH_UNIT (LENGTH_MEASURE( 1.000000000000000082E-05 ), #143, 'distance_accuracy_value', 'NONE');
#225 = ORIENTED_EDGE ( 'NONE', *, *, #232, .F. ) ;
#226 = FACE_OUTER_BOUND ( 'NONE', #239, .T. ) ;
#227 = AXIS2_PLACEMENT_3D ( 'NONE', #228, #157, #90 ) ;
#228 = CARTESIAN_POINT ( 'NONE',  ( 0.0000000000000000000, 0.0000000000000000000, 5.000000000000000000 ) ) ;
#229 = PLANE ( 'NONE',  #253 ) ;
#230 = DIRECTION ( 'NONE',  ( -0.0000000000000000000, -0.0000000000000000000, -1.000000000000000000 ) ) ;
#231 =( LENGTH_UNIT ( ) NAMED_UNIT ( * ) SI_UNIT ( $, .METRE. ) );
#232 = EDGE_CURVE ( 'NONE', #150, #80, #210, .T. ) ;
#233 = CARTESIAN_POINT ( 'NONE',  ( 0.0000000000000000000, 0.0000000000000000000, 5.000000000000000000 ) ) ;
#234 = ORIENTED_EDGE ( 'NONE', *, *, #53, .F. ) ;
#235 = CLOSED_SHELL ( 'NONE', ( #41, #32, #95, #75, #87, #281, #201, #133, #222, #125 ) ) ;
#236 = DIRECTION ( 'NONE',  ( -1.224646799147353207E-16, -0.0000000000000000000, -1.000000000000000000 ) ) ;
#237 = AXIS2_PLACEMENT_3D ( 'NONE', #274, #47, #141 ) ;
#238 = ORIENTED_EDGE ( 'NONE', *, *, #168, .F. ) ;
#239 = EDGE_LOOP ( 'NONE', ( #195, #126, #119, #262 ) ) ;
#240 = CYLINDRICAL_SURFACE ( 'NONE', #184, 0.4994999999999999996 ) ;
#241 = CARTESIAN_POINT ( 'NONE',  ( -0.4850000000000004308, 0.0000000000000000000, 5.000000000000000000 ) ) ;
#242 = ORIENTED_EDGE ( 'NONE', *, *, #65, .T. ) ;
#243 = MECHANICAL_DESIGN_GEOMETRIC_PRESENTATION_REPRESENTATION (  '', ( #45 ), #268 ) ;
#244 = AXIS2_PLACEMENT_3D ( 'NONE', #19, #285, #84 ) ;
#245 = VERTEX_POINT ( 'NONE', #51 ) ;
#246 = EDGE_CURVE ( 'NONE', #199, #104, #111, .T. ) ;
#247 = PRESENTATION_STYLE_ASSIGNMENT (( #92 ) ) ;
#248 = DIRECTION ( 'NONE',  ( 1.224646799147353207E-16, 0.0000000000000000000, 1.000000000000000000 ) ) ;
#249 = AXIS2_PLACEMENT_3D ( 'NONE', #124, #14, #218 ) ;
#250 = DIRECTION ( 'NONE',  ( 1.000000000000000000, 0.0000000000000000000, -0.0000000000000000000 ) ) ;
#251 = LINE ( 'NONE', #205, #38 ) ;
#252 = CARTESIAN_POINT ( 'NONE',  ( 0.0000000000000000000, 0.0000000000000000000, 5.000000000000000000 ) ) ;
#253 = AXIS2_PLACEMENT_3D ( 'NONE', #294, #20, #250 ) ;
#254 = CIRCLE ( 'NONE', #216, 0.5000000000000000000 ) ;
#255 = CARTESIAN_POINT ( 'NONE',  ( 0.0000000000000000000, 0.0000000000000000000, 0.0000000000000000000 ) ) ;
#256 =( NAMED_UNIT ( * ) SI_UNIT ( $, .STERADIAN. ) SOLID_ANGLE_UNIT ( ) );
#257 = CARTESIAN_POINT ( 'NONE',  ( 0.5000000000000002220, 6.123233995736768501E-17, 2.502835640909808923 ) ) ;
#258 = AXIS2_PLACEMENT_3D ( 'NONE', #71, #296, #153 ) ;
#259 = DIRECTION ( 'NONE',  ( 0.7071067811865443531, 8.659560562354894648E-17, -0.7071067811865507924 ) ) ;
#260 = CARTESIAN_POINT ( 'NONE',  ( 0.0000000000000000000, 0.0000000000000000000, 5.000000000000000000 ) ) ;
#261 = SURFACE_STYLE_FILL_AREA ( #169 ) ;
#262 = ORIENTED_EDGE ( 'NONE', *, *, #246, .F. ) ;
#263 = FACE_OUTER_BOUND ( 'NONE', #61, .T. ) ;
#264 = ORIENTED_EDGE ( 'NONE', *, *, #192, .T. ) ;
#265 = EDGE_LOOP ( 'NONE', ( #242, #146, #223, #225 ) ) ;
#266 = DIRECTION ( 'NONE',  ( -1.000000000000000000, 0.0000000000000000000, 1.224646799147353454E-16 ) ) ;
#267 = CIRCLE ( 'NONE', #137, 0.5000000000000000000 ) ;
#268 =( GEOMETRIC_REPRESENTATION_CONTEXT ( 3 ) GLOBAL_UNCERTAINTY_ASSIGNED_CONTEXT ( ( #224 ) ) GLOBAL_UNIT_ASSIGNED_CONTEXT ( ( #143, #183, #52 ) ) REPRESENTATION_CONTEXT ( 'NONE', 'WORKASPACE' ) );
#269 = CARTESIAN_POINT ( 'NONE',  ( 0.4994999999999999996, 6.117110761741029900E-17, 0.0000000000000000000 ) ) ;
#270 = LENGTH_MEASURE_WITH_UNIT ( LENGTH_MEASURE( 0.02539999999999999897 ), #59 );
#271 = DIRECTION ( 'NONE',  ( -0.0000000000000000000, -0.0000000000000000000, -1.000000000000000000 ) ) ;
#272 = CARTESIAN_POINT ( 'NONE',  ( 3.065089656432111634E-16, 0.0000000000000000000, 2.502835640909808923 ) ) ;
#273 = EDGE_CURVE ( 'NONE', #121, #80, #18, .T. ) ;
#274 = CARTESIAN_POINT ( 'NONE',  ( 0.0000000000000000000, 0.0000000000000000000, 5.000000000000000000 ) ) ;
#275 = DIRECTION ( 'NONE',  ( 1.000000000000000000, 0.0000000000000000000, 0.0000000000000000000 ) ) ;
#276 = LENGTH_MEASURE_WITH_UNIT ( LENGTH_MEASURE( 0.02539999999999999897 ), #6 );
#277 = DIRECTION ( 'NONE',  ( -1.224646799147353207E-16, -0.0000000000000000000, -1.000000000000000000 ) ) ;
#278 = CARTESIAN_POINT ( 'NONE',  ( 7.491300114395979244E-33, 0.0000000000000000000, 6.117110761741029900E-17 ) ) ;
#279 = DIMENSIONAL_EXPONENTS ( 1.000000000000000000, 0.0000000000000000000, 0.0000000000000000000, 0.0000000000000000000, 0.0000000000000000000, 0.0000000000000000000, 0.0000000000000000000 ) ;
#280 = ORIENTED_EDGE ( 'NONE', *, *, #147, .F. ) ;
#281 = ADVANCED_FACE ( 'NONE', ( #78 ), #30, .T. ) ;
#282 = AXIS2_PLACEMENT_3D ( 'NONE', #181, #159, #112 ) ;
#283 = VECTOR ( 'NONE', #259, 39.37007874015748143 ) ;
#284 = ORIENTED_EDGE ( 'NONE', *, *, #297, .F. ) ;
#285 = DIRECTION ( 'NONE',  ( 0.0000000000000000000, 0.0000000000000000000, 1.000000000000000000 ) ) ;
#286 = EDGE_LOOP ( 'NONE', ( #280, #39, #130, #40 ) ) ;
#287 = DIRECTION ( 'NONE',  ( 1.000000000000000000, 0.0000000000000000000, 0.0000000000000000000 ) ) ;
#288 = UNCERTAINTY_MEASURE_WITH_UNIT (LENGTH_MEASURE( 1.000000000000000082E-05 ), #106, 'distance_accuracy_value', 'NONE');
#289 = ORIENTED_EDGE ( 'NONE', *, *, #65, .F. ) ;
#290 = PRESENTATION_LAYER_ASSIGNMENT (  '', '', ( #57 ) ) ;
#291 = CARTESIAN_POINT ( 'NONE',  ( -0.5000000000000000000, 0.0000000000000000000, 4.985000000000000320 ) ) ;
#292 = DIRECTION ( 'NONE',  ( -0.0000000000000000000, -0.0000000000000000000, -1.000000000000000000 ) ) ;
#293 = EDGE_CURVE ( 'NONE', #15, #16, #167, .T. ) ;
#294 = CARTESIAN_POINT ( 'NONE',  ( 0.0000000000000000000, 0.0000000000000000000, 0.0000000000000000000 ) ) ;
#295 = CIRCLE ( 'NONE', #166, 0.5000000000000000000 ) ;
#296 = DIRECTION ( 'NONE',  ( -1.224646799147353207E-16, -0.0000000000000000000, -1.000000000000000000 ) ) ;
#297 = EDGE_CURVE ( 'NONE', #101, #16, #254, .T. ) ;
#298 = FACE_OUTER_BOUND ( 'NONE', #128, .T. ) ;
#299 = APPLICATION_CONTEXT ( 'automotive_design' ) ;
ENDSEC;
END-ISO-10303-21;
