ISO-10303-21;
HEADER;
FILE_DESCRIPTION (( 'STEP AP214' ),
    '1' );
FILE_NAME ('Micro_AMRM-013-2.STEP',
    '2021-09-01T17:13:29',
    ( '' ),
    ( '' ),
    'SwSTEP 2.0',
    'SolidWorks 2020',
    '' );
FILE_SCHEMA (( 'AUTOMOTIVE_DESIGN' ));
ENDSEC;

DATA;
#1 = UNCERTAINTY_MEASURE_WITH_UNIT (LENGTH_MEASURE( 1.000000000000000082E-05 ), #135, 'distance_accuracy_value', 'NONE');
#2 = DIRECTION ( 'NONE',  ( 1.224646799147353207E-16, 0.0000000000000000000, 1.000000000000000000 ) ) ;
#3 = AXIS2_PLACEMENT_3D ( 'NONE', #171, #266, #50 ) ;
#4 = VERTEX_POINT ( 'NONE', #79 ) ;
#5 = ADVANCED_FACE ( 'NONE', ( #167 ), #230, .T. ) ;
#6 = DIRECTION ( 'NONE',  ( 0.0000000000000000000, 0.0000000000000000000, 1.000000000000000000 ) ) ;
#7 = VERTEX_POINT ( 'NONE', #120 ) ;
#8 = DIRECTION ( 'NONE',  ( 1.000000000000000000, 0.0000000000000000000, 0.0000000000000000000 ) ) ;
#9 = AXIS2_PLACEMENT_3D ( 'NONE', #43, #272, #297 ) ;
#10 = PRESENTATION_STYLE_ASSIGNMENT (( #217 ) ) ;
#11 = CARTESIAN_POINT ( 'NONE',  ( -0.02556490949999998263, 6.386833677726468869E-18, 0.1535430000000000128 ) ) ;
#12 = DIRECTION ( 'NONE',  ( -0.1736481776669311916, 2.126576849575783316E-17, 0.9848077530122080203 ) ) ;
#13 = CIRCLE ( 'NONE', #270, 0.07874000000000001831 ) ;
#14 = DIMENSIONAL_EXPONENTS ( 1.000000000000000000, 0.0000000000000000000, 0.0000000000000000000, 0.0000000000000000000, 0.0000000000000000000, 0.0000000000000000000, 0.0000000000000000000 ) ;
#15 = ADVANCED_FACE ( 'NONE', ( #121 ), #260, .T. ) ;
#16 = FILL_AREA_STYLE ('',( #248 ) ) ;
#17 = AXIS2_PLACEMENT_3D ( 'NONE', #144, #119, #123 ) ;
#18 = ORIENTED_EDGE ( 'NONE', *, *, #107, .T. ) ;
#19 = LENGTH_MEASURE_WITH_UNIT ( LENGTH_MEASURE( 0.02539999999999999897 ), #222 );
#20 = PRODUCT_DEFINITION_SHAPE ( 'NONE', 'NONE',  #35 ) ;
#21 = ORIENTED_EDGE ( 'NONE', *, *, #89, .T. ) ;
#22 = LINE ( 'NONE', #72, #71 ) ;
#23 = ORIENTED_EDGE ( 'NONE', *, *, #275, .T. ) ;
#24 = AXIS2_PLACEMENT_3D ( 'NONE', #62, #110, #149 ) ;
#25 = ORIENTED_EDGE ( 'NONE', *, *, #247, .F. ) ;
#26 = VERTEX_POINT ( 'NONE', #262 ) ;
#27 = DIRECTION ( 'NONE',  ( 1.000000000000000000, 0.0000000000000000000, 0.0000000000000000000 ) ) ;
#28 = DIRECTION ( 'NONE',  ( 0.0000000000000000000, 0.0000000000000000000, 1.000000000000000000 ) ) ;
#29 = ADVANCED_BREP_SHAPE_REPRESENTATION ( 'Micro_AMRM-013-2', ( #87, #224 ), #296 ) ;
#30 = ORIENTED_EDGE ( 'NONE', *, *, #64, .F. ) ;
#31 =( NAMED_UNIT ( * ) PLANE_ANGLE_UNIT ( ) SI_UNIT ( $, .RADIAN. ) );
#32 = CARTESIAN_POINT ( 'NONE',  ( 0.02556490950000001733, 0.0000000000000000000, 0.1535430000000000128 ) ) ;
#33 =( LENGTH_UNIT ( ) NAMED_UNIT ( * ) SI_UNIT ( $, .METRE. ) );
#34 = VECTOR ( 'NONE', #263, 39.37007874015748143 ) ;
#35 = PRODUCT_DEFINITION ( 'UNKNOWN', '', #236, #160 ) ;
#36 = LINE ( 'NONE', #80, #34 ) ;
#37 = LINE ( 'NONE', #214, #235 ) ;
#38 = ADVANCED_FACE ( 'NONE', ( #182 ), #152, .T. ) ;
#39 = DIMENSIONAL_EXPONENTS ( 1.000000000000000000, 0.0000000000000000000, 0.0000000000000000000, 0.0000000000000000000, 0.0000000000000000000, 0.0000000000000000000, 0.0000000000000000000 ) ;
#40 = FACE_OUTER_BOUND ( 'NONE', #142, .T. ) ;
#41 = AXIS2_PLACEMENT_3D ( 'NONE', #74, #166, #209 ) ;
#42 = VECTOR ( 'NONE', #92, 39.37007874015748143 ) ;
#43 = CARTESIAN_POINT ( 'NONE',  ( 0.0000000000000000000, 0.0000000000000000000, 0.0000000000000000000 ) ) ;
#44 = DIRECTION ( 'NONE',  ( -1.224646799147353207E-16, -0.0000000000000000000, -1.000000000000000000 ) ) ;
#45 = DIRECTION ( 'NONE',  ( 1.000000000000000000, 0.0000000000000000000, -0.0000000000000000000 ) ) ;
#46 = EDGE_CURVE ( 'NONE', #7, #178, #173, .T. ) ;
#47 = AXIS2_PLACEMENT_3D ( 'NONE', #259, #2, #237 ) ;
#48 = FACE_OUTER_BOUND ( 'NONE', #295, .T. ) ;
#49 = ORIENTED_EDGE ( 'NONE', *, *, #158, .F. ) ;
#50 = DIRECTION ( 'NONE',  ( 1.000000000000000000, 0.0000000000000000000, 0.0000000000000000000 ) ) ;
#51 = CONICAL_SURFACE ( 'NONE', #118, 0.06374000000000018540, 0.7853981633974528309 ) ;
#52 = CIRCLE ( 'NONE', #255, 0.07874000000000001831 ) ;
#53 = LENGTH_MEASURE_WITH_UNIT ( LENGTH_MEASURE( 0.02539999999999999897 ), #226 );
#54 = EDGE_LOOP ( 'NONE', ( #208, #157, #21, #155 ) ) ;
#55 = CARTESIAN_POINT ( 'NONE',  ( 3.834122311549006146E-34, 0.0000000000000000000, 3.130798458966676147E-18 ) ) ;
#56 = EDGE_LOOP ( 'NONE', ( #141, #60, #199, #30 ) ) ;
#57 = ADVANCED_FACE ( 'NONE', ( #184 ), #51, .T. ) ;
#58 = VECTOR ( 'NONE', #286, 39.37007874015748143 ) ;
#59 = CIRCLE ( 'NONE', #129, 0.02556490949999999998 ) ;
#60 = ORIENTED_EDGE ( 'NONE', *, *, #210, .T. ) ;
#61 = FILL_AREA_STYLE_COLOUR ( '', #134 ) ;
#62 = CARTESIAN_POINT ( 'NONE',  ( 0.0000000000000000000, 0.0000000000000000000, 1.968503999999999809 ) ) ;
#63 = AXIS2_PLACEMENT_3D ( 'NONE', #207, #231, #27 ) ;
#64 = EDGE_CURVE ( 'NONE', #256, #228, #203, .T. ) ;
#65 = FACE_OUTER_BOUND ( 'NONE', #94, .T. ) ;
#66 = DIRECTION ( 'NONE',  ( 0.0000000000000000000, 0.0000000000000000000, -1.000000000000000000 ) ) ;
#67 = AXIS2_PLACEMENT_3D ( 'NONE', #55, #100, #185 ) ;
#68 = CARTESIAN_POINT ( 'NONE',  ( 3.834122311549006146E-34, 0.0000000000000000000, 3.130798458966676147E-18 ) ) ;
#69 = VERTEX_POINT ( 'NONE', #281 ) ;
#70 = VERTEX_POINT ( 'NONE', #164 ) ;
#71 = VECTOR ( 'NONE', #293, 39.37007874015748143 ) ;
#72 = CARTESIAN_POINT ( 'NONE',  ( -0.06374000000000018540, 0.0000000000000000000, 1.968503999999999809 ) ) ;
#73 = ADVANCED_FACE ( 'NONE', ( #122 ), #213, .T. ) ;
#74 = CARTESIAN_POINT ( 'NONE',  ( 1.880359434814820563E-17, 0.0000000000000000000, 0.1535430000000000128 ) ) ;
#75 = EDGE_LOOP ( 'NONE', ( #117, #23, #299, #103 ) ) ;
#76 = PRODUCT_RELATED_PRODUCT_CATEGORY ( 'part', '', ( #183 ) ) ;
#77 = ORIENTED_EDGE ( 'NONE', *, *, #165, .T. ) ;
#78 = VERTEX_POINT ( 'NONE', #32 ) ;
#79 = CARTESIAN_POINT ( 'NONE',  ( -0.07874000000000001831, 0.0000000000000000000, 1.953504000000000129 ) ) ;
#80 = CARTESIAN_POINT ( 'NONE',  ( -0.07874000000000001831, 0.0000000000000000000, 1.968503999999999809 ) ) ;
#81 = CARTESIAN_POINT ( 'NONE',  ( 0.0000000000000000000, 0.0000000000000000000, 1.968503999999999809 ) ) ;
#82 = FILL_AREA_STYLE ('',( #61 ) ) ;
#83 = AXIS2_PLACEMENT_3D ( 'NONE', #294, #133, #45 ) ;
#84 = APPLICATION_CONTEXT ( 'automotive_design' ) ;
#85 = DIRECTION ( 'NONE',  ( 0.1736481776669313859, 0.0000000000000000000, 0.9848077530122077983 ) ) ;
#86 =( CONVERSION_BASED_UNIT ( 'INCH', #145 ) LENGTH_UNIT ( ) NAMED_UNIT ( #241 ) );
#87 = MANIFOLD_SOLID_BREP ( 'Cut-Revolve1', #233 ) ;
#88 =( NAMED_UNIT ( * ) PLANE_ANGLE_UNIT ( ) SI_UNIT ( $, .RADIAN. ) );
#89 = EDGE_CURVE ( 'NONE', #78, #26, #124, .T. ) ;
#90 = CARTESIAN_POINT ( 'NONE',  ( 1.880359434814820563E-17, 0.0000000000000000000, 0.1535430000000000128 ) ) ;
#91 = ORIENTED_EDGE ( 'NONE', *, *, #140, .F. ) ;
#92 = DIRECTION ( 'NONE',  ( -1.224646799147353207E-16, -0.0000000000000000000, -1.000000000000000000 ) ) ;
#93 = ADVANCED_FACE ( 'NONE', ( #192 ), #284, .T. ) ;
#94 = EDGE_LOOP ( 'NONE', ( #257, #180, #250, #91 ) ) ;
#95 = DIRECTION ( 'NONE',  ( -1.224646799147353207E-16, -0.0000000000000000000, -1.000000000000000000 ) ) ;
#96 = ORIENTED_EDGE ( 'NONE', *, *, #107, .F. ) ;
#97 = EDGE_LOOP ( 'NONE', ( #143, #225 ) ) ;
#98 = AXIS2_PLACEMENT_3D ( 'NONE', #150, #168, #146 ) ;
#99 = STYLED_ITEM ( 'NONE', ( #251 ), #29 ) ;
#100 = DIRECTION ( 'NONE',  ( -1.224646799147353207E-16, -0.0000000000000000000, -1.000000000000000000 ) ) ;
#101 =( NAMED_UNIT ( * ) SI_UNIT ( $, .STERADIAN. ) SOLID_ANGLE_UNIT ( ) );
#102 = DIRECTION ( 'NONE',  ( 1.000000000000000000, 0.0000000000000000000, -0.0000000000000000000 ) ) ;
#103 = ORIENTED_EDGE ( 'NONE', *, *, #252, .F. ) ;
#104 = MECHANICAL_DESIGN_GEOMETRIC_PRESENTATION_REPRESENTATION (  '', ( #254 ), #244 ) ;
#105 = CYLINDRICAL_SURFACE ( 'NONE', #194, 0.02556490949999999998 ) ;
#106 = CARTESIAN_POINT ( 'NONE',  ( -0.02556490949999998263, 3.130798458966676147E-18, 0.1535430000000000128 ) ) ;
#107 = EDGE_CURVE ( 'NONE', #70, #4, #13, .T. ) ;
#108 = CIRCLE ( 'NONE', #276, 0.06374000000000018540 ) ;
#109 = PRESENTATION_LAYER_ASSIGNMENT (  '', '', ( #99 ) ) ;
#110 = DIRECTION ( 'NONE',  ( 0.0000000000000000000, 0.0000000000000000000, -1.000000000000000000 ) ) ;
#111 = SURFACE_STYLE_FILL_AREA ( #16 ) ;
#112 =( NAMED_UNIT ( * ) SI_UNIT ( $, .STERADIAN. ) SOLID_ANGLE_UNIT ( ) );
#113 = EDGE_LOOP ( 'NONE', ( #25, #205, #273, #201 ) ) ;
#114 = EDGE_CURVE ( 'NONE', #26, #69, #125, .T. ) ;
#115 = ORIENTED_EDGE ( 'NONE', *, *, #275, .F. ) ;
#116 = DIRECTION ( 'NONE',  ( -1.000000000000000000, 0.0000000000000000000, 0.0000000000000000000 ) ) ;
#117 = ORIENTED_EDGE ( 'NONE', *, *, #148, .F. ) ;
#118 = AXIS2_PLACEMENT_3D ( 'NONE', #161, #280, #163 ) ;
#119 = DIRECTION ( 'NONE',  ( -0.0000000000000000000, -0.0000000000000000000, -1.000000000000000000 ) ) ;
#120 = CARTESIAN_POINT ( 'NONE',  ( -0.06374000000000018540, 0.0000000000000000000, 1.968503999999999809 ) ) ;
#121 = FACE_OUTER_BOUND ( 'NONE', #54, .T. ) ;
#122 = FACE_OUTER_BOUND ( 'NONE', #97, .T. ) ;
#123 = DIRECTION ( 'NONE',  ( -1.000000000000000000, 0.0000000000000000000, 0.0000000000000000000 ) ) ;
#124 = LINE ( 'NONE', #287, #191 ) ;
#125 = CIRCLE ( 'NONE', #162, 0.07874000000000001831 ) ;
#126 = DIRECTION ( 'NONE',  ( 1.000000000000000000, 0.0000000000000000000, 0.0000000000000000000 ) ) ;
#127 = CARTESIAN_POINT ( 'NONE',  ( 5.573538102852276524E-17, 0.0000000000000000000, 0.4551139240091747751 ) ) ;
#128 = CARTESIAN_POINT ( 'NONE',  ( 0.07874000000000001831, 9.642868896486260050E-18, 1.968503999999999809 ) ) ;
#129 = AXIS2_PLACEMENT_3D ( 'NONE', #68, #95, #132 ) ;
#130 = SURFACE_STYLE_FILL_AREA ( #82 ) ;
#131 = DIRECTION ( 'NONE',  ( 1.000000000000000000, 0.0000000000000000000, 0.0000000000000000000 ) ) ;
#132 = DIRECTION ( 'NONE',  ( -1.000000000000000000, 0.0000000000000000000, 1.224646799147353207E-16 ) ) ;
#133 = DIRECTION ( 'NONE',  ( 0.0000000000000000000, 0.0000000000000000000, 1.000000000000000000 ) ) ;
#134 = COLOUR_RGB ( '',0.7921568627450980005, 0.8196078431372548767, 0.9333333333333333481 ) ;
#135 =( CONVERSION_BASED_UNIT ( 'INCH', #19 ) LENGTH_UNIT ( ) NAMED_UNIT ( #14 ) );
#136 = CARTESIAN_POINT ( 'NONE',  ( -0.02556490949999999998, 0.0000000000000000000, 6.261596917933352294E-18 ) ) ;
#137 = UNCERTAINTY_MEASURE_WITH_UNIT (LENGTH_MEASURE( 1.000000000000000082E-05 ), #211, 'distance_accuracy_value', 'NONE');
#138 = ORIENTED_EDGE ( 'NONE', *, *, #261, .T. ) ;
#139 = DIRECTION ( 'NONE',  ( 1.000000000000000000, 0.0000000000000000000, 0.0000000000000000000 ) ) ;
#140 = EDGE_CURVE ( 'NONE', #196, #228, #37, .T. ) ;
#141 = ORIENTED_EDGE ( 'NONE', *, *, #232, .F. ) ;
#142 = EDGE_LOOP ( 'NONE', ( #49, #18, #77, #187 ) ) ;
#143 = ORIENTED_EDGE ( 'NONE', *, *, #46, .T. ) ;
#144 = CARTESIAN_POINT ( 'NONE',  ( 0.0000000000000000000, 0.0000000000000000000, 1.968503999999999809 ) ) ;
#145 = LENGTH_MEASURE_WITH_UNIT ( LENGTH_MEASURE( 0.02539999999999999897 ), #33 );
#146 = DIRECTION ( 'NONE',  ( -1.000000000000000000, 0.0000000000000000000, 0.0000000000000000000 ) ) ;
#147 =( NAMED_UNIT ( * ) SI_UNIT ( $, .STERADIAN. ) SOLID_ANGLE_UNIT ( ) );
#148 = EDGE_CURVE ( 'NONE', #178, #7, #108, .T. ) ;
#149 = DIRECTION ( 'NONE',  ( -1.000000000000000000, 0.0000000000000000000, 0.0000000000000000000 ) ) ;
#150 = CARTESIAN_POINT ( 'NONE',  ( 0.0000000000000000000, 0.0000000000000000000, 1.968503999999999809 ) ) ;
#151 = ADVANCED_FACE ( 'NONE', ( #65 ), #105, .T. ) ;
#152 = CONICAL_SURFACE ( 'NONE', #47, 0.02556490949999999998, 0.1745329251994338915 ) ;
#153 = AXIS2_PLACEMENT_3D ( 'NONE', #227, #44, #116 ) ;
#154 = CARTESIAN_POINT ( 'NONE',  ( 0.02556490949999999998, 3.130798458966676147E-18, 0.0000000000000000000 ) ) ;
#155 = ORIENTED_EDGE ( 'NONE', *, *, #114, .T. ) ;
#156 = SURFACE_STYLE_USAGE ( .BOTH. , #175 ) ;
#157 = ORIENTED_EDGE ( 'NONE', *, *, #210, .F. ) ;
#158 = EDGE_CURVE ( 'NONE', #70, #26, #188, .T. ) ;
#159 = APPLICATION_PROTOCOL_DEFINITION ( 'draft international standard', 'automotive_design', 1998, #84 ) ;
#160 = PRODUCT_DEFINITION_CONTEXT ( 'detailed design', #84, 'design' ) ;
#161 = CARTESIAN_POINT ( 'NONE',  ( 0.0000000000000000000, 0.0000000000000000000, 1.968503999999999809 ) ) ;
#162 = AXIS2_PLACEMENT_3D ( 'NONE', #127, #189, #240 ) ;
#163 = DIRECTION ( 'NONE',  ( -1.000000000000000000, 0.0000000000000000000, 0.0000000000000000000 ) ) ;
#164 = CARTESIAN_POINT ( 'NONE',  ( 0.07874000000000001831, 9.642868896486260050E-18, 1.953504000000000129 ) ) ;
#165 = EDGE_CURVE ( 'NONE', #4, #69, #36, .T. ) ;
#166 = DIRECTION ( 'NONE',  ( 1.224646799147353207E-16, 0.0000000000000000000, 1.000000000000000000 ) ) ;
#167 = FACE_OUTER_BOUND ( 'NONE', #258, .T. ) ;
#168 = DIRECTION ( 'NONE',  ( -0.0000000000000000000, -0.0000000000000000000, -1.000000000000000000 ) ) ;
#169 = DIRECTION ( 'NONE',  ( 0.0000000000000000000, 0.0000000000000000000, 1.000000000000000000 ) ) ;
#170 = CIRCLE ( 'NONE', #174, 0.02556490949999999998 ) ;
#171 = CARTESIAN_POINT ( 'NONE',  ( 5.573538102852276524E-17, 0.0000000000000000000, 0.4551139240091747751 ) ) ;
#172 = DIRECTION ( 'NONE',  ( -1.224646799147353207E-16, -0.0000000000000000000, -1.000000000000000000 ) ) ;
#173 = CIRCLE ( 'NONE', #63, 0.06374000000000018540 ) ;
#174 = AXIS2_PLACEMENT_3D ( 'NONE', #90, #202, #290 ) ;
#175 = SURFACE_SIDE_STYLE ('',( #111 ) ) ;
#176 = ADVANCED_FACE ( 'NONE', ( #40 ), #219, .T. ) ;
#177 = CARTESIAN_POINT ( 'NONE',  ( 0.06374000000000018540, 7.805898697765251255E-18, 1.968503999999999809 ) ) ;
#178 = VERTEX_POINT ( 'NONE', #218 ) ;
#179 = LINE ( 'NONE', #274, #42 ) ;
#180 = ORIENTED_EDGE ( 'NONE', *, *, #232, .T. ) ;
#181 = ORIENTED_EDGE ( 'NONE', *, *, #46, .F. ) ;
#182 = FACE_OUTER_BOUND ( 'NONE', #113, .T. ) ;
#183 = PRODUCT ( 'Micro_AMRM-013-2', 'Micro_AMRM-013-2', '', ( #282 ) ) ;
#184 = FACE_OUTER_BOUND ( 'NONE', #298, .T. ) ;
#185 = DIRECTION ( 'NONE',  ( -1.000000000000000000, 0.0000000000000000000, 1.224646799147353207E-16 ) ) ;
#186 = ORIENTED_EDGE ( 'NONE', *, *, #252, .T. ) ;
#187 = ORIENTED_EDGE ( 'NONE', *, *, #114, .F. ) ;
#188 = LINE ( 'NONE', #128, #58 ) ;
#189 = DIRECTION ( 'NONE',  ( -1.224646799147353207E-16, -0.0000000000000000000, -1.000000000000000000 ) ) ;
#190 = DIRECTION ( 'NONE',  ( -1.000000000000000000, 0.0000000000000000000, 1.224646799147353207E-16 ) ) ;
#191 = VECTOR ( 'NONE', #85, 39.37007874015748143 ) ;
#192 = FACE_OUTER_BOUND ( 'NONE', #75, .T. ) ;
#193 = DIRECTION ( 'NONE',  ( 0.0000000000000000000, 0.0000000000000000000, -1.000000000000000000 ) ) ;
#194 = AXIS2_PLACEMENT_3D ( 'NONE', #264, #172, #190 ) ;
#195 = PLANE ( 'NONE',  #83 ) ;
#196 = VERTEX_POINT ( 'NONE', #11 ) ;
#197 = EDGE_CURVE ( 'NONE', #196, #69, #243, .T. ) ;
#198 = CARTESIAN_POINT ( 'NONE',  ( 0.0000000000000000000, 0.0000000000000000000, 1.953504000000000129 ) ) ;
#199 = ORIENTED_EDGE ( 'NONE', *, *, #140, .T. ) ;
#200 = APPLICATION_PROTOCOL_DEFINITION ( 'draft international standard', 'automotive_design', 1998, #268 ) ;
#201 = ORIENTED_EDGE ( 'NONE', *, *, #89, .F. ) ;
#202 = DIRECTION ( 'NONE',  ( -1.224646799147353207E-16, -0.0000000000000000000, -1.000000000000000000 ) ) ;
#203 = CIRCLE ( 'NONE', #67, 0.02556490949999999998 ) ;
#204 = EDGE_CURVE ( 'NONE', #69, #26, #265, .T. ) ;
#205 = ORIENTED_EDGE ( 'NONE', *, *, #197, .T. ) ;
#206 = UNCERTAINTY_MEASURE_WITH_UNIT (LENGTH_MEASURE( 1.000000000000000082E-05 ), #86, 'distance_accuracy_value', 'NONE');
#207 = CARTESIAN_POINT ( 'NONE',  ( 0.0000000000000000000, 0.0000000000000000000, 1.968503999999999809 ) ) ;
#208 = ORIENTED_EDGE ( 'NONE', *, *, #197, .F. ) ;
#209 = DIRECTION ( 'NONE',  ( 1.000000000000000000, 0.0000000000000000000, 0.0000000000000000000 ) ) ;
#210 = EDGE_CURVE ( 'NONE', #78, #196, #170, .T. ) ;
#211 =( CONVERSION_BASED_UNIT ( 'INCH', #53 ) LENGTH_UNIT ( ) NAMED_UNIT ( #39 ) );
#212 = CARTESIAN_POINT ( 'NONE',  ( 0.0000000000000000000, 0.0000000000000000000, 1.968503999999999809 ) ) ;
#213 = PLANE ( 'NONE',  #279 ) ;
#214 = CARTESIAN_POINT ( 'NONE',  ( -0.02556490949999999998, 0.0000000000000000000, 3.130798458966676147E-18 ) ) ;
#215 = ADVANCED_FACE ( 'NONE', ( #48 ), #195, .F. ) ;
#216 = CIRCLE ( 'NONE', #153, 0.02556490949999999998 ) ;
#217 = SURFACE_STYLE_USAGE ( .BOTH. , #289 ) ;
#218 = CARTESIAN_POINT ( 'NONE',  ( 0.06374000000000018540, 8.724383797125754882E-18, 1.968503999999999809 ) ) ;
#219 = CYLINDRICAL_SURFACE ( 'NONE', #98, 0.07874000000000001831 ) ;
#220 = VECTOR ( 'NONE', #12, 39.37007874015747433 ) ;
#221 = MECHANICAL_DESIGN_GEOMETRIC_PRESENTATION_REPRESENTATION (  '', ( #99 ), #238 ) ;
#222 =( LENGTH_UNIT ( ) NAMED_UNIT ( * ) SI_UNIT ( $, .METRE. ) );
#223 = EDGE_CURVE ( 'NONE', #4, #70, #52, .T. ) ;
#224 = AXIS2_PLACEMENT_3D ( 'NONE', #253, #28, #139 ) ;
#225 = ORIENTED_EDGE ( 'NONE', *, *, #148, .T. ) ;
#226 =( LENGTH_UNIT ( ) NAMED_UNIT ( * ) SI_UNIT ( $, .METRE. ) );
#227 = CARTESIAN_POINT ( 'NONE',  ( 1.880359434814820563E-17, 0.0000000000000000000, 0.1535430000000000128 ) ) ;
#228 = VERTEX_POINT ( 'NONE', #136 ) ;
#229 = SHAPE_DEFINITION_REPRESENTATION ( #20, #29 ) ;
#230 = CYLINDRICAL_SURFACE ( 'NONE', #17, 0.07874000000000001831 ) ;
#231 = DIRECTION ( 'NONE',  ( 0.0000000000000000000, 0.0000000000000000000, 1.000000000000000000 ) ) ;
#232 = EDGE_CURVE ( 'NONE', #78, #256, #179, .T. ) ;
#233 = CLOSED_SHELL ( 'NONE', ( #151, #38, #93, #5, #176, #73, #57, #15, #242, #215 ) ) ;
#234 = ORIENTED_EDGE ( 'NONE', *, *, #223, .T. ) ;
#235 = VECTOR ( 'NONE', #288, 39.37007874015748143 ) ;
#236 = PRODUCT_DEFINITION_FORMATION_WITH_SPECIFIED_SOURCE ( 'ANY', '', #183, .NOT_KNOWN. ) ;
#237 = DIRECTION ( 'NONE',  ( 1.000000000000000000, 0.0000000000000000000, 0.0000000000000000000 ) ) ;
#238 =( GEOMETRIC_REPRESENTATION_CONTEXT ( 3 ) GLOBAL_UNCERTAINTY_ASSIGNED_CONTEXT ( ( #137 ) ) GLOBAL_UNIT_ASSIGNED_CONTEXT ( ( #211, #31, #101 ) ) REPRESENTATION_CONTEXT ( 'NONE', 'WORKASPACE' ) );
#239 = CARTESIAN_POINT ( 'NONE',  ( 0.0000000000000000000, 0.0000000000000000000, 1.953504000000000129 ) ) ;
#240 = DIRECTION ( 'NONE',  ( 1.000000000000000000, 0.0000000000000000000, 0.0000000000000000000 ) ) ;
#241 = DIMENSIONAL_EXPONENTS ( 1.000000000000000000, 0.0000000000000000000, 0.0000000000000000000, 0.0000000000000000000, 0.0000000000000000000, 0.0000000000000000000, 0.0000000000000000000 ) ;
#242 = ADVANCED_FACE ( 'NONE', ( #269 ), #292, .T. ) ;
#243 = LINE ( 'NONE', #106, #220 ) ;
#244 =( GEOMETRIC_REPRESENTATION_CONTEXT ( 3 ) GLOBAL_UNCERTAINTY_ASSIGNED_CONTEXT ( ( #206 ) ) GLOBAL_UNIT_ASSIGNED_CONTEXT ( ( #86, #267, #147 ) ) REPRESENTATION_CONTEXT ( 'NONE', 'WORKASPACE' ) );
#245 = VECTOR ( 'NONE', #246, 39.37007874015748143 ) ;
#246 = DIRECTION ( 'NONE',  ( 0.7071067811865507924, 8.659560562354973534E-17, -0.7071067811865443531 ) ) ;
#247 = EDGE_CURVE ( 'NONE', #196, #78, #216, .T. ) ;
#248 = FILL_AREA_STYLE_COLOUR ( '', #271 ) ;
#249 = ORIENTED_EDGE ( 'NONE', *, *, #64, .T. ) ;
#250 = ORIENTED_EDGE ( 'NONE', *, *, #261, .F. ) ;
#251 = PRESENTATION_STYLE_ASSIGNMENT (( #156 ) ) ;
#252 = EDGE_CURVE ( 'NONE', #7, #4, #22, .T. ) ;
#253 = CARTESIAN_POINT ( 'NONE',  ( 0.0000000000000000000, 0.0000000000000000000, 0.0000000000000000000 ) ) ;
#254 = STYLED_ITEM ( 'NONE', ( #10 ), #87 ) ;
#255 = AXIS2_PLACEMENT_3D ( 'NONE', #198, #66, #131 ) ;
#256 = VERTEX_POINT ( 'NONE', #154 ) ;
#257 = ORIENTED_EDGE ( 'NONE', *, *, #247, .T. ) ;
#258 = EDGE_LOOP ( 'NONE', ( #234, #278, #283, #285 ) ) ;
#259 = CARTESIAN_POINT ( 'NONE',  ( 1.880359434814820563E-17, 0.0000000000000000000, 0.1535430000000000128 ) ) ;
#260 = CONICAL_SURFACE ( 'NONE', #41, 0.02556490949999999998, 0.1745329251994338915 ) ;
#261 = EDGE_CURVE ( 'NONE', #228, #256, #59, .T. ) ;
#262 = CARTESIAN_POINT ( 'NONE',  ( 0.07874000000000007382, 9.642868896486266213E-18, 0.4551139240091747751 ) ) ;
#263 = DIRECTION ( 'NONE',  ( -0.0000000000000000000, -0.0000000000000000000, -1.000000000000000000 ) ) ;
#264 = CARTESIAN_POINT ( 'NONE',  ( 0.0000000000000000000, 0.0000000000000000000, 0.0000000000000000000 ) ) ;
#265 = CIRCLE ( 'NONE', #3, 0.07874000000000001831 ) ;
#266 = DIRECTION ( 'NONE',  ( -1.224646799147353207E-16, -0.0000000000000000000, -1.000000000000000000 ) ) ;
#267 =( NAMED_UNIT ( * ) PLANE_ANGLE_UNIT ( ) SI_UNIT ( $, .RADIAN. ) );
#268 = APPLICATION_CONTEXT ( 'automotive_design' ) ;
#269 = FACE_OUTER_BOUND ( 'NONE', #56, .T. ) ;
#270 = AXIS2_PLACEMENT_3D ( 'NONE', #239, #193, #126 ) ;
#271 = COLOUR_RGB ( '',0.7921568627450980005, 0.8196078431372548767, 0.9333333333333333481 ) ;
#272 = DIRECTION ( 'NONE',  ( -1.224646799147353207E-16, -0.0000000000000000000, -1.000000000000000000 ) ) ;
#273 = ORIENTED_EDGE ( 'NONE', *, *, #204, .T. ) ;
#274 = CARTESIAN_POINT ( 'NONE',  ( 0.02556490949999999998, 3.130798458966676147E-18, -3.130798458966676147E-18 ) ) ;
#275 = EDGE_CURVE ( 'NONE', #178, #70, #277, .T. ) ;
#276 = AXIS2_PLACEMENT_3D ( 'NONE', #81, #169, #8 ) ;
#277 = LINE ( 'NONE', #177, #245 ) ;
#278 = ORIENTED_EDGE ( 'NONE', *, *, #158, .T. ) ;
#279 = AXIS2_PLACEMENT_3D ( 'NONE', #212, #6, #102 ) ;
#280 = DIRECTION ( 'NONE',  ( 0.0000000000000000000, 0.0000000000000000000, -1.000000000000000000 ) ) ;
#281 = CARTESIAN_POINT ( 'NONE',  ( -0.07873999999999996280, 0.0000000000000000000, 0.4551139240091747751 ) ) ;
#282 = PRODUCT_CONTEXT ( 'NONE', #268, 'mechanical' ) ;
#283 = ORIENTED_EDGE ( 'NONE', *, *, #204, .F. ) ;
#284 = CONICAL_SURFACE ( 'NONE', #24, 0.06374000000000018540, 0.7853981633974528309 ) ;
#285 = ORIENTED_EDGE ( 'NONE', *, *, #165, .F. ) ;
#286 = DIRECTION ( 'NONE',  ( -0.0000000000000000000, -0.0000000000000000000, -1.000000000000000000 ) ) ;
#287 = CARTESIAN_POINT ( 'NONE',  ( 0.02556490950000001733, 0.0000000000000000000, 0.1535430000000000128 ) ) ;
#288 = DIRECTION ( 'NONE',  ( -1.224646799147353207E-16, -0.0000000000000000000, -1.000000000000000000 ) ) ;
#289 = SURFACE_SIDE_STYLE ('',( #130 ) ) ;
#290 = DIRECTION ( 'NONE',  ( -1.000000000000000000, 0.0000000000000000000, 0.0000000000000000000 ) ) ;
#291 = PRESENTATION_LAYER_ASSIGNMENT (  '', '', ( #254 ) ) ;
#292 = CYLINDRICAL_SURFACE ( 'NONE', #9, 0.02556490949999999998 ) ;
#293 = DIRECTION ( 'NONE',  ( -0.7071067811865507924, 0.0000000000000000000, -0.7071067811865443531 ) ) ;
#294 = CARTESIAN_POINT ( 'NONE',  ( 0.0000000000000000000, 0.0000000000000000000, 0.0000000000000000000 ) ) ;
#295 = EDGE_LOOP ( 'NONE', ( #138, #249 ) ) ;
#296 =( GEOMETRIC_REPRESENTATION_CONTEXT ( 3 ) GLOBAL_UNCERTAINTY_ASSIGNED_CONTEXT ( ( #1 ) ) GLOBAL_UNIT_ASSIGNED_CONTEXT ( ( #135, #88, #112 ) ) REPRESENTATION_CONTEXT ( 'NONE', 'WORKASPACE' ) );
#297 = DIRECTION ( 'NONE',  ( -1.000000000000000000, 0.0000000000000000000, 1.224646799147353207E-16 ) ) ;
#298 = EDGE_LOOP ( 'NONE', ( #115, #181, #186, #96 ) ) ;
#299 = ORIENTED_EDGE ( 'NONE', *, *, #223, .F. ) ;
ENDSEC;
END-ISO-10303-21;
