ISO-10303-21;
HEADER;
FILE_DESCRIPTION (( 'STEP AP214' ),
    '1' );
FILE_NAME ('84087.STEP',
    '2023-06-23T11:40:12',
    ( '' ),
    ( '' ),
    'SwSTEP 2.0',
    'SolidWorks 2023',
    '' );
FILE_SCHEMA (( 'AUTOMOTIVE_DESIGN' ));
ENDSEC;

DATA;
#1 =( LENGTH_UNIT ( ) NAMED_UNIT ( * ) SI_UNIT ( $, .METRE. ) );
#2 = EDGE_LOOP ( 'NONE', ( #130, #290 ) ) ;
#3 = CARTESIAN_POINT ( 'NONE',  ( 0.000000000000000000, 0.2500000000000000000, 0.000000000000000000 ) ) ;
#4 = DIRECTION ( 'NONE',  ( -2.721437331438562546E-17, 1.000000000000000000, -0.000000000000000000 ) ) ;
#5 = EDGE_CURVE ( 'NONE', #120, #244, #8, .T. ) ;
#6 = AXIS2_PLACEMENT_3D ( 'NONE', #250, #300, #331 ) ;
#7 = CYLINDRICAL_SURFACE ( 'NONE', #62, 0.03905000000000000138 ) ;
#8 = LINE ( 'NONE', #220, #31 ) ;
#9 = DIRECTION ( 'NONE',  ( -0.000000000000000000, -1.000000000000000000, -0.000000000000000000 ) ) ;
#10 = FILL_AREA_STYLE_COLOUR ( '', #162 ) ;
#11 = CARTESIAN_POINT ( 'NONE',  ( 0.000000000000000000, 0.2500000000000000000, -0.03905000000000000138 ) ) ;
#12 = CARTESIAN_POINT ( 'NONE',  ( 0.03905000000000000138, 0.2500000000000000555, 1.004516537000616463E-17 ) ) ;
#13 = PRODUCT ( '84087', '84087', '', ( #152 ) ) ;
#14 = SURFACE_STYLE_USAGE ( .BOTH. , #227 ) ;
#15 = COLOUR_RGB ( '',1.000000000000000000, 0.000000000000000000, 0.000000000000000000 ) ;
#16 = DIRECTION ( 'NONE',  ( -1.000000000000000000, -2.721437331438562546E-17, 0.000000000000000000 ) ) ;
#17 = CARTESIAN_POINT ( 'NONE',  ( 0.000000000000000000, 0.2500000000000000555, 0.000000000000000000 ) ) ;
#18 = PLANE ( 'NONE',  #305 ) ;
#19 = PRODUCT_DEFINITION ( 'UNKNOWN', '', #247, #48 ) ;
#20 = FILL_AREA_STYLE_COLOUR ( '', #79 ) ;
#21 =( NAMED_UNIT ( * ) PLANE_ANGLE_UNIT ( ) SI_UNIT ( $, .RADIAN. ) );
#22 = UNCERTAINTY_MEASURE_WITH_UNIT (LENGTH_MEASURE( 1.000000000000000082E-05 ), #91, 'distance_accuracy_value', 'NONE');
#23 = EDGE_CURVE ( 'NONE', #54, #325, #26, .T. ) ;
#24 = DIRECTION ( 'NONE',  ( -0.000000000000000000, -1.000000000000000000, -0.000000000000000000 ) ) ;
#25 = APPLICATION_PROTOCOL_DEFINITION ( 'draft international standard', 'automotive_design', 1998, #142 ) ;
#26 = CIRCLE ( 'NONE', #171, 0.03905000000000000138 ) ;
#27 = CARTESIAN_POINT ( 'NONE',  ( 0.000000000000000000, 0.000000000000000000, 0.000000000000000000 ) ) ;
#28 = DIRECTION ( 'NONE',  ( 0.000000000000000000, 0.000000000000000000, -1.000000000000000000 ) ) ;
#29 =( LENGTH_UNIT ( ) NAMED_UNIT ( * ) SI_UNIT ( $, .METRE. ) );
#30 = ORIENTED_EDGE ( 'NONE', *, *, #5, .T. ) ;
#31 = VECTOR ( 'NONE', #330, 39.37007874015748143 ) ;
#32 = DIRECTION ( 'NONE',  ( -0.000000000000000000, -1.000000000000000000, -0.000000000000000000 ) ) ;
#33 = ORIENTED_EDGE ( 'NONE', *, *, #42, .F. ) ;
#34 = DIRECTION ( 'NONE',  ( -2.721437331438562546E-17, 1.000000000000000000, -0.000000000000000000 ) ) ;
#35 = COLOUR_RGB ( '',0.7921568627450980005, 0.8196078431372548767, 0.9333333333333333481 ) ;
#36 =( NAMED_UNIT ( * ) SI_UNIT ( $, .STERADIAN. ) SOLID_ANGLE_UNIT ( ) );
#37 = VERTEX_POINT ( 'NONE', #11 ) ;
#38 = CARTESIAN_POINT ( 'NONE',  ( 0.000000000000000000, 0.000000000000000000, 0.000000000000000000 ) ) ;
#39 = DIRECTION ( 'NONE',  ( 0.000000000000000000, 1.000000000000000000, 0.000000000000000000 ) ) ;
#40 = FACE_OUTER_BOUND ( 'NONE', #104, .T. ) ;
#41 = SURFACE_STYLE_FILL_AREA ( #108 ) ;
#42 = EDGE_CURVE ( 'NONE', #102, #358, #245, .T. ) ;
#43 = PRESENTATION_STYLE_ASSIGNMENT (( #172 ) ) ;
#44 = MECHANICAL_DESIGN_GEOMETRIC_PRESENTATION_REPRESENTATION (  '', ( #353 ), #348 ) ;
#45 = DIMENSIONAL_EXPONENTS ( 1.000000000000000000, 0.000000000000000000, 0.000000000000000000, 0.000000000000000000, 0.000000000000000000, 0.000000000000000000, 0.000000000000000000 ) ;
#46 = SURFACE_SIDE_STYLE ('',( #204 ) ) ;
#47 =( NAMED_UNIT ( * ) SI_UNIT ( $, .STERADIAN. ) SOLID_ANGLE_UNIT ( ) );
#48 = PRODUCT_DEFINITION_CONTEXT ( 'detailed design', #142, 'design' ) ;
#49 = ORIENTED_EDGE ( 'NONE', *, *, #329, .F. ) ;
#50 = DIRECTION ( 'NONE',  ( -1.000000000000000000, 0.000000000000000000, 0.000000000000000000 ) ) ;
#51 = ORIENTED_EDGE ( 'NONE', *, *, #58, .F. ) ;
#52 = PRESENTATION_STYLE_ASSIGNMENT (( #178 ) ) ;
#53 = FILL_AREA_STYLE ('',( #327 ) ) ;
#54 = VERTEX_POINT ( 'NONE', #165 ) ;
#55 = VECTOR ( 'NONE', #328, 39.37007874015747433 ) ;
#56 = COLOUR_RGB ( '',1.000000000000000000, 0.000000000000000000, 0.000000000000000000 ) ;
#57 = AXIS2_PLACEMENT_3D ( 'NONE', #114, #24, #121 ) ;
#58 = EDGE_CURVE ( 'NONE', #358, #193, #136, .T. ) ;
#59 = FACE_OUTER_BOUND ( 'NONE', #124, .T. ) ;
#60 = DIRECTION ( 'NONE',  ( -1.000000000000000000, 0.000000000000000000, 0.000000000000000000 ) ) ;
#61 = DIRECTION ( 'NONE',  ( -2.721437331438562546E-17, 1.000000000000000000, -0.000000000000000000 ) ) ;
#62 = AXIS2_PLACEMENT_3D ( 'NONE', #153, #270, #28 ) ;
#63 = ORIENTED_EDGE ( 'NONE', *, *, #98, .F. ) ;
#64 = FACE_OUTER_BOUND ( 'NONE', #161, .T. ) ;
#65 = DIRECTION ( 'NONE',  ( -2.721437331438562546E-17, 1.000000000000000000, -0.000000000000000000 ) ) ;
#66 = SURFACE_STYLE_FILL_AREA ( #312 ) ;
#67 = STYLED_ITEM ( 'NONE', ( #43 ), #160 ) ;
#68 = FACE_OUTER_BOUND ( 'NONE', #213, .T. ) ;
#69 = LENGTH_MEASURE_WITH_UNIT ( LENGTH_MEASURE( 0.02539999999999999897 ), #284 );
#70 = DIMENSIONAL_EXPONENTS ( 1.000000000000000000, 0.000000000000000000, 0.000000000000000000, 0.000000000000000000, 0.000000000000000000, 0.000000000000000000, 0.000000000000000000 ) ;
#71 = CYLINDRICAL_SURFACE ( 'NONE', #293, 0.1250000000000000278 ) ;
#72 = ORIENTED_EDGE ( 'NONE', *, *, #112, .T. ) ;
#73 = STYLED_ITEM ( 'NONE', ( #263 ), #186 ) ;
#74 = DIRECTION ( 'NONE',  ( -1.000000000000000000, 0.000000000000000000, 0.000000000000000000 ) ) ;
#75 = EDGE_LOOP ( 'NONE', ( #177, #128, #49, #127 ) ) ;
#76 = DIRECTION ( 'NONE',  ( -2.721437331438562546E-17, 1.000000000000000000, -0.000000000000000000 ) ) ;
#77 = EDGE_CURVE ( 'NONE', #102, #157, #132, .T. ) ;
#78 = ORIENTED_EDGE ( 'NONE', *, *, #214, .F. ) ;
#79 = COLOUR_RGB ( '',1.000000000000000000, 0.000000000000000000, 0.000000000000000000 ) ;
#80 =( GEOMETRIC_REPRESENTATION_CONTEXT ( 3 ) GLOBAL_UNCERTAINTY_ASSIGNED_CONTEXT ( ( #332 ) ) GLOBAL_UNIT_ASSIGNED_CONTEXT ( ( #116, #90, #235 ) ) REPRESENTATION_CONTEXT ( 'NONE', 'WORKASPACE' ) );
#81 = DIRECTION ( 'NONE',  ( -1.000000000000000000, 0.000000000000000000, 0.000000000000000000 ) ) ;
#82 =( NAMED_UNIT ( * ) PLANE_ANGLE_UNIT ( ) SI_UNIT ( $, .RADIAN. ) );
#83 = ORIENTED_EDGE ( 'NONE', *, *, #291, .F. ) ;
#84 = COLOUR_RGB ( '',0.7921568627450980005, 0.8196078431372548767, 0.9333333333333333481 ) ;
#85 =( CONVERSION_BASED_UNIT ( 'INCH', #195 ) LENGTH_UNIT ( ) NAMED_UNIT ( #179 ) );
#86 = PRODUCT_DEFINITION_SHAPE ( 'NONE', 'NONE',  #19 ) ;
#87 = DIRECTION ( 'NONE',  ( -0.000000000000000000, -1.000000000000000000, -0.000000000000000000 ) ) ;
#88 = DIRECTION ( 'NONE',  ( -0.000000000000000000, -1.000000000000000000, -0.000000000000000000 ) ) ;
#89 = EDGE_CURVE ( 'NONE', #299, #54, #158, .T. ) ;
#90 =( NAMED_UNIT ( * ) PLANE_ANGLE_UNIT ( ) SI_UNIT ( $, .RADIAN. ) );
#91 =( CONVERSION_BASED_UNIT ( 'INCH', #231 ) LENGTH_UNIT ( ) NAMED_UNIT ( #45 ) );
#92 = DIMENSIONAL_EXPONENTS ( 1.000000000000000000, 0.000000000000000000, 0.000000000000000000, 0.000000000000000000, 0.000000000000000000, 0.000000000000000000, 0.000000000000000000 ) ;
#93 = UNCERTAINTY_MEASURE_WITH_UNIT (LENGTH_MEASURE( 1.000000000000000082E-05 ), #85, 'distance_accuracy_value', 'NONE');
#94 = AXIS2_PLACEMENT_3D ( 'NONE', #254, #9, #110 ) ;
#95 = VECTOR ( 'NONE', #97, 39.37007874015747433 ) ;
#96 =( CONVERSION_BASED_UNIT ( 'INCH', #150 ) LENGTH_UNIT ( ) NAMED_UNIT ( #208 ) );
#97 = DIRECTION ( 'NONE',  ( -0.2588190451025213501, 0.9659258262890682012, 0.000000000000000000 ) ) ;
#98 = EDGE_CURVE ( 'NONE', #37, #299, #257, .T. ) ;
#99 = EDGE_LOOP ( 'NONE', ( #145, #278, #83, #78 ) ) ;
#100 = EDGE_LOOP ( 'NONE', ( #184, #182, #72, #277 ) ) ;
#101 = CIRCLE ( 'NONE', #57, 0.03905000000000000138 ) ;
#102 = VERTEX_POINT ( 'NONE', #12 ) ;
#103 =( LENGTH_UNIT ( ) NAMED_UNIT ( * ) SI_UNIT ( $, .METRE. ) );
#104 = EDGE_LOOP ( 'NONE', ( #151, #109, #216, #125 ) ) ;
#105 = AXIS2_PLACEMENT_3D ( 'NONE', #148, #210, #74 ) ;
#106 = CARTESIAN_POINT ( 'NONE',  ( 0.000000000000000000, 0.2500000000000000555, 0.000000000000000000 ) ) ;
#107 = CIRCLE ( 'NONE', #347, 0.1250000000000000278 ) ;
#108 = FILL_AREA_STYLE ('',( #10 ) ) ;
#109 = ORIENTED_EDGE ( 'NONE', *, *, #58, .T. ) ;
#110 = DIRECTION ( 'NONE',  ( 0.000000000000000000, 0.000000000000000000, -1.000000000000000000 ) ) ;
#111 = CARTESIAN_POINT ( 'NONE',  ( -8.729548184672013691E-18, 0.5707697669105443739, 0.000000000000000000 ) ) ;
#112 = EDGE_CURVE ( 'NONE', #37, #325, #336, .T. ) ;
#113 =( NAMED_UNIT ( * ) SI_UNIT ( $, .STERADIAN. ) SOLID_ANGLE_UNIT ( ) );
#114 = CARTESIAN_POINT ( 'NONE',  ( 0.000000000000000000, 0.000000000000000000, 0.000000000000000000 ) ) ;
#115 = MECHANICAL_DESIGN_GEOMETRIC_PRESENTATION_REPRESENTATION (  '', ( #149 ), #338 ) ;
#116 =( CONVERSION_BASED_UNIT ( 'INCH', #259 ) LENGTH_UNIT ( ) NAMED_UNIT ( #122 ) );
#117 = SURFACE_STYLE_FILL_AREA ( #315 ) ;
#118 = PRESENTATION_LAYER_ASSIGNMENT (  '', '', ( #73 ) ) ;
#119 = SHAPE_DEFINITION_REPRESENTATION ( #86, #207 ) ;
#120 = VERTEX_POINT ( 'NONE', #306 ) ;
#121 = DIRECTION ( 'NONE',  ( 0.000000000000000000, 0.000000000000000000, -1.000000000000000000 ) ) ;
#122 = DIMENSIONAL_EXPONENTS ( 1.000000000000000000, 0.000000000000000000, 0.000000000000000000, 0.000000000000000000, 0.000000000000000000, 0.000000000000000000, 0.000000000000000000 ) ;
#123 = ADVANCED_FACE ( 'NONE', ( #64 ), #292, .T. ) ;
#124 = EDGE_LOOP ( 'NONE', ( #236, #334 ) ) ;
#125 = ORIENTED_EDGE ( 'NONE', *, *, #5, .F. ) ;
#126 =( LENGTH_UNIT ( ) NAMED_UNIT ( * ) SI_UNIT ( $, .METRE. ) );
#127 = ORIENTED_EDGE ( 'NONE', *, *, #112, .F. ) ;
#128 = ORIENTED_EDGE ( 'NONE', *, *, #89, .T. ) ;
#129 = DIRECTION ( 'NONE',  ( -1.000000000000000000, 0.000000000000000000, 0.000000000000000000 ) ) ;
#130 = ORIENTED_EDGE ( 'NONE', *, *, #222, .T. ) ;
#131 = DIRECTION ( 'NONE',  ( -1.000000000000000000, 0.000000000000000000, 0.000000000000000000 ) ) ;
#132 = CIRCLE ( 'NONE', #198, 0.03905000000000000138 ) ;
#133 = PRESENTATION_LAYER_ASSIGNMENT (  '', '', ( #353 ) ) ;
#134 = CARTESIAN_POINT ( 'NONE',  ( 0.1249999999999999584, 2.500000000000000000, 1.530808498934191817E-17 ) ) ;
#135 = ORIENTED_EDGE ( 'NONE', *, *, #214, .T. ) ;
#136 = LINE ( 'NONE', #134, #273 ) ;
#137 = CARTESIAN_POINT ( 'NONE',  ( 1.446064679331988500E-35, 0.2500000000000000000, 0.000000000000000000 ) ) ;
#138 = SURFACE_SIDE_STYLE ('',( #335 ) ) ;
#139 = FACE_OUTER_BOUND ( 'NONE', #75, .T. ) ;
#140 = CIRCLE ( 'NONE', #238, 0.03905000000000000138 ) ;
#141 =( GEOMETRIC_REPRESENTATION_CONTEXT ( 3 ) GLOBAL_UNCERTAINTY_ASSIGNED_CONTEXT ( ( #317 ) ) GLOBAL_UNIT_ASSIGNED_CONTEXT ( ( #96, #185, #47 ) ) REPRESENTATION_CONTEXT ( 'NONE', 'WORKASPACE' ) );
#142 = APPLICATION_CONTEXT ( 'automotive_design' ) ;
#143 = DIRECTION ( 'NONE',  ( -2.721437331438562546E-17, 1.000000000000000000, -0.000000000000000000 ) ) ;
#144 = SURFACE_STYLE_USAGE ( .BOTH. , #46 ) ;
#145 = ORIENTED_EDGE ( 'NONE', *, *, #230, .T. ) ;
#146 = EDGE_CURVE ( 'NONE', #299, #37, #140, .T. ) ;
#147 = UNCERTAINTY_MEASURE_WITH_UNIT (LENGTH_MEASURE( 1.000000000000000082E-05 ), #272, 'distance_accuracy_value', 'NONE');
#148 = CARTESIAN_POINT ( 'NONE',  ( 0.000000000000000000, 0.2500000000000000555, 0.000000000000000000 ) ) ;
#149 = STYLED_ITEM ( 'NONE', ( #52 ), #202 ) ;
#150 = LENGTH_MEASURE_WITH_UNIT ( LENGTH_MEASURE( 0.02539999999999999897 ), #29 );
#151 = ORIENTED_EDGE ( 'NONE', *, *, #291, .T. ) ;
#152 = PRODUCT_CONTEXT ( 'NONE', #240, 'mechanical' ) ;
#153 = CARTESIAN_POINT ( 'NONE',  ( 0.000000000000000000, 0.000000000000000000, 0.000000000000000000 ) ) ;
#154 = FILL_AREA_STYLE ('',( #242 ) ) ;
#155 = AXIS2_PLACEMENT_3D ( 'NONE', #226, #34, #192 ) ;
#156 =( NAMED_UNIT ( * ) PLANE_ANGLE_UNIT ( ) SI_UNIT ( $, .RADIAN. ) );
#157 = VERTEX_POINT ( 'NONE', #314 ) ;
#158 = LINE ( 'NONE', #251, #316 ) ;
#159 = LENGTH_MEASURE_WITH_UNIT ( LENGTH_MEASURE( 0.02539999999999999897 ), #103 );
#160 = ADVANCED_FACE ( 'NONE', ( #286 ), #205, .T. ) ;
#161 = EDGE_LOOP ( 'NONE', ( #33, #323, #135, #271 ) ) ;
#162 = COLOUR_RGB ( '',1.000000000000000000, 0.000000000000000000, 0.000000000000000000 ) ;
#163 = CARTESIAN_POINT ( 'NONE',  ( 0.03905000000000000138, 0.2500000000000000555, 4.782245750670414162E-18 ) ) ;
#164 = FACE_OUTER_BOUND ( 'NONE', #188, .T. ) ;
#165 = CARTESIAN_POINT ( 'NONE',  ( 4.782245750670414162E-18, 0.000000000000000000, 0.03905000000000000138 ) ) ;
#166 = PLANE ( 'NONE',  #191 ) ;
#167 = DIRECTION ( 'NONE',  ( 0.000000000000000000, 0.000000000000000000, -1.000000000000000000 ) ) ;
#168 = DIRECTION ( 'NONE',  ( -2.721437331438562546E-17, 1.000000000000000000, -0.000000000000000000 ) ) ;
#169 =( NAMED_UNIT ( * ) PLANE_ANGLE_UNIT ( ) SI_UNIT ( $, .RADIAN. ) );
#170 = SURFACE_SIDE_STYLE ('',( #66 ) ) ;
#171 = AXIS2_PLACEMENT_3D ( 'NONE', #196, #301, #253 ) ;
#172 = SURFACE_STYLE_USAGE ( .BOTH. , #170 ) ;
#173 = ADVANCED_FACE ( 'NONE', ( #40 ), #199, .T. ) ;
#174 = PRESENTATION_STYLE_ASSIGNMENT (( #310 ) ) ;
#175 =( CONVERSION_BASED_UNIT ( 'INCH', #69 ) LENGTH_UNIT ( ) NAMED_UNIT ( #70 ) );
#176 = AXIS2_PLACEMENT_3D ( 'NONE', #249, #4, #50 ) ;
#177 = ORIENTED_EDGE ( 'NONE', *, *, #98, .T. ) ;
#178 = SURFACE_STYLE_USAGE ( .BOTH. , #356 ) ;
#179 = DIMENSIONAL_EXPONENTS ( 1.000000000000000000, 0.000000000000000000, 0.000000000000000000, 0.000000000000000000, 0.000000000000000000, 0.000000000000000000, 0.000000000000000000 ) ;
#180 = CARTESIAN_POINT ( 'NONE',  ( -6.123233995736766036E-17, 2.500000000000000000, 0.000000000000000000 ) ) ;
#181 =( GEOMETRIC_REPRESENTATION_CONTEXT ( 3 ) GLOBAL_UNCERTAINTY_ASSIGNED_CONTEXT ( ( #324 ) ) GLOBAL_UNIT_ASSIGNED_CONTEXT ( ( #175, #21, #355 ) ) REPRESENTATION_CONTEXT ( 'NONE', 'WORKASPACE' ) );
#182 = ORIENTED_EDGE ( 'NONE', *, *, #146, .T. ) ;
#183 = MECHANICAL_DESIGN_GEOMETRIC_PRESENTATION_REPRESENTATION (  '', ( #311 ), #141 ) ;
#184 = ORIENTED_EDGE ( 'NONE', *, *, #89, .F. ) ;
#185 =( NAMED_UNIT ( * ) PLANE_ANGLE_UNIT ( ) SI_UNIT ( $, .RADIAN. ) );
#186 = ADVANCED_FACE ( 'NONE', ( #59 ), #228, .T. ) ;
#187 = DIRECTION ( 'NONE',  ( 0.000000000000000000, 0.000000000000000000, 1.000000000000000000 ) ) ;
#188 = EDGE_LOOP ( 'NONE', ( #265, #350 ) ) ;
#189 = SURFACE_STYLE_USAGE ( .BOTH. , #138 ) ;
#190 = AXIS2_PLACEMENT_3D ( 'NONE', #17, #143, #345 ) ;
#191 = AXIS2_PLACEMENT_3D ( 'NONE', #137, #255, #16 ) ;
#192 = DIRECTION ( 'NONE',  ( -1.000000000000000000, 0.000000000000000000, 0.000000000000000000 ) ) ;
#193 = VERTEX_POINT ( 'NONE', #252 ) ;
#194 = DIRECTION ( 'NONE',  ( -2.721437331438562546E-17, 1.000000000000000000, -0.000000000000000000 ) ) ;
#195 = LENGTH_MEASURE_WITH_UNIT ( LENGTH_MEASURE( 0.02539999999999999897 ), #1 );
#196 = CARTESIAN_POINT ( 'NONE',  ( 0.000000000000000000, 0.000000000000000000, 0.000000000000000000 ) ) ;
#197 = CARTESIAN_POINT ( 'NONE',  ( -6.123233995736766036E-17, 2.500000000000000000, 0.000000000000000000 ) ) ;
#198 = AXIS2_PLACEMENT_3D ( 'NONE', #224, #297, #129 ) ;
#199 = CYLINDRICAL_SURFACE ( 'NONE', #219, 0.1250000000000000278 ) ;
#200 = ADVANCED_FACE ( 'NONE', ( #139 ), #7, .T. ) ;
#201 = CARTESIAN_POINT ( 'NONE',  ( -0.1250000000000001388, 2.500000000000000000, 0.000000000000000000 ) ) ;
#202 = MANIFOLD_SOLID_BREP ( 'Revolve - Cutting Edge', #304 ) ;
#203 =( NAMED_UNIT ( * ) PLANE_ANGLE_UNIT ( ) SI_UNIT ( $, .RADIAN. ) );
#204 = SURFACE_STYLE_FILL_AREA ( #342 ) ;
#205 = CYLINDRICAL_SURFACE ( 'NONE', #6, 0.03905000000000000138 ) ;
#206 = AXIS2_PLACEMENT_3D ( 'NONE', #38, #256, #167 ) ;
#207 = ADVANCED_BREP_SHAPE_REPRESENTATION ( '84087', ( #202, #322, #234 ), #339 ) ;
#208 = DIMENSIONAL_EXPONENTS ( 1.000000000000000000, 0.000000000000000000, 0.000000000000000000, 0.000000000000000000, 0.000000000000000000, 0.000000000000000000, 0.000000000000000000 ) ;
#209 = APPLICATION_PROTOCOL_DEFINITION ( 'draft international standard', 'automotive_design', 1998, #240 ) ;
#210 = DIRECTION ( 'NONE',  ( -2.721437331438562546E-17, 1.000000000000000000, -0.000000000000000000 ) ) ;
#211 = CONICAL_SURFACE ( 'NONE', #223, 0.03905000000000000138, 0.2617993877991500740 ) ;
#212 = EDGE_LOOP ( 'NONE', ( #51, #295, #30, #294 ) ) ;
#213 = EDGE_LOOP ( 'NONE', ( #63, #276 ) ) ;
#214 = EDGE_CURVE ( 'NONE', #157, #120, #215, .T. ) ;
#215 = LINE ( 'NONE', #275, #95 ) ;
#216 = ORIENTED_EDGE ( 'NONE', *, *, #222, .F. ) ;
#217 = CLOSED_SHELL ( 'NONE', ( #173, #262, #268, #123, #243, #359 ) ) ;
#218 = DIRECTION ( 'NONE',  ( 0.000000000000000000, -0.000000000000000000, 1.000000000000000000 ) ) ;
#219 = AXIS2_PLACEMENT_3D ( 'NONE', #197, #76, #131 ) ;
#220 = CARTESIAN_POINT ( 'NONE',  ( -0.1250000000000001110, 2.500000000000000000, 0.000000000000000000 ) ) ;
#221 =( LENGTH_UNIT ( ) NAMED_UNIT ( * ) SI_UNIT ( $, .METRE. ) );
#222 = EDGE_CURVE ( 'NONE', #244, #193, #267, .T. ) ;
#223 = AXIS2_PLACEMENT_3D ( 'NONE', #106, #65, #341 ) ;
#224 = CARTESIAN_POINT ( 'NONE',  ( 0.000000000000000000, 0.2500000000000000555, 0.000000000000000000 ) ) ;
#225 =( LENGTH_UNIT ( ) NAMED_UNIT ( * ) SI_UNIT ( $, .METRE. ) );
#226 = CARTESIAN_POINT ( 'NONE',  ( -6.123233995736766036E-17, 2.500000000000000000, 0.000000000000000000 ) ) ;
#227 = SURFACE_SIDE_STYLE ('',( #41 ) ) ;
#228 = PLANE ( 'NONE',  #206 ) ;
#229 = CARTESIAN_POINT ( 'NONE',  ( 0.1250000000000000000, 0.5707697669105443739, 1.530808498934191817E-17 ) ) ;
#230 = EDGE_CURVE ( 'NONE', #157, #102, #357, .T. ) ;
#231 = LENGTH_MEASURE_WITH_UNIT ( LENGTH_MEASURE( 0.02539999999999999897 ), #225 );
#232 = MECHANICAL_DESIGN_GEOMETRIC_PRESENTATION_REPRESENTATION (  '', ( #67 ), #181 ) ;
#233 = CIRCLE ( 'NONE', #155, 0.1250000000000000555 ) ;
#234 = AXIS2_PLACEMENT_3D ( 'NONE', #27, #187, #241 ) ;
#235 =( NAMED_UNIT ( * ) SI_UNIT ( $, .STERADIAN. ) SOLID_ANGLE_UNIT ( ) );
#236 = ORIENTED_EDGE ( 'NONE', *, *, #329, .T. ) ;
#237 = FACE_OUTER_BOUND ( 'NONE', #2, .T. ) ;
#238 = AXIS2_PLACEMENT_3D ( 'NONE', #343, #88, #309 ) ;
#239 = PRESENTATION_LAYER_ASSIGNMENT (  '', '', ( #258 ) ) ;
#240 = APPLICATION_CONTEXT ( 'automotive_design' ) ;
#241 = DIRECTION ( 'NONE',  ( 1.000000000000000000, 0.000000000000000000, 0.000000000000000000 ) ) ;
#242 = FILL_AREA_STYLE_COLOUR ( '', #84 ) ;
#243 = ADVANCED_FACE ( 'NONE', ( #318 ), #71, .T. ) ;
#244 = VERTEX_POINT ( 'NONE', #201 ) ;
#245 = LINE ( 'NONE', #163, #55 ) ;
#246 = LENGTH_MEASURE_WITH_UNIT ( LENGTH_MEASURE( 0.02539999999999999897 ), #126 );
#247 = PRODUCT_DEFINITION_FORMATION_WITH_SPECIFIED_SOURCE ( 'ANY', '', #13, .NOT_KNOWN. ) ;
#248 = DIRECTION ( 'NONE',  ( 1.000000000000000000, 2.721437331438562546E-17, 0.000000000000000000 ) ) ;
#249 = CARTESIAN_POINT ( 'NONE',  ( -6.123233995736766036E-17, 2.500000000000000000, 0.000000000000000000 ) ) ;
#250 = CARTESIAN_POINT ( 'NONE',  ( 0.000000000000000000, 0.000000000000000000, 0.000000000000000000 ) ) ;
#251 = CARTESIAN_POINT ( 'NONE',  ( 4.782245750670414162E-18, 0.000000000000000000, 0.03905000000000000138 ) ) ;
#252 = CARTESIAN_POINT ( 'NONE',  ( 0.1250000000000000278, 2.500000000000000000, 1.530808498934192125E-17 ) ) ;
#253 = DIRECTION ( 'NONE',  ( 0.000000000000000000, 0.000000000000000000, -1.000000000000000000 ) ) ;
#254 = CARTESIAN_POINT ( 'NONE',  ( 0.000000000000000000, 0.2500000000000000000, 0.000000000000000000 ) ) ;
#255 = DIRECTION ( 'NONE',  ( -2.721437331438562546E-17, 1.000000000000000000, 0.000000000000000000 ) ) ;
#256 = DIRECTION ( 'NONE',  ( 0.000000000000000000, -1.000000000000000000, -0.000000000000000000 ) ) ;
#257 = CIRCLE ( 'NONE', #94, 0.03905000000000000138 ) ;
#258 = STYLED_ITEM ( 'NONE', ( #333 ), #200 ) ;
#259 = LENGTH_MEASURE_WITH_UNIT ( LENGTH_MEASURE( 0.02539999999999999897 ), #221 );
#260 = FILL_AREA_STYLE_COLOUR ( '', #56 ) ;
#261 = PRESENTATION_LAYER_ASSIGNMENT (  '', '', ( #311 ) ) ;
#262 = ADVANCED_FACE ( 'NONE', ( #307 ), #211, .T. ) ;
#263 = PRESENTATION_STYLE_ASSIGNMENT (( #144 ) ) ;
#264 = CARTESIAN_POINT ( 'NONE',  ( 0.000000000000000000, 0.000000000000000000, -0.03905000000000000138 ) ) ;
#265 = ORIENTED_EDGE ( 'NONE', *, *, #230, .F. ) ;
#266 = SURFACE_STYLE_FILL_AREA ( #154 ) ;
#267 = CIRCLE ( 'NONE', #176, 0.1250000000000000555 ) ;
#268 = ADVANCED_FACE ( 'NONE', ( #164 ), #166, .F. ) ;
#269 = UNCERTAINTY_MEASURE_WITH_UNIT (LENGTH_MEASURE( 1.000000000000000082E-05 ), #337, 'distance_accuracy_value', 'NONE');
#270 = DIRECTION ( 'NONE',  ( -0.000000000000000000, -1.000000000000000000, -0.000000000000000000 ) ) ;
#271 = ORIENTED_EDGE ( 'NONE', *, *, #281, .F. ) ;
#272 =( CONVERSION_BASED_UNIT ( 'INCH', #246 ) LENGTH_UNIT ( ) NAMED_UNIT ( #354 ) );
#273 = VECTOR ( 'NONE', #194, 39.37007874015748143 ) ;
#274 = MECHANICAL_DESIGN_GEOMETRIC_PRESENTATION_REPRESENTATION (  '', ( #258 ), #80 ) ;
#275 = CARTESIAN_POINT ( 'NONE',  ( -0.03905000000000000138, 0.2500000000000000555, 0.000000000000000000 ) ) ;
#276 = ORIENTED_EDGE ( 'NONE', *, *, #146, .F. ) ;
#277 = ORIENTED_EDGE ( 'NONE', *, *, #23, .F. ) ;
#278 = ORIENTED_EDGE ( 'NONE', *, *, #42, .T. ) ;
#279 =( GEOMETRIC_REPRESENTATION_CONTEXT ( 3 ) GLOBAL_UNCERTAINTY_ASSIGNED_CONTEXT ( ( #93 ) ) GLOBAL_UNIT_ASSIGNED_CONTEXT ( ( #85, #169, #36 ) ) REPRESENTATION_CONTEXT ( 'NONE', 'WORKASPACE' ) );
#280 = DIRECTION ( 'NONE',  ( -1.000000000000000000, 0.000000000000000000, 0.000000000000000000 ) ) ;
#281 = EDGE_CURVE ( 'NONE', #358, #120, #107, .T. ) ;
#282 = PRESENTATION_LAYER_ASSIGNMENT (  '', '', ( #67 ) ) ;
#283 = CIRCLE ( 'NONE', #326, 0.1250000000000000278 ) ;
#284 =( LENGTH_UNIT ( ) NAMED_UNIT ( * ) SI_UNIT ( $, .METRE. ) );
#285 = AXIS2_PLACEMENT_3D ( 'NONE', #346, #321, #248 ) ;
#286 = FACE_OUTER_BOUND ( 'NONE', #100, .T. ) ;
#287 = PRESENTATION_LAYER_ASSIGNMENT (  '', '', ( #149 ) ) ;
#288 = EDGE_CURVE ( 'NONE', #193, #244, #233, .T. ) ;
#289 =( NAMED_UNIT ( * ) SI_UNIT ( $, .STERADIAN. ) SOLID_ANGLE_UNIT ( ) );
#290 = ORIENTED_EDGE ( 'NONE', *, *, #288, .T. ) ;
#291 = EDGE_CURVE ( 'NONE', #120, #358, #283, .T. ) ;
#292 = CONICAL_SURFACE ( 'NONE', #190, 0.03905000000000000138, 0.2617993877991500740 ) ;
#293 = AXIS2_PLACEMENT_3D ( 'NONE', #180, #61, #280 ) ;
#294 = ORIENTED_EDGE ( 'NONE', *, *, #288, .F. ) ;
#295 = ORIENTED_EDGE ( 'NONE', *, *, #281, .T. ) ;
#296 = PRESENTATION_STYLE_ASSIGNMENT (( #189 ) ) ;
#297 = DIRECTION ( 'NONE',  ( -2.721437331438562546E-17, 1.000000000000000000, -0.000000000000000000 ) ) ;
#298 = DIRECTION ( 'NONE',  ( -2.721437331438562546E-17, 1.000000000000000000, -0.000000000000000000 ) ) ;
#299 = VERTEX_POINT ( 'NONE', #313 ) ;
#300 = DIRECTION ( 'NONE',  ( -0.000000000000000000, -1.000000000000000000, -0.000000000000000000 ) ) ;
#301 = DIRECTION ( 'NONE',  ( -0.000000000000000000, -1.000000000000000000, -0.000000000000000000 ) ) ;
#302 = PRODUCT_RELATED_PRODUCT_CATEGORY ( 'part', '', ( #13 ) ) ;
#303 = ADVANCED_FACE ( 'NONE', ( #68 ), #18, .T. ) ;
#304 = CLOSED_SHELL ( 'NONE', ( #200, #303, #160, #186 ) ) ;
#305 = AXIS2_PLACEMENT_3D ( 'NONE', #3, #39, #218 ) ;
#306 = CARTESIAN_POINT ( 'NONE',  ( -0.1250000000000000278, 0.5707697669105443739, 0.000000000000000000 ) ) ;
#307 = FACE_OUTER_BOUND ( 'NONE', #99, .T. ) ;
#308 = CARTESIAN_POINT ( 'NONE',  ( -8.729548184672013691E-18, 0.5707697669105443739, 0.000000000000000000 ) ) ;
#309 = DIRECTION ( 'NONE',  ( 0.000000000000000000, 0.000000000000000000, -1.000000000000000000 ) ) ;
#310 = SURFACE_STYLE_USAGE ( .BOTH. , #349 ) ;
#311 = STYLED_ITEM ( 'NONE', ( #174 ), #303 ) ;
#312 = FILL_AREA_STYLE ('',( #20 ) ) ;
#313 = CARTESIAN_POINT ( 'NONE',  ( 4.782245750670414162E-18, 0.2500000000000000000, 0.03905000000000000138 ) ) ;
#314 = CARTESIAN_POINT ( 'NONE',  ( -0.03905000000000000138, 0.2500000000000000555, 0.000000000000000000 ) ) ;
#315 = FILL_AREA_STYLE ('',( #260 ) ) ;
#316 = VECTOR ( 'NONE', #32, 39.37007874015748143 ) ;
#317 = UNCERTAINTY_MEASURE_WITH_UNIT (LENGTH_MEASURE( 1.000000000000000082E-05 ), #96, 'distance_accuracy_value', 'NONE');
#318 = FACE_OUTER_BOUND ( 'NONE', #212, .T. ) ;
#319 = MECHANICAL_DESIGN_GEOMETRIC_PRESENTATION_REPRESENTATION (  '', ( #73 ), #279 ) ;
#320 =( NAMED_UNIT ( * ) SI_UNIT ( $, .STERADIAN. ) SOLID_ANGLE_UNIT ( ) );
#321 = DIRECTION ( 'NONE',  ( 2.721437331438562546E-17, -1.000000000000000000, 0.000000000000000000 ) ) ;
#322 = MANIFOLD_SOLID_BREP ( 'Revolve - Tool Body (Reduced Cut Diameter)', #217 ) ;
#323 = ORIENTED_EDGE ( 'NONE', *, *, #77, .T. ) ;
#324 = UNCERTAINTY_MEASURE_WITH_UNIT (LENGTH_MEASURE( 1.000000000000000082E-05 ), #175, 'distance_accuracy_value', 'NONE');
#325 = VERTEX_POINT ( 'NONE', #264 ) ;
#326 = AXIS2_PLACEMENT_3D ( 'NONE', #111, #298, #81 ) ;
#327 = FILL_AREA_STYLE_COLOUR ( '', #35 ) ;
#328 = DIRECTION ( 'NONE',  ( 0.2588190451025213501, 0.9659258262890682012, 3.169619151431772953E-17 ) ) ;
#329 = EDGE_CURVE ( 'NONE', #325, #54, #101, .T. ) ;
#330 = DIRECTION ( 'NONE',  ( -2.721437331438562546E-17, 1.000000000000000000, -0.000000000000000000 ) ) ;
#331 = DIRECTION ( 'NONE',  ( 0.000000000000000000, 0.000000000000000000, -1.000000000000000000 ) ) ;
#332 = UNCERTAINTY_MEASURE_WITH_UNIT (LENGTH_MEASURE( 1.000000000000000082E-05 ), #116, 'distance_accuracy_value', 'NONE');
#333 = PRESENTATION_STYLE_ASSIGNMENT (( #14 ) ) ;
#334 = ORIENTED_EDGE ( 'NONE', *, *, #23, .T. ) ;
#335 = SURFACE_STYLE_FILL_AREA ( #53 ) ;
#336 = LINE ( 'NONE', #340, #351 ) ;
#337 =( CONVERSION_BASED_UNIT ( 'INCH', #159 ) LENGTH_UNIT ( ) NAMED_UNIT ( #92 ) );
#338 =( GEOMETRIC_REPRESENTATION_CONTEXT ( 3 ) GLOBAL_UNCERTAINTY_ASSIGNED_CONTEXT ( ( #147 ) ) GLOBAL_UNIT_ASSIGNED_CONTEXT ( ( #272, #156, #320 ) ) REPRESENTATION_CONTEXT ( 'NONE', 'WORKASPACE' ) );
#339 =( GEOMETRIC_REPRESENTATION_CONTEXT ( 3 ) GLOBAL_UNCERTAINTY_ASSIGNED_CONTEXT ( ( #269 ) ) GLOBAL_UNIT_ASSIGNED_CONTEXT ( ( #337, #82, #113 ) ) REPRESENTATION_CONTEXT ( 'NONE', 'WORKASPACE' ) );
#340 = CARTESIAN_POINT ( 'NONE',  ( 0.000000000000000000, 0.000000000000000000, -0.03905000000000000138 ) ) ;
#341 = DIRECTION ( 'NONE',  ( -1.000000000000000000, 0.000000000000000000, 0.000000000000000000 ) ) ;
#342 = FILL_AREA_STYLE ('',( #344 ) ) ;
#343 = CARTESIAN_POINT ( 'NONE',  ( 0.000000000000000000, 0.2500000000000000000, 0.000000000000000000 ) ) ;
#344 = FILL_AREA_STYLE_COLOUR ( '', #15 ) ;
#345 = DIRECTION ( 'NONE',  ( -1.000000000000000000, 0.000000000000000000, 0.000000000000000000 ) ) ;
#346 = CARTESIAN_POINT ( 'NONE',  ( 0.1250000000000000000, 2.500000000000000000, 0.000000000000000000 ) ) ;
#347 = AXIS2_PLACEMENT_3D ( 'NONE', #308, #168, #60 ) ;
#348 =( GEOMETRIC_REPRESENTATION_CONTEXT ( 3 ) GLOBAL_UNCERTAINTY_ASSIGNED_CONTEXT ( ( #22 ) ) GLOBAL_UNIT_ASSIGNED_CONTEXT ( ( #91, #203, #289 ) ) REPRESENTATION_CONTEXT ( 'NONE', 'WORKASPACE' ) );
#349 = SURFACE_SIDE_STYLE ('',( #117 ) ) ;
#350 = ORIENTED_EDGE ( 'NONE', *, *, #77, .F. ) ;
#351 = VECTOR ( 'NONE', #87, 39.37007874015748143 ) ;
#352 = PLANE ( 'NONE',  #285 ) ;
#353 = STYLED_ITEM ( 'NONE', ( #296 ), #322 ) ;
#354 = DIMENSIONAL_EXPONENTS ( 1.000000000000000000, 0.000000000000000000, 0.000000000000000000, 0.000000000000000000, 0.000000000000000000, 0.000000000000000000, 0.000000000000000000 ) ;
#355 =( NAMED_UNIT ( * ) SI_UNIT ( $, .STERADIAN. ) SOLID_ANGLE_UNIT ( ) );
#356 = SURFACE_SIDE_STYLE ('',( #266 ) ) ;
#357 = CIRCLE ( 'NONE', #105, 0.03905000000000000138 ) ;
#358 = VERTEX_POINT ( 'NONE', #229 ) ;
#359 = ADVANCED_FACE ( 'NONE', ( #237 ), #352, .F. ) ;
ENDSEC;
END-ISO-10303-21;
