ISO-10303-21;
HEADER;
FILE_DESCRIPTION (( 'STEP AP214' ),
    '1' );
FILE_NAME ('Micro_SFA-187-35.STEP',
    '2021-09-02T03:48:24',
    ( '' ),
    ( '' ),
    'SwSTEP 2.0',
    'SolidWorks 2020',
    '' );
FILE_SCHEMA (( 'AUTOMOTIVE_DESIGN' ));
ENDSEC;

DATA;
#1 = CARTESIAN_POINT ( 'NONE',  ( 0.07874999999999980627, 1.056257864264590573E-17, 2.000000000000000000 ) ) ;
#2 = ADVANCED_FACE ( 'NONE', ( #4 ), #73, .T. ) ;
#3 = FACE_OUTER_BOUND ( 'NONE', #48, .T. ) ;
#4 = FACE_OUTER_BOUND ( 'NONE', #118, .T. ) ;
#5 = DIRECTION ( 'NONE',  ( 0.0000000000000000000, 0.0000000000000000000, 1.000000000000000000 ) ) ;
#6 = ORIENTED_EDGE ( 'NONE', *, *, #16, .T. ) ;
#7 = EDGE_CURVE ( 'NONE', #78, #297, #110, .T. ) ;
#8 = ORIENTED_EDGE ( 'NONE', *, *, #93, .T. ) ;
#9 = DIRECTION ( 'NONE',  ( 0.0000000000000000000, 0.0000000000000000000, -1.000000000000000000 ) ) ;
#10 = EDGE_LOOP ( 'NONE', ( #125, #294, #8, #191 ) ) ;
#11 = VECTOR ( 'NONE', #151, 39.37007874015748143 ) ;
#12 = AXIS2_PLACEMENT_3D ( 'NONE', #49, #35, #132 ) ;
#13 = STYLED_ITEM ( 'NONE', ( #266 ), #222 ) ;
#14 = APPLICATION_CONTEXT ( 'automotive_design' ) ;
#15 = DIMENSIONAL_EXPONENTS ( 1.000000000000000000, 0.0000000000000000000, 0.0000000000000000000, 0.0000000000000000000, 0.0000000000000000000, 0.0000000000000000000, 0.0000000000000000000 ) ;
#16 = EDGE_CURVE ( 'NONE', #297, #178, #170, .T. ) ;
#17 = CARTESIAN_POINT ( 'NONE',  ( 1.404618771449245766E-33, 0.0000000000000000000, 1.146958267826442798E-17 ) ) ;
#18 = AXIS2_PLACEMENT_3D ( 'NONE', #80, #149, #50 ) ;
#19 = EDGE_CURVE ( 'NONE', #265, #212, #53, .T. ) ;
#20 = VERTEX_POINT ( 'NONE', #31 ) ;
#21 = PRODUCT_DEFINITION_SHAPE ( 'NONE', 'NONE',  #68 ) ;
#22 = DIRECTION ( 'NONE',  ( 0.0000000000000000000, 0.0000000000000000000, 1.000000000000000000 ) ) ;
#23 = DIRECTION ( 'NONE',  ( -0.0000000000000000000, -0.0000000000000000000, -1.000000000000000000 ) ) ;
#24 =( NAMED_UNIT ( * ) PLANE_ANGLE_UNIT ( ) SI_UNIT ( $, .RADIAN. ) );
#25 = EDGE_CURVE ( 'NONE', #212, #20, #172, .T. ) ;
#26 = CARTESIAN_POINT ( 'NONE',  ( -0.09365624999999992706, 1.147532321013543253E-17, 0.6250000000000000000 ) ) ;
#27 = FACE_OUTER_BOUND ( 'NONE', #289, .T. ) ;
#28 = ORIENTED_EDGE ( 'NONE', *, *, #25, .F. ) ;
#29 =( LENGTH_UNIT ( ) NAMED_UNIT ( * ) SI_UNIT ( $, .METRE. ) );
#30 = FACE_OUTER_BOUND ( 'NONE', #219, .T. ) ;
#31 = CARTESIAN_POINT ( 'NONE',  ( 0.09375000000000001388, 1.148106374200643863E-17, 1.984999999999999654 ) ) ;
#32 = EDGE_CURVE ( 'NONE', #297, #201, #61, .T. ) ;
#33 = SURFACE_SIDE_STYLE ('',( #169 ) ) ;
#34 = SURFACE_STYLE_FILL_AREA ( #272 ) ;
#35 = DIRECTION ( 'NONE',  ( 1.224646799147353207E-16, 0.0000000000000000000, 1.000000000000000000 ) ) ;
#36 = ORIENTED_EDGE ( 'NONE', *, *, #7, .F. ) ;
#37 = CARTESIAN_POINT ( 'NONE',  ( 0.0000000000000000000, 0.0000000000000000000, 2.000000000000000000 ) ) ;
#38 = DIRECTION ( 'NONE',  ( 0.0000000000000000000, 0.0000000000000000000, 1.000000000000000000 ) ) ;
#39 = CARTESIAN_POINT ( 'NONE',  ( -0.09374999999999994449, 0.0000000000000000000, 0.6255316826705892286 ) ) ;
#40 = ORIENTED_EDGE ( 'NONE', *, *, #146, .T. ) ;
#41 = DIRECTION ( 'NONE',  ( -0.0000000000000000000, -0.0000000000000000000, -1.000000000000000000 ) ) ;
#42 =( GEOMETRIC_REPRESENTATION_CONTEXT ( 3 ) GLOBAL_UNCERTAINTY_ASSIGNED_CONTEXT ( ( #239 ) ) GLOBAL_UNIT_ASSIGNED_CONTEXT ( ( #180, #276, #133 ) ) REPRESENTATION_CONTEXT ( 'NONE', 'WORKASPACE' ) );
#43 = EDGE_CURVE ( 'NONE', #78, #267, #275, .T. ) ;
#44 = DIRECTION ( 'NONE',  ( -1.000000000000000000, 0.0000000000000000000, 1.224646799147352961E-16 ) ) ;
#45 = AXIS2_PLACEMENT_3D ( 'NONE', #37, #9, #198 ) ;
#46 = VECTOR ( 'NONE', #41, 39.37007874015748143 ) ;
#47 = CLOSED_SHELL ( 'NONE', ( #105, #83, #2, #253, #293, #298, #114, #57, #117, #128 ) ) ;
#48 = EDGE_LOOP ( 'NONE', ( #28, #291, #223, #197 ) ) ;
#49 = CARTESIAN_POINT ( 'NONE',  ( 7.654042494670957853E-17, 0.0000000000000000000, 0.6250000000000000000 ) ) ;
#50 = DIRECTION ( 'NONE',  ( 1.000000000000000000, 0.0000000000000000000, 0.0000000000000000000 ) ) ;
#51 = EDGE_CURVE ( 'NONE', #265, #283, #259, .T. ) ;
#52 = FACE_OUTER_BOUND ( 'NONE', #129, .T. ) ;
#53 = CIRCLE ( 'NONE', #262, 0.07874999999999980627 ) ;
#54 = FACE_OUTER_BOUND ( 'NONE', #274, .T. ) ;
#55 = ORIENTED_EDGE ( 'NONE', *, *, #51, .F. ) ;
#56 = CARTESIAN_POINT ( 'NONE',  ( 0.0000000000000000000, 0.0000000000000000000, 0.0000000000000000000 ) ) ;
#57 = ADVANCED_FACE ( 'NONE', ( #52 ), #278, .T. ) ;
#58 = DIRECTION ( 'NONE',  ( -1.000000000000000000, 0.0000000000000000000, 0.0000000000000000000 ) ) ;
#59 = DIRECTION ( 'NONE',  ( 1.000000000000000000, 0.0000000000000000000, 0.0000000000000000000 ) ) ;
#60 = DIRECTION ( 'NONE',  ( 1.224646799147353207E-16, 0.0000000000000000000, 1.000000000000000000 ) ) ;
#61 = LINE ( 'NONE', #242, #95 ) ;
#62 = AXIS2_PLACEMENT_3D ( 'NONE', #206, #182, #136 ) ;
#63 = DIRECTION ( 'NONE',  ( -1.000000000000000000, 0.0000000000000000000, 1.224646799147352961E-16 ) ) ;
#64 = SURFACE_SIDE_STYLE ('',( #34 ) ) ;
#65 = ORIENTED_EDGE ( 'NONE', *, *, #16, .F. ) ;
#66 = CYLINDRICAL_SURFACE ( 'NONE', #62, 0.09375000000000001388 ) ;
#67 = ORIENTED_EDGE ( 'NONE', *, *, #184, .F. ) ;
#68 = PRODUCT_DEFINITION ( 'UNKNOWN', '', #281, #214 ) ;
#69 = APPLICATION_PROTOCOL_DEFINITION ( 'draft international standard', 'automotive_design', 1998, #217 ) ;
#70 = AXIS2_PLACEMENT_3D ( 'NONE', #233, #221, #120 ) ;
#71 = FACE_OUTER_BOUND ( 'NONE', #236, .T. ) ;
#72 = AXIS2_PLACEMENT_3D ( 'NONE', #113, #159, #210 ) ;
#73 = CONICAL_SURFACE ( 'NONE', #179, 0.07874999999999980627, 0.7853981633974466137 ) ;
#74 = AXIS2_PLACEMENT_3D ( 'NONE', #145, #5, #59 ) ;
#75 = ORIENTED_EDGE ( 'NONE', *, *, #138, .T. ) ;
#76 = DIRECTION ( 'NONE',  ( -1.224646799147353207E-16, -0.0000000000000000000, -1.000000000000000000 ) ) ;
#77 = CARTESIAN_POINT ( 'NONE',  ( -0.09375000000000001388, 0.0000000000000000000, 2.000000000000000000 ) ) ;
#78 = VERTEX_POINT ( 'NONE', #26 ) ;
#79 = AXIS2_PLACEMENT_3D ( 'NONE', #56, #88, #205 ) ;
#80 = CARTESIAN_POINT ( 'NONE',  ( 0.0000000000000000000, 0.0000000000000000000, 1.984999999999999654 ) ) ;
#81 = CARTESIAN_POINT ( 'NONE',  ( 7.654042494670957853E-17, 0.0000000000000000000, 0.6250000000000000000 ) ) ;
#82 = DIRECTION ( 'NONE',  ( 0.0000000000000000000, 0.0000000000000000000, -1.000000000000000000 ) ) ;
#83 = ADVANCED_FACE ( 'NONE', ( #71 ), #131, .T. ) ;
#84 = DIRECTION ( 'NONE',  ( -1.224646799147353207E-16, -0.0000000000000000000, -1.000000000000000000 ) ) ;
#85 = CYLINDRICAL_SURFACE ( 'NONE', #112, 0.09365624999999999645 ) ;
#86 = ORIENTED_EDGE ( 'NONE', *, *, #43, .F. ) ;
#87 = AXIS2_PLACEMENT_3D ( 'NONE', #189, #194, #285 ) ;
#88 = DIRECTION ( 'NONE',  ( 0.0000000000000000000, 0.0000000000000000000, 1.000000000000000000 ) ) ;
#89 = EDGE_LOOP ( 'NONE', ( #148, #168, #127, #104 ) ) ;
#90 = CIRCLE ( 'NONE', #18, 0.09375000000000001388 ) ;
#91 =( NAMED_UNIT ( * ) SI_UNIT ( $, .STERADIAN. ) SOLID_ANGLE_UNIT ( ) );
#92 = EDGE_CURVE ( 'NONE', #178, #97, #187, .T. ) ;
#93 = EDGE_CURVE ( 'NONE', #283, #267, #174, .T. ) ;
#94 = ORIENTED_EDGE ( 'NONE', *, *, #246, .T. ) ;
#95 = VECTOR ( 'NONE', #183, 39.37007874015748143 ) ;
#96 = DIRECTION ( 'NONE',  ( -1.224646799147353207E-16, -0.0000000000000000000, -1.000000000000000000 ) ) ;
#97 = VERTEX_POINT ( 'NONE', #224 ) ;
#98 = CARTESIAN_POINT ( 'NONE',  ( 1.404618771449245766E-33, 0.0000000000000000000, 1.146958267826442798E-17 ) ) ;
#99 = ORIENTED_EDGE ( 'NONE', *, *, #109, .T. ) ;
#100 = CONICAL_SURFACE ( 'NONE', #45, 0.07874999999999980627, 0.7853981633974466137 ) ;
#101 = DIRECTION ( 'NONE',  ( -1.000000000000000000, 0.0000000000000000000, 1.224646799147352961E-16 ) ) ;
#102 = CARTESIAN_POINT ( 'NONE',  ( 0.0000000000000000000, 0.0000000000000000000, 2.000000000000000000 ) ) ;
#103 = FACE_OUTER_BOUND ( 'NONE', #123, .T. ) ;
#104 = ORIENTED_EDGE ( 'NONE', *, *, #93, .F. ) ;
#105 = ADVANCED_FACE ( 'NONE', ( #27 ), #85, .T. ) ;
#106 = ORIENTED_EDGE ( 'NONE', *, *, #32, .T. ) ;
#107 = COLOUR_RGB ( '',0.7921568627450980005, 0.8196078431372548767, 0.9333333333333333481 ) ;
#108 = CARTESIAN_POINT ( 'NONE',  ( -0.09375000000000001388, 0.0000000000000000000, 1.984999999999999654 ) ) ;
#109 = EDGE_CURVE ( 'NONE', #78, #97, #243, .T. ) ;
#110 = CIRCLE ( 'NONE', #186, 0.09365624999999999645 ) ;
#111 = DIMENSIONAL_EXPONENTS ( 1.000000000000000000, 0.0000000000000000000, 0.0000000000000000000, 0.0000000000000000000, 0.0000000000000000000, 0.0000000000000000000, 0.0000000000000000000 ) ;
#112 = AXIS2_PLACEMENT_3D ( 'NONE', #270, #96, #101 ) ;
#113 = CARTESIAN_POINT ( 'NONE',  ( 0.0000000000000000000, 0.0000000000000000000, 2.000000000000000000 ) ) ;
#114 = ADVANCED_FACE ( 'NONE', ( #3 ), #100, .T. ) ;
#115 =( GEOMETRIC_REPRESENTATION_CONTEXT ( 3 ) GLOBAL_UNCERTAINTY_ASSIGNED_CONTEXT ( ( #288 ) ) GLOBAL_UNIT_ASSIGNED_CONTEXT ( ( #211, #24, #121 ) ) REPRESENTATION_CONTEXT ( 'NONE', 'WORKASPACE' ) );
#116 = DIRECTION ( 'NONE',  ( 1.000000000000000000, 0.0000000000000000000, -0.0000000000000000000 ) ) ;
#117 = ADVANCED_FACE ( 'NONE', ( #103 ), #141, .T. ) ;
#118 = EDGE_LOOP ( 'NONE', ( #176, #244, #67, #55 ) ) ;
#119 = CIRCLE ( 'NONE', #74, 0.07874999999999980627 ) ;
#120 = DIRECTION ( 'NONE',  ( 1.000000000000000000, 0.0000000000000000000, 0.0000000000000000000 ) ) ;
#121 =( NAMED_UNIT ( * ) SI_UNIT ( $, .STERADIAN. ) SOLID_ANGLE_UNIT ( ) );
#122 = DIRECTION ( 'NONE',  ( 1.000000000000000000, 0.0000000000000000000, 0.0000000000000000000 ) ) ;
#123 = EDGE_LOOP ( 'NONE', ( #65, #220, #99, #247 ) ) ;
#124 = MECHANICAL_DESIGN_GEOMETRIC_PRESENTATION_REPRESENTATION (  '', ( #143 ), #42 ) ;
#125 = ORIENTED_EDGE ( 'NONE', *, *, #282, .F. ) ;
#126 = LENGTH_MEASURE_WITH_UNIT ( LENGTH_MEASURE( 0.02539999999999999897 ), #29 );
#127 = ORIENTED_EDGE ( 'NONE', *, *, #195, .F. ) ;
#128 = ADVANCED_FACE ( 'NONE', ( #54 ), #188, .F. ) ;
#129 = EDGE_LOOP ( 'NONE', ( #86, #139, #106, #40 ) ) ;
#130 = ORIENTED_EDGE ( 'NONE', *, *, #109, .F. ) ;
#131 = CONICAL_SURFACE ( 'NONE', #12, 0.09365624999999999645, 0.1745329251994338360 ) ;
#132 = DIRECTION ( 'NONE',  ( 1.000000000000000000, 0.0000000000000000000, 0.0000000000000000000 ) ) ;
#133 =( NAMED_UNIT ( * ) SI_UNIT ( $, .STERADIAN. ) SOLID_ANGLE_UNIT ( ) );
#134 =( NAMED_UNIT ( * ) PLANE_ANGLE_UNIT ( ) SI_UNIT ( $, .RADIAN. ) );
#135 = AXIS2_PLACEMENT_3D ( 'NONE', #142, #60, #258 ) ;
#136 = DIRECTION ( 'NONE',  ( -1.000000000000000000, 0.0000000000000000000, 0.0000000000000000000 ) ) ;
#137 = AXIS2_PLACEMENT_3D ( 'NONE', #290, #268, #122 ) ;
#138 = EDGE_CURVE ( 'NONE', #212, #265, #119, .T. ) ;
#139 = ORIENTED_EDGE ( 'NONE', *, *, #165, .F. ) ;
#140 = PLANE ( 'NONE',  #249 ) ;
#141 = CYLINDRICAL_SURFACE ( 'NONE', #161, 0.09365624999999999645 ) ;
#142 = CARTESIAN_POINT ( 'NONE',  ( 7.654042494670957853E-17, 0.0000000000000000000, 0.6250000000000000000 ) ) ;
#143 = STYLED_ITEM ( 'NONE', ( #230 ), #144 ) ;
#144 = ADVANCED_BREP_SHAPE_REPRESENTATION ( 'Micro_SFA-187-35', ( #222, #79 ), #115 ) ;
#145 = CARTESIAN_POINT ( 'NONE',  ( 0.0000000000000000000, 0.0000000000000000000, 2.000000000000000000 ) ) ;
#146 = EDGE_CURVE ( 'NONE', #201, #267, #200, .T. ) ;
#147 = ORIENTED_EDGE ( 'NONE', *, *, #92, .T. ) ;
#148 = ORIENTED_EDGE ( 'NONE', *, *, #184, .T. ) ;
#149 = DIRECTION ( 'NONE',  ( 0.0000000000000000000, 0.0000000000000000000, -1.000000000000000000 ) ) ;
#150 = PRESENTATION_LAYER_ASSIGNMENT (  '', '', ( #143 ) ) ;
#151 = DIRECTION ( 'NONE',  ( -1.224646799147353207E-16, -0.0000000000000000000, -1.000000000000000000 ) ) ;
#152 = SURFACE_STYLE_USAGE ( .BOTH. , #64 ) ;
#153 = CARTESIAN_POINT ( 'NONE',  ( 0.09365624999999999645, 1.146958267826442798E-17, -1.146958267826442798E-17 ) ) ;
#154 = ORIENTED_EDGE ( 'NONE', *, *, #19, .T. ) ;
#155 = LENGTH_MEASURE_WITH_UNIT ( LENGTH_MEASURE( 0.02539999999999999897 ), #173 );
#156 = LINE ( 'NONE', #248, #46 ) ;
#157 = AXIS2_PLACEMENT_3D ( 'NONE', #292, #76, #261 ) ;
#158 = DIRECTION ( 'NONE',  ( -1.224646799147353207E-16, -0.0000000000000000000, -1.000000000000000000 ) ) ;
#159 = DIRECTION ( 'NONE',  ( -0.0000000000000000000, -0.0000000000000000000, -1.000000000000000000 ) ) ;
#160 = EDGE_CURVE ( 'NONE', #20, #283, #241, .T. ) ;
#161 = AXIS2_PLACEMENT_3D ( 'NONE', #163, #264, #63 ) ;
#162 = PRODUCT ( 'Micro_SFA-187-35', 'Micro_SFA-187-35', '', ( #238 ) ) ;
#163 = CARTESIAN_POINT ( 'NONE',  ( 0.0000000000000000000, 0.0000000000000000000, 0.0000000000000000000 ) ) ;
#164 = DIRECTION ( 'NONE',  ( 1.000000000000000000, 0.0000000000000000000, 0.0000000000000000000 ) ) ;
#165 = EDGE_CURVE ( 'NONE', #297, #78, #167, .T. ) ;
#166 = LENGTH_MEASURE_WITH_UNIT ( LENGTH_MEASURE( 0.02539999999999999897 ), #279 );
#167 = CIRCLE ( 'NONE', #157, 0.09365624999999999645 ) ;
#168 = ORIENTED_EDGE ( 'NONE', *, *, #282, .T. ) ;
#169 = SURFACE_STYLE_FILL_AREA ( #287 ) ;
#170 = LINE ( 'NONE', #153, #11 ) ;
#171 = SURFACE_STYLE_USAGE ( .BOTH. , #33 ) ;
#172 = LINE ( 'NONE', #199, #204 ) ;
#173 =( LENGTH_UNIT ( ) NAMED_UNIT ( * ) SI_UNIT ( $, .METRE. ) );
#174 = LINE ( 'NONE', #77, #271 ) ;
#175 = AXIS2_PLACEMENT_3D ( 'NONE', #284, #82, #164 ) ;
#176 = ORIENTED_EDGE ( 'NONE', *, *, #138, .F. ) ;
#177 = FACE_OUTER_BOUND ( 'NONE', #89, .T. ) ;
#178 = VERTEX_POINT ( 'NONE', #218 ) ;
#179 = AXIS2_PLACEMENT_3D ( 'NONE', #193, #273, #225 ) ;
#180 =( CONVERSION_BASED_UNIT ( 'INCH', #155 ) LENGTH_UNIT ( ) NAMED_UNIT ( #111 ) );
#181 = CIRCLE ( 'NONE', #295, 0.09365624999999999645 ) ;
#182 = DIRECTION ( 'NONE',  ( -0.0000000000000000000, -0.0000000000000000000, -1.000000000000000000 ) ) ;
#183 = DIRECTION ( 'NONE',  ( 0.1736481776669313304, 0.0000000000000000000, 0.9848077530122077983 ) ) ;
#184 = EDGE_CURVE ( 'NONE', #283, #20, #90, .T. ) ;
#185 = ORIENTED_EDGE ( 'NONE', *, *, #43, .T. ) ;
#186 = AXIS2_PLACEMENT_3D ( 'NONE', #81, #84, #58 ) ;
#187 = CIRCLE ( 'NONE', #228, 0.09365624999999999645 ) ;
#188 = PLANE ( 'NONE',  #87 ) ;
#189 = CARTESIAN_POINT ( 'NONE',  ( 0.0000000000000000000, 0.0000000000000000000, 0.0000000000000000000 ) ) ;
#190 = UNCERTAINTY_MEASURE_WITH_UNIT (LENGTH_MEASURE( 1.000000000000000082E-05 ), #251, 'distance_accuracy_value', 'NONE');
#191 = ORIENTED_EDGE ( 'NONE', *, *, #146, .F. ) ;
#192 = FILL_AREA_STYLE_COLOUR ( '', #107 ) ;
#193 = CARTESIAN_POINT ( 'NONE',  ( 0.0000000000000000000, 0.0000000000000000000, 2.000000000000000000 ) ) ;
#194 = DIRECTION ( 'NONE',  ( 0.0000000000000000000, 0.0000000000000000000, 1.000000000000000000 ) ) ;
#195 = EDGE_CURVE ( 'NONE', #267, #201, #255, .T. ) ;
#196 = FILL_AREA_STYLE_COLOUR ( '', #257 ) ;
#197 = ORIENTED_EDGE ( 'NONE', *, *, #160, .F. ) ;
#198 = DIRECTION ( 'NONE',  ( -1.000000000000000000, 0.0000000000000000000, 0.0000000000000000000 ) ) ;
#199 = CARTESIAN_POINT ( 'NONE',  ( 0.07874999999999980627, 9.644093543285380530E-18, 2.000000000000000000 ) ) ;
#200 = CIRCLE ( 'NONE', #137, 0.09375000000000001388 ) ;
#201 = VERTEX_POINT ( 'NONE', #215 ) ;
#202 = PRODUCT_RELATED_PRODUCT_CATEGORY ( 'part', '', ( #162 ) ) ;
#203 = DIRECTION ( 'NONE',  ( -1.000000000000000000, 0.0000000000000000000, 1.224646799147352961E-16 ) ) ;
#204 = VECTOR ( 'NONE', #269, 39.37007874015748143 ) ;
#205 = DIRECTION ( 'NONE',  ( 1.000000000000000000, 0.0000000000000000000, 0.0000000000000000000 ) ) ;
#206 = CARTESIAN_POINT ( 'NONE',  ( 0.0000000000000000000, 0.0000000000000000000, 2.000000000000000000 ) ) ;
#207 = FACE_OUTER_BOUND ( 'NONE', #10, .T. ) ;
#208 = APPLICATION_PROTOCOL_DEFINITION ( 'draft international standard', 'automotive_design', 1998, #14 ) ;
#209 = MECHANICAL_DESIGN_GEOMETRIC_PRESENTATION_REPRESENTATION (  '', ( #13 ), #280 ) ;
#210 = DIRECTION ( 'NONE',  ( -1.000000000000000000, 0.0000000000000000000, 0.0000000000000000000 ) ) ;
#211 =( CONVERSION_BASED_UNIT ( 'INCH', #166 ) LENGTH_UNIT ( ) NAMED_UNIT ( #15 ) );
#212 = VERTEX_POINT ( 'NONE', #1 ) ;
#213 = VECTOR ( 'NONE', #234, 39.37007874015748143 ) ;
#214 = PRODUCT_DEFINITION_CONTEXT ( 'detailed design', #217, 'design' ) ;
#215 = CARTESIAN_POINT ( 'NONE',  ( 0.09375000000000006939, 1.148106374200644633E-17, 0.6255316826705892286 ) ) ;
#216 = CARTESIAN_POINT ( 'NONE',  ( -0.07874999999999980627, 0.0000000000000000000, 2.000000000000000000 ) ) ;
#217 = APPLICATION_CONTEXT ( 'automotive_design' ) ;
#218 = CARTESIAN_POINT ( 'NONE',  ( 0.09365624999999999645, 1.146958267826442798E-17, 0.0000000000000000000 ) ) ;
#219 = EDGE_LOOP ( 'NONE', ( #154, #75 ) ) ;
#220 = ORIENTED_EDGE ( 'NONE', *, *, #165, .T. ) ;
#221 = DIRECTION ( 'NONE',  ( -1.224646799147353207E-16, -0.0000000000000000000, -1.000000000000000000 ) ) ;
#222 = MANIFOLD_SOLID_BREP ( 'Cut-Revolve1', #47 ) ;
#223 = ORIENTED_EDGE ( 'NONE', *, *, #51, .T. ) ;
#224 = CARTESIAN_POINT ( 'NONE',  ( -0.09365624999999999645, 0.0000000000000000000, 2.293916535652885596E-17 ) ) ;
#225 = DIRECTION ( 'NONE',  ( -1.000000000000000000, 0.0000000000000000000, 0.0000000000000000000 ) ) ;
#226 = PRESENTATION_LAYER_ASSIGNMENT (  '', '', ( #13 ) ) ;
#227 = ORIENTED_EDGE ( 'NONE', *, *, #7, .T. ) ;
#228 = AXIS2_PLACEMENT_3D ( 'NONE', #17, #250, #203 ) ;
#229 = DIRECTION ( 'NONE',  ( -0.7071067811865463515, 0.0000000000000000000, -0.7071067811865486830 ) ) ;
#230 = PRESENTATION_STYLE_ASSIGNMENT (( #152 ) ) ;
#231 = CARTESIAN_POINT ( 'NONE',  ( 0.0000000000000000000, 0.0000000000000000000, 2.000000000000000000 ) ) ;
#232 = VECTOR ( 'NONE', #254, 39.37007874015747433 ) ;
#233 = CARTESIAN_POINT ( 'NONE',  ( 7.660553729477949085E-17, 0.0000000000000000000, 0.6255316826705892286 ) ) ;
#234 = DIRECTION ( 'NONE',  ( -1.224646799147353207E-16, -0.0000000000000000000, -1.000000000000000000 ) ) ;
#235 = CARTESIAN_POINT ( 'NONE',  ( 0.09365625000000006584, 0.0000000000000000000, 0.6250000000000000000 ) ) ;
#236 = EDGE_LOOP ( 'NONE', ( #36, #185, #286, #299 ) ) ;
#237 = CARTESIAN_POINT ( 'NONE',  ( -0.09365624999999999645, 0.0000000000000000000, 1.146958267826442798E-17 ) ) ;
#238 = PRODUCT_CONTEXT ( 'NONE', #14, 'mechanical' ) ;
#239 = UNCERTAINTY_MEASURE_WITH_UNIT (LENGTH_MEASURE( 1.000000000000000082E-05 ), #180, 'distance_accuracy_value', 'NONE');
#240 = DIRECTION ( 'NONE',  ( 1.000000000000000000, 0.0000000000000000000, 0.0000000000000000000 ) ) ;
#241 = CIRCLE ( 'NONE', #175, 0.09375000000000001388 ) ;
#242 = CARTESIAN_POINT ( 'NONE',  ( 0.09365625000000006584, 0.0000000000000000000, 0.6250000000000000000 ) ) ;
#243 = LINE ( 'NONE', #237, #213 ) ;
#244 = ORIENTED_EDGE ( 'NONE', *, *, #25, .T. ) ;
#245 = CARTESIAN_POINT ( 'NONE',  ( -0.07874999999999980627, 0.0000000000000000000, 2.000000000000000000 ) ) ;
#246 = EDGE_CURVE ( 'NONE', #97, #178, #181, .T. ) ;
#247 = ORIENTED_EDGE ( 'NONE', *, *, #92, .F. ) ;
#248 = CARTESIAN_POINT ( 'NONE',  ( 0.09375000000000001388, 1.148106374200643863E-17, 2.000000000000000000 ) ) ;
#249 = AXIS2_PLACEMENT_3D ( 'NONE', #231, #22, #116 ) ;
#250 = DIRECTION ( 'NONE',  ( -1.224646799147353207E-16, -0.0000000000000000000, -1.000000000000000000 ) ) ;
#251 =( CONVERSION_BASED_UNIT ( 'INCH', #126 ) LENGTH_UNIT ( ) NAMED_UNIT ( #256 ) );
#252 = SHAPE_DEFINITION_REPRESENTATION ( #21, #144 ) ;
#253 = ADVANCED_FACE ( 'NONE', ( #177 ), #66, .T. ) ;
#254 = DIRECTION ( 'NONE',  ( -0.1736481776669311639, 2.126576849575782392E-17, 0.9848077530122080203 ) ) ;
#255 = CIRCLE ( 'NONE', #70, 0.09375000000000001388 ) ;
#256 = DIMENSIONAL_EXPONENTS ( 1.000000000000000000, 0.0000000000000000000, 0.0000000000000000000, 0.0000000000000000000, 0.0000000000000000000, 0.0000000000000000000, 0.0000000000000000000 ) ;
#257 = COLOUR_RGB ( '',0.7921568627450980005, 0.8196078431372548767, 0.9333333333333333481 ) ;
#258 = DIRECTION ( 'NONE',  ( 1.000000000000000000, 0.0000000000000000000, 0.0000000000000000000 ) ) ;
#259 = LINE ( 'NONE', #216, #263 ) ;
#260 = ORIENTED_EDGE ( 'NONE', *, *, #246, .F. ) ;
#261 = DIRECTION ( 'NONE',  ( -1.000000000000000000, 0.0000000000000000000, 0.0000000000000000000 ) ) ;
#262 = AXIS2_PLACEMENT_3D ( 'NONE', #102, #38, #240 ) ;
#263 = VECTOR ( 'NONE', #229, 39.37007874015748143 ) ;
#264 = DIRECTION ( 'NONE',  ( -1.224646799147353207E-16, -0.0000000000000000000, -1.000000000000000000 ) ) ;
#265 = VERTEX_POINT ( 'NONE', #245 ) ;
#266 = PRESENTATION_STYLE_ASSIGNMENT (( #171 ) ) ;
#267 = VERTEX_POINT ( 'NONE', #39 ) ;
#268 = DIRECTION ( 'NONE',  ( -1.224646799147353207E-16, -0.0000000000000000000, -1.000000000000000000 ) ) ;
#269 = DIRECTION ( 'NONE',  ( 0.7071067811865463515, 8.659560562354916834E-17, -0.7071067811865486830 ) ) ;
#270 = CARTESIAN_POINT ( 'NONE',  ( 0.0000000000000000000, 0.0000000000000000000, 0.0000000000000000000 ) ) ;
#271 = VECTOR ( 'NONE', #23, 39.37007874015748143 ) ;
#272 = FILL_AREA_STYLE ('',( #196 ) ) ;
#273 = DIRECTION ( 'NONE',  ( 0.0000000000000000000, 0.0000000000000000000, -1.000000000000000000 ) ) ;
#274 = EDGE_LOOP ( 'NONE', ( #94, #147 ) ) ;
#275 = LINE ( 'NONE', #296, #232 ) ;
#276 =( NAMED_UNIT ( * ) PLANE_ANGLE_UNIT ( ) SI_UNIT ( $, .RADIAN. ) );
#277 = CYLINDRICAL_SURFACE ( 'NONE', #72, 0.09375000000000001388 ) ;
#278 = CONICAL_SURFACE ( 'NONE', #135, 0.09365624999999999645, 0.1745329251994338360 ) ;
#279 =( LENGTH_UNIT ( ) NAMED_UNIT ( * ) SI_UNIT ( $, .METRE. ) );
#280 =( GEOMETRIC_REPRESENTATION_CONTEXT ( 3 ) GLOBAL_UNCERTAINTY_ASSIGNED_CONTEXT ( ( #190 ) ) GLOBAL_UNIT_ASSIGNED_CONTEXT ( ( #251, #134, #91 ) ) REPRESENTATION_CONTEXT ( 'NONE', 'WORKASPACE' ) );
#281 = PRODUCT_DEFINITION_FORMATION_WITH_SPECIFIED_SOURCE ( 'ANY', '', #162, .NOT_KNOWN. ) ;
#282 = EDGE_CURVE ( 'NONE', #20, #201, #156, .T. ) ;
#283 = VERTEX_POINT ( 'NONE', #108 ) ;
#284 = CARTESIAN_POINT ( 'NONE',  ( 0.0000000000000000000, 0.0000000000000000000, 1.984999999999999654 ) ) ;
#285 = DIRECTION ( 'NONE',  ( 1.000000000000000000, 0.0000000000000000000, -0.0000000000000000000 ) ) ;
#286 = ORIENTED_EDGE ( 'NONE', *, *, #195, .T. ) ;
#287 = FILL_AREA_STYLE ('',( #192 ) ) ;
#288 = UNCERTAINTY_MEASURE_WITH_UNIT (LENGTH_MEASURE( 1.000000000000000082E-05 ), #211, 'distance_accuracy_value', 'NONE');
#289 = EDGE_LOOP ( 'NONE', ( #227, #6, #260, #130 ) ) ;
#290 = CARTESIAN_POINT ( 'NONE',  ( 7.660553729477949085E-17, 0.0000000000000000000, 0.6255316826705892286 ) ) ;
#291 = ORIENTED_EDGE ( 'NONE', *, *, #19, .F. ) ;
#292 = CARTESIAN_POINT ( 'NONE',  ( 7.654042494670957853E-17, 0.0000000000000000000, 0.6250000000000000000 ) ) ;
#293 = ADVANCED_FACE ( 'NONE', ( #207 ), #277, .T. ) ;
#294 = ORIENTED_EDGE ( 'NONE', *, *, #160, .T. ) ;
#295 = AXIS2_PLACEMENT_3D ( 'NONE', #98, #158, #44 ) ;
#296 = CARTESIAN_POINT ( 'NONE',  ( -0.09365624999999992706, 1.146958267826442798E-17, 0.6250000000000000000 ) ) ;
#297 = VERTEX_POINT ( 'NONE', #235 ) ;
#298 = ADVANCED_FACE ( 'NONE', ( #30 ), #140, .T. ) ;
#299 = ORIENTED_EDGE ( 'NONE', *, *, #32, .F. ) ;
ENDSEC;
END-ISO-10303-21;
