ISO-10303-21;
HEADER;
FILE_DESCRIPTION (( 'STEP AP214' ),
    '1' );
FILE_NAME ('84588.STEP',
    '2023-07-12T13:08:55',
    ( '' ),
    ( '' ),
    'SwSTEP 2.0',
    'SolidWorks 2023',
    '' );
FILE_SCHEMA (( 'AUTOMOTIVE_DESIGN' ));
ENDSEC;

DATA;
#1 = ORIENTED_EDGE ( 'NONE', *, *, #70, .F. ) ;
#2 =( CONVERSION_BASED_UNIT ( 'INCH', #128 ) LENGTH_UNIT ( ) NAMED_UNIT ( #27 ) );
#3 = ORIENTED_EDGE ( 'NONE', *, *, #299, .F. ) ;
#4 = SURFACE_SIDE_STYLE ('',( #33 ) ) ;
#5 = APPLICATION_PROTOCOL_DEFINITION ( 'draft international standard', 'automotive_design', 1998, #296 ) ;
#6 = CLOSED_SHELL ( 'NONE', ( #202, #104, #84, #99 ) ) ;
#7 = ORIENTED_EDGE ( 'NONE', *, *, #98, .T. ) ;
#8 = CARTESIAN_POINT ( 'NONE',  ( 0.06249999999999997224, 1.500000000000000222, 0.000000000000000000 ) ) ;
#9 = PRODUCT_RELATED_PRODUCT_CATEGORY ( 'part', '', ( #301 ) ) ;
#10 = CARTESIAN_POINT ( 'NONE',  ( -0.06249999999999977102, 1.500000000000000222, 0.000000000000000000 ) ) ;
#11 = PRODUCT_DEFINITION_SHAPE ( 'NONE', 'NONE',  #123 ) ;
#12 = SURFACE_SIDE_STYLE ('',( #137 ) ) ;
#13 = SURFACE_STYLE_USAGE ( .BOTH. , #281 ) ;
#14 = SURFACE_SIDE_STYLE ('',( #188 ) ) ;
#15 =( NAMED_UNIT ( * ) PLANE_ANGLE_UNIT ( ) SI_UNIT ( $, .RADIAN. ) );
#16 =( LENGTH_UNIT ( ) NAMED_UNIT ( * ) SI_UNIT ( $, .METRE. ) );
#17 = DIRECTION ( 'NONE',  ( -6.644377982596874735E-33, 1.000000000000000000, 0.000000000000000000 ) ) ;
#18 = FILL_AREA_STYLE_COLOUR ( '', #94 ) ;
#19 = MECHANICAL_DESIGN_GEOMETRIC_PRESENTATION_REPRESENTATION (  '', ( #306 ), #87 ) ;
#20 = PRESENTATION_STYLE_ASSIGNMENT (( #286 ) ) ;
#21 = DIRECTION ( 'NONE',  ( 1.000000000000000000, 0.000000000000000000, 0.000000000000000000 ) ) ;
#22 = ADVANCED_BREP_SHAPE_REPRESENTATION ( '84588', ( #103, #210, #82 ), #173 ) ;
#23 = CARTESIAN_POINT ( 'NONE',  ( 6.123233995736763571E-17, 1.500000000000000222, 0.000000000000000000 ) ) ;
#24 = DIMENSIONAL_EXPONENTS ( 1.000000000000000000, 0.000000000000000000, 0.000000000000000000, 0.000000000000000000, 0.000000000000000000, 0.000000000000000000, 0.000000000000000000 ) ;
#25 = ORIENTED_EDGE ( 'NONE', *, *, #299, .T. ) ;
#26 = FACE_OUTER_BOUND ( 'NONE', #31, .T. ) ;
#27 = DIMENSIONAL_EXPONENTS ( 1.000000000000000000, 0.000000000000000000, 0.000000000000000000, 0.000000000000000000, 0.000000000000000000, 0.000000000000000000, 0.000000000000000000 ) ;
#28 = ORIENTED_EDGE ( 'NONE', *, *, #288, .T. ) ;
#29 = SURFACE_STYLE_USAGE ( .BOTH. , #4 ) ;
#30 = VECTOR ( 'NONE', #254, 39.37007874015748143 ) ;
#31 = EDGE_LOOP ( 'NONE', ( #204, #102 ) ) ;
#32 = PRODUCT_CONTEXT ( 'NONE', #166, 'mechanical' ) ;
#33 = SURFACE_STYLE_FILL_AREA ( #57 ) ;
#34 = ORIENTED_EDGE ( 'NONE', *, *, #307, .F. ) ;
#35 = EDGE_LOOP ( 'NONE', ( #239, #238 ) ) ;
#36 = FACE_OUTER_BOUND ( 'NONE', #35, .T. ) ;
#37 = DIRECTION ( 'NONE',  ( 0.000000000000000000, 0.000000000000000000, 1.000000000000000000 ) ) ;
#38 = AXIS2_PLACEMENT_3D ( 'NONE', #244, #176, #147 ) ;
#39 = CARTESIAN_POINT ( 'NONE',  ( 0.06249999999999999306, 0.03566173432503417368, 7.654042494670943678E-18 ) ) ;
#40 = DIRECTION ( 'NONE',  ( 6.644377982596874735E-33, -1.000000000000000000, -0.000000000000000000 ) ) ;
#41 = FACE_OUTER_BOUND ( 'NONE', #126, .T. ) ;
#42 = FILL_AREA_STYLE_COLOUR ( '', #191 ) ;
#43 = CARTESIAN_POINT ( 'NONE',  ( 0.06249999999999997918, 0.03566173432503425000, 7.654042494670956004E-18 ) ) ;
#44 = FILL_AREA_STYLE ('',( #42 ) ) ;
#45 = PRESENTATION_STYLE_ASSIGNMENT (( #211 ) ) ;
#46 = FILL_AREA_STYLE_COLOUR ( '', #154 ) ;
#47 = UNCERTAINTY_MEASURE_WITH_UNIT (LENGTH_MEASURE( 1.000000000000000082E-05 ), #108, 'distance_accuracy_value', 'NONE');
#48 = DIRECTION ( 'NONE',  ( -1.203522985155330889E-16, 1.000000000000000000, -0.000000000000000000 ) ) ;
#49 = STYLED_ITEM ( 'NONE', ( #135 ), #177 ) ;
#50 = UNCERTAINTY_MEASURE_WITH_UNIT (LENGTH_MEASURE( 1.000000000000000082E-05 ), #168, 'distance_accuracy_value', 'NONE');
#51 = AXIS2_PLACEMENT_3D ( 'NONE', #259, #48, #86 ) ;
#52 = CIRCLE ( 'NONE', #263, 0.06249999999999991673 ) ;
#53 = VERTEX_POINT ( 'NONE', #74 ) ;
#54 = ADVANCED_FACE ( 'NONE', ( #222 ), #77, .T. ) ;
#55 = VERTEX_POINT ( 'NONE', #134 ) ;
#56 = ORIENTED_EDGE ( 'NONE', *, *, #261, .T. ) ;
#57 = FILL_AREA_STYLE ('',( #300 ) ) ;
#58 = PRESENTATION_LAYER_ASSIGNMENT (  '', '', ( #293 ) ) ;
#59 = PRESENTATION_LAYER_ASSIGNMENT (  '', '', ( #200 ) ) ;
#60 = APPLICATION_PROTOCOL_DEFINITION ( 'draft international standard', 'automotive_design', 1998, #166 ) ;
#61 = ORIENTED_EDGE ( 'NONE', *, *, #270, .T. ) ;
#62 = ORIENTED_EDGE ( 'NONE', *, *, #264, .F. ) ;
#63 =( LENGTH_UNIT ( ) NAMED_UNIT ( * ) SI_UNIT ( $, .METRE. ) );
#64 = DIRECTION ( 'NONE',  ( -1.000000000000000000, -6.644377982596874735E-33, 0.000000000000000000 ) ) ;
#65 = EDGE_CURVE ( 'NONE', #53, #218, #206, .T. ) ;
#66 = DIRECTION ( 'NONE',  ( 1.000000000000000000, 6.644377982596874735E-33, 0.000000000000000000 ) ) ;
#67 = PRODUCT_DEFINITION_FORMATION_WITH_SPECIFIED_SOURCE ( 'ANY', '', #301, .NOT_KNOWN. ) ;
#68 = CARTESIAN_POINT ( 'NONE',  ( 2.374688160355991503E-16, 0.03566173432503416674, 0.000000000000000000 ) ) ;
#69 =( NAMED_UNIT ( * ) PLANE_ANGLE_UNIT ( ) SI_UNIT ( $, .RADIAN. ) );
#70 = EDGE_CURVE ( 'NONE', #219, #218, #298, .T. ) ;
#71 = AXIS2_PLACEMENT_3D ( 'NONE', #68, #236, #187 ) ;
#72 = PRODUCT_DEFINITION_CONTEXT ( 'detailed design', #296, 'design' ) ;
#73 = DIMENSIONAL_EXPONENTS ( 1.000000000000000000, 0.000000000000000000, 0.000000000000000000, 0.000000000000000000, 0.000000000000000000, 0.000000000000000000, 0.000000000000000000 ) ;
#74 = CARTESIAN_POINT ( 'NONE',  ( 0.06249999999999997224, 1.500000000000000222, 7.654042494670942137E-18 ) ) ;
#75 = VERTEX_POINT ( 'NONE', #149 ) ;
#76 =( NAMED_UNIT ( * ) PLANE_ANGLE_UNIT ( ) SI_UNIT ( $, .RADIAN. ) );
#77 = CONICAL_SURFACE ( 'NONE', #287, 0.02000000000000000042, 0.8726646259971666542 ) ;
#78 = ORIENTED_EDGE ( 'NONE', *, *, #70, .T. ) ;
#79 = DIRECTION ( 'NONE',  ( -1.000000000000000000, 0.000000000000000000, 0.000000000000000000 ) ) ;
#80 =( LENGTH_UNIT ( ) NAMED_UNIT ( * ) SI_UNIT ( $, .METRE. ) );
#81 = CARTESIAN_POINT ( 'NONE',  ( -0.02000000000000000042, -2.657751193038749997E-34, 0.000000000000000000 ) ) ;
#82 = AXIS2_PLACEMENT_3D ( 'NONE', #150, #37, #245 ) ;
#83 =( NAMED_UNIT ( * ) SI_UNIT ( $, .STERADIAN. ) SOLID_ANGLE_UNIT ( ) );
#84 = ADVANCED_FACE ( 'NONE', ( #208 ), #303, .T. ) ;
#85 =( LENGTH_UNIT ( ) NAMED_UNIT ( * ) SI_UNIT ( $, .METRE. ) );
#86 = DIRECTION ( 'NONE',  ( -1.000000000000000000, 0.000000000000000000, 0.000000000000000000 ) ) ;
#87 =( GEOMETRIC_REPRESENTATION_CONTEXT ( 3 ) GLOBAL_UNCERTAINTY_ASSIGNED_CONTEXT ( ( #50 ) ) GLOBAL_UNIT_ASSIGNED_CONTEXT ( ( #168, #76, #124 ) ) REPRESENTATION_CONTEXT ( 'NONE', 'WORKASPACE' ) );
#88 = LENGTH_MEASURE_WITH_UNIT ( LENGTH_MEASURE( 0.02539999999999999897 ), #80 );
#89 = CARTESIAN_POINT ( 'NONE',  ( -0.06249999999999950734, 0.03566173432503415980, 0.000000000000000000 ) ) ;
#90 = PLANE ( 'NONE',  #142 ) ;
#91 = DIRECTION ( 'NONE',  ( 6.644377982596874735E-33, -1.000000000000000000, -0.000000000000000000 ) ) ;
#92 = SURFACE_STYLE_FILL_AREA ( #228 ) ;
#93 = DIRECTION ( 'NONE',  ( 6.644377982596874735E-33, -1.000000000000000000, -0.000000000000000000 ) ) ;
#94 = COLOUR_RGB ( '',1.000000000000000000, 0.000000000000000000, 0.000000000000000000 ) ;
#95 =( GEOMETRIC_REPRESENTATION_CONTEXT ( 3 ) GLOBAL_UNCERTAINTY_ASSIGNED_CONTEXT ( ( #47 ) ) GLOBAL_UNIT_ASSIGNED_CONTEXT ( ( #108, #15, #110 ) ) REPRESENTATION_CONTEXT ( 'NONE', 'WORKASPACE' ) );
#96 = EDGE_CURVE ( 'NONE', #198, #55, #267, .T. ) ;
#97 = DIMENSIONAL_EXPONENTS ( 1.000000000000000000, 0.000000000000000000, 0.000000000000000000, 0.000000000000000000, 0.000000000000000000, 0.000000000000000000, 0.000000000000000000 ) ;
#98 = EDGE_CURVE ( 'NONE', #291, #55, #305, .T. ) ;
#99 = ADVANCED_FACE ( 'NONE', ( #26 ), #145, .F. ) ;
#100 = ORIENTED_EDGE ( 'NONE', *, *, #270, .F. ) ;
#101 = AXIS2_PLACEMENT_3D ( 'NONE', #179, #214, #109 ) ;
#102 = ORIENTED_EDGE ( 'NONE', *, *, #65, .T. ) ;
#103 = MANIFOLD_SOLID_BREP ( 'Revolve - Cutting Edge', #209 ) ;
#104 = ADVANCED_FACE ( 'NONE', ( #279 ), #205, .F. ) ;
#105 = DIRECTION ( 'NONE',  ( -1.000000000000000000, 0.000000000000000000, 0.000000000000000000 ) ) ;
#106 =( GEOMETRIC_REPRESENTATION_CONTEXT ( 3 ) GLOBAL_UNCERTAINTY_ASSIGNED_CONTEXT ( ( #258 ) ) GLOBAL_UNIT_ASSIGNED_CONTEXT ( ( #183, #158, #83 ) ) REPRESENTATION_CONTEXT ( 'NONE', 'WORKASPACE' ) );
#107 = DIRECTION ( 'NONE',  ( -1.203522985155330889E-16, 1.000000000000000000, -0.000000000000000000 ) ) ;
#108 =( CONVERSION_BASED_UNIT ( 'INCH', #248 ) LENGTH_UNIT ( ) NAMED_UNIT ( #167 ) );
#109 = DIRECTION ( 'NONE',  ( -1.000000000000000000, -1.203522985155330889E-16, 0.000000000000000000 ) ) ;
#110 =( NAMED_UNIT ( * ) SI_UNIT ( $, .STERADIAN. ) SOLID_ANGLE_UNIT ( ) );
#111 =( LENGTH_UNIT ( ) NAMED_UNIT ( * ) SI_UNIT ( $, .METRE. ) );
#112 = AXIS2_PLACEMENT_3D ( 'NONE', #250, #151, #246 ) ;
#113 = FILL_AREA_STYLE ('',( #18 ) ) ;
#114 =( NAMED_UNIT ( * ) SI_UNIT ( $, .STERADIAN. ) SOLID_ANGLE_UNIT ( ) );
#115 = DIRECTION ( 'NONE',  ( -1.000000000000000000, -6.644377982596874735E-33, 0.000000000000000000 ) ) ;
#116 = ADVANCED_FACE ( 'NONE', ( #257 ), #155, .T. ) ;
#117 =( NAMED_UNIT ( * ) PLANE_ANGLE_UNIT ( ) SI_UNIT ( $, .RADIAN. ) );
#118 = FILL_AREA_STYLE ('',( #46 ) ) ;
#119 = UNCERTAINTY_MEASURE_WITH_UNIT (LENGTH_MEASURE( 1.000000000000000082E-05 ), #192, 'distance_accuracy_value', 'NONE');
#120 =( GEOMETRIC_REPRESENTATION_CONTEXT ( 3 ) GLOBAL_UNCERTAINTY_ASSIGNED_CONTEXT ( ( #285 ) ) GLOBAL_UNIT_ASSIGNED_CONTEXT ( ( #255, #117, #152 ) ) REPRESENTATION_CONTEXT ( 'NONE', 'WORKASPACE' ) );
#121 = DIMENSIONAL_EXPONENTS ( 1.000000000000000000, 0.000000000000000000, 0.000000000000000000, 0.000000000000000000, 0.000000000000000000, 0.000000000000000000, 0.000000000000000000 ) ;
#122 = DIRECTION ( 'NONE',  ( -1.000000000000000000, 0.000000000000000000, 0.000000000000000000 ) ) ;
#123 = PRODUCT_DEFINITION ( 'UNKNOWN', '', #67, #72 ) ;
#124 =( NAMED_UNIT ( * ) SI_UNIT ( $, .STERADIAN. ) SOLID_ANGLE_UNIT ( ) );
#125 =( LENGTH_UNIT ( ) NAMED_UNIT ( * ) SI_UNIT ( $, .METRE. ) );
#126 = EDGE_LOOP ( 'NONE', ( #25, #133, #34, #1 ) ) ;
#127 = DIRECTION ( 'NONE',  ( 1.203522985155330889E-16, -1.000000000000000000, 0.000000000000000000 ) ) ;
#128 = LENGTH_MEASURE_WITH_UNIT ( LENGTH_MEASURE( 0.02539999999999999897 ), #125 );
#129 = PRESENTATION_STYLE_ASSIGNMENT (( #29 ) ) ;
#130 = PRESENTATION_LAYER_ASSIGNMENT (  '', '', ( #49 ) ) ;
#131 = MECHANICAL_DESIGN_GEOMETRIC_PRESENTATION_REPRESENTATION (  '', ( #200 ), #95 ) ;
#132 = DIRECTION ( 'NONE',  ( -1.203522985155330889E-16, 1.000000000000000000, -0.000000000000000000 ) ) ;
#133 = ORIENTED_EDGE ( 'NONE', *, *, #272, .T. ) ;
#134 = CARTESIAN_POINT ( 'NONE',  ( -0.06249999999999997918, 0.03566173432503425000, 0.000000000000000000 ) ) ;
#135 = PRESENTATION_STYLE_ASSIGNMENT (( #282 ) ) ;
#136 = CARTESIAN_POINT ( 'NONE',  ( -0.06249999999999985428, 1.500000000000000222, 0.000000000000000000 ) ) ;
#137 = SURFACE_STYLE_FILL_AREA ( #44 ) ;
#138 = PRESENTATION_STYLE_ASSIGNMENT (( #233 ) ) ;
#139 = PRESENTATION_LAYER_ASSIGNMENT (  '', '', ( #237 ) ) ;
#140 = DIRECTION ( 'NONE',  ( -6.644377982596874735E-33, 1.000000000000000000, 0.000000000000000000 ) ) ;
#141 = CIRCLE ( 'NONE', #283, 0.06249999999999997918 ) ;
#142 = AXIS2_PLACEMENT_3D ( 'NONE', #231, #17, #115 ) ;
#143 = AXIS2_PLACEMENT_3D ( 'NONE', #182, #91, #278 ) ;
#144 = ORIENTED_EDGE ( 'NONE', *, *, #264, .T. ) ;
#145 = PLANE ( 'NONE',  #273 ) ;
#146 = ORIENTED_EDGE ( 'NONE', *, *, #272, .F. ) ;
#147 = DIRECTION ( 'NONE',  ( 1.000000000000000000, 0.000000000000000000, 0.000000000000000000 ) ) ;
#148 = VECTOR ( 'NONE', #107, 39.37007874015748143 ) ;
#149 = CARTESIAN_POINT ( 'NONE',  ( 0.02000000000000000042, 0.000000000000000000, 5.051668046482830809E-18 ) ) ;
#150 = CARTESIAN_POINT ( 'NONE',  ( 0.000000000000000000, 0.000000000000000000, 0.000000000000000000 ) ) ;
#151 = DIRECTION ( 'NONE',  ( -1.203522985155330889E-16, 1.000000000000000000, -0.000000000000000000 ) ) ;
#152 =( NAMED_UNIT ( * ) SI_UNIT ( $, .STERADIAN. ) SOLID_ANGLE_UNIT ( ) );
#153 = MECHANICAL_DESIGN_GEOMETRIC_PRESENTATION_REPRESENTATION (  '', ( #293 ), #235 ) ;
#154 = COLOUR_RGB ( '',0.7921568627450980005, 0.8196078431372548767, 0.9333333333333333481 ) ;
#155 = PLANE ( 'NONE',  #172 ) ;
#156 = CARTESIAN_POINT ( 'NONE',  ( 8.829551755123623592E-67, -1.328875596519374998E-34, 0.000000000000000000 ) ) ;
#157 = LINE ( 'NONE', #230, #30 ) ;
#158 =( NAMED_UNIT ( * ) PLANE_ANGLE_UNIT ( ) SI_UNIT ( $, .RADIAN. ) );
#159 = CONICAL_SURFACE ( 'NONE', #308, 0.02000000000000000042, 0.8726646259971666542 ) ;
#160 = COLOUR_RGB ( '',1.000000000000000000, 0.000000000000000000, 0.000000000000000000 ) ;
#161 = CARTESIAN_POINT ( 'NONE',  ( -0.02000000000000000042, -2.657751193038749997E-34, 0.000000000000000000 ) ) ;
#162 = UNCERTAINTY_MEASURE_WITH_UNIT (LENGTH_MEASURE( 1.000000000000000082E-05 ), #226, 'distance_accuracy_value', 'NONE');
#163 =( NAMED_UNIT ( * ) SI_UNIT ( $, .STERADIAN. ) SOLID_ANGLE_UNIT ( ) );
#164 = VECTOR ( 'NONE', #280, 39.37007874015748143 ) ;
#165 = UNCERTAINTY_MEASURE_WITH_UNIT (LENGTH_MEASURE( 1.000000000000000082E-05 ), #2, 'distance_accuracy_value', 'NONE');
#166 = APPLICATION_CONTEXT ( 'automotive_design' ) ;
#167 = DIMENSIONAL_EXPONENTS ( 1.000000000000000000, 0.000000000000000000, 0.000000000000000000, 0.000000000000000000, 0.000000000000000000, 0.000000000000000000, 0.000000000000000000 ) ;
#168 =( CONVERSION_BASED_UNIT ( 'INCH', #309 ) LENGTH_UNIT ( ) NAMED_UNIT ( #169 ) );
#169 = DIMENSIONAL_EXPONENTS ( 1.000000000000000000, 0.000000000000000000, 0.000000000000000000, 0.000000000000000000, 0.000000000000000000, 0.000000000000000000, 0.000000000000000000 ) ;
#170 = EDGE_LOOP ( 'NONE', ( #201, #62, #223, #56 ) ) ;
#171 = CARTESIAN_POINT ( 'NONE',  ( 6.123233995736763571E-17, 1.500000000000000222, 0.000000000000000000 ) ) ;
#172 = AXIS2_PLACEMENT_3D ( 'NONE', #253, #40, #186 ) ;
#173 =( GEOMETRIC_REPRESENTATION_CONTEXT ( 3 ) GLOBAL_UNCERTAINTY_ASSIGNED_CONTEXT ( ( #165 ) ) GLOBAL_UNIT_ASSIGNED_CONTEXT ( ( #2, #269, #289 ) ) REPRESENTATION_CONTEXT ( 'NONE', 'WORKASPACE' ) );
#174 = ORIENTED_EDGE ( 'NONE', *, *, #65, .F. ) ;
#175 = DIRECTION ( 'NONE',  ( -0.7660444431189792347, 0.6427876096865379196, 0.000000000000000000 ) ) ;
#176 = DIRECTION ( 'NONE',  ( 6.644377982596874735E-33, -1.000000000000000000, -0.000000000000000000 ) ) ;
#177 = ADVANCED_FACE ( 'NONE', ( #247 ), #159, .T. ) ;
#178 = COLOUR_RGB ( '',0.7921568627450980005, 0.8196078431372548767, 0.9333333333333333481 ) ;
#179 = CARTESIAN_POINT ( 'NONE',  ( 2.374688160355991010E-16, 0.03566173432503425000, 0.000000000000000000 ) ) ;
#180 = FILL_AREA_STYLE_COLOUR ( '', #160 ) ;
#181 = CIRCLE ( 'NONE', #143, 0.02000000000000000042 ) ;
#182 = CARTESIAN_POINT ( 'NONE',  ( 8.829551755123623592E-67, -1.328875596519374998E-34, 0.000000000000000000 ) ) ;
#183 =( CONVERSION_BASED_UNIT ( 'INCH', #88 ) LENGTH_UNIT ( ) NAMED_UNIT ( #97 ) );
#184 = DIRECTION ( 'NONE',  ( 6.644377982596874735E-33, -1.000000000000000000, -0.000000000000000000 ) ) ;
#185 = COLOUR_RGB ( '',1.000000000000000000, 0.000000000000000000, 0.000000000000000000 ) ;
#186 = DIRECTION ( 'NONE',  ( 1.000000000000000000, 6.644377982596874735E-33, 0.000000000000000000 ) ) ;
#187 = DIRECTION ( 'NONE',  ( -1.000000000000000000, -1.365923996832137279E-16, 0.000000000000000000 ) ) ;
#188 = SURFACE_STYLE_FILL_AREA ( #118 ) ;
#189 = FILL_AREA_STYLE ('',( #203 ) ) ;
#190 = CARTESIAN_POINT ( 'NONE',  ( 8.829551755123623592E-67, -1.328875596519374998E-34, 0.000000000000000000 ) ) ;
#191 = COLOUR_RGB ( '',1.000000000000000000, 0.000000000000000000, 0.000000000000000000 ) ;
#192 =( CONVERSION_BASED_UNIT ( 'INCH', #232 ) LENGTH_UNIT ( ) NAMED_UNIT ( #73 ) );
#193 = LENGTH_MEASURE_WITH_UNIT ( LENGTH_MEASURE( 0.02539999999999999897 ), #16 );
#194 = SURFACE_SIDE_STYLE ('',( #215 ) ) ;
#195 = PRESENTATION_LAYER_ASSIGNMENT (  '', '', ( #265 ) ) ;
#196 =( LENGTH_UNIT ( ) NAMED_UNIT ( * ) SI_UNIT ( $, .METRE. ) );
#197 = ORIENTED_EDGE ( 'NONE', *, *, #295, .F. ) ;
#198 = VERTEX_POINT ( 'NONE', #161 ) ;
#199 = DIRECTION ( 'NONE',  ( -1.203522985155330889E-16, 1.000000000000000000, -0.000000000000000000 ) ) ;
#200 = STYLED_ITEM ( 'NONE', ( #276 ), #302 ) ;
#201 = ORIENTED_EDGE ( 'NONE', *, *, #288, .F. ) ;
#202 = ADVANCED_FACE ( 'NONE', ( #41 ), #216, .T. ) ;
#203 = FILL_AREA_STYLE_COLOUR ( '', #185 ) ;
#204 = ORIENTED_EDGE ( 'NONE', *, *, #307, .T. ) ;
#205 = PLANE ( 'NONE',  #101 ) ;
#206 = CIRCLE ( 'NONE', #229, 0.06249999999999991673 ) ;
#207 = SHAPE_DEFINITION_REPRESENTATION ( #11, #22 ) ;
#208 = FACE_OUTER_BOUND ( 'NONE', #271, .T. ) ;
#209 = CLOSED_SHELL ( 'NONE', ( #177, #302, #54, #116 ) ) ;
#210 = MANIFOLD_SOLID_BREP ( 'Revolve - Tool Body (Tipped Off)', #6 ) ;
#211 = SURFACE_STYLE_USAGE ( .BOTH. , #227 ) ;
#212 = CIRCLE ( 'NONE', #71, 0.06249999999999974326 ) ;
#213 = CARTESIAN_POINT ( 'NONE',  ( 0.06249999999999988898, 1.500000000000000222, 7.654042494670935974E-18 ) ) ;
#214 = DIRECTION ( 'NONE',  ( -1.203522985155330889E-16, 1.000000000000000000, 0.000000000000000000 ) ) ;
#215 = SURFACE_STYLE_FILL_AREA ( #189 ) ;
#216 = CYLINDRICAL_SURFACE ( 'NONE', #51, 0.06249999999999982653 ) ;
#217 = MECHANICAL_DESIGN_GEOMETRIC_PRESENTATION_REPRESENTATION (  '', ( #237 ), #120 ) ;
#218 = VERTEX_POINT ( 'NONE', #136 ) ;
#219 = VERTEX_POINT ( 'NONE', #89 ) ;
#220 = DIRECTION ( 'NONE',  ( 1.000000000000000000, 1.203522985155330889E-16, 0.000000000000000000 ) ) ;
#221 = CIRCLE ( 'NONE', #262, 0.02000000000000000042 ) ;
#222 = FACE_OUTER_BOUND ( 'NONE', #170, .T. ) ;
#223 = ORIENTED_EDGE ( 'NONE', *, *, #96, .T. ) ;
#224 = MECHANICAL_DESIGN_GEOMETRIC_PRESENTATION_REPRESENTATION (  '', ( #265 ), #106 ) ;
#225 = SURFACE_STYLE_FILL_AREA ( #113 ) ;
#226 =( CONVERSION_BASED_UNIT ( 'INCH', #193 ) LENGTH_UNIT ( ) NAMED_UNIT ( #24 ) );
#227 = SURFACE_SIDE_STYLE ('',( #225 ) ) ;
#228 = FILL_AREA_STYLE ('',( #180 ) ) ;
#229 = AXIS2_PLACEMENT_3D ( 'NONE', #275, #132, #79 ) ;
#230 = CARTESIAN_POINT ( 'NONE',  ( 0.02000000000000000042, 0.000000000000000000, 2.449293598294706769E-18 ) ) ;
#231 = CARTESIAN_POINT ( 'NONE',  ( -2.369500423704768160E-34, 0.03566173432503425694, 0.000000000000000000 ) ) ;
#232 = LENGTH_MEASURE_WITH_UNIT ( LENGTH_MEASURE( 0.02539999999999999897 ), #111 );
#233 = SURFACE_STYLE_USAGE ( .BOTH. , #14 ) ;
#234 = CARTESIAN_POINT ( 'NONE',  ( -2.369500423704768160E-34, 0.03566173432503425000, 0.000000000000000000 ) ) ;
#235 =( GEOMETRIC_REPRESENTATION_CONTEXT ( 3 ) GLOBAL_UNCERTAINTY_ASSIGNED_CONTEXT ( ( #162 ) ) GLOBAL_UNIT_ASSIGNED_CONTEXT ( ( #226, #69, #163 ) ) REPRESENTATION_CONTEXT ( 'NONE', 'WORKASPACE' ) );
#236 = DIRECTION ( 'NONE',  ( -1.203522985155330889E-16, 1.000000000000000000, -0.000000000000000000 ) ) ;
#237 = STYLED_ITEM ( 'NONE', ( #45 ), #116 ) ;
#238 = ORIENTED_EDGE ( 'NONE', *, *, #98, .F. ) ;
#239 = ORIENTED_EDGE ( 'NONE', *, *, #261, .F. ) ;
#240 = DIRECTION ( 'NONE',  ( -1.203522985155330889E-16, 1.000000000000000000, -0.000000000000000000 ) ) ;
#241 = CIRCLE ( 'NONE', #112, 0.06249999999999974326 ) ;
#242 = DIRECTION ( 'NONE',  ( -1.000000000000000000, -6.644377982596874735E-33, 0.000000000000000000 ) ) ;
#243 = EDGE_LOOP ( 'NONE', ( #3, #197 ) ) ;
#244 = CARTESIAN_POINT ( 'NONE',  ( -2.369500423704768160E-34, 0.03566173432503425000, 0.000000000000000000 ) ) ;
#245 = DIRECTION ( 'NONE',  ( 1.000000000000000000, 0.000000000000000000, 0.000000000000000000 ) ) ;
#246 = DIRECTION ( 'NONE',  ( -1.000000000000000000, -1.365923996832137279E-16, 0.000000000000000000 ) ) ;
#247 = FACE_OUTER_BOUND ( 'NONE', #274, .T. ) ;
#248 = LENGTH_MEASURE_WITH_UNIT ( LENGTH_MEASURE( 0.02539999999999999897 ), #63 );
#249 = AXIS2_PLACEMENT_3D ( 'NONE', #171, #240, #105 ) ;
#250 = CARTESIAN_POINT ( 'NONE',  ( 2.374688160355991503E-16, 0.03566173432503416674, 0.000000000000000000 ) ) ;
#251 = LINE ( 'NONE', #213, #164 ) ;
#252 = PRESENTATION_LAYER_ASSIGNMENT (  '', '', ( #306 ) ) ;
#253 = CARTESIAN_POINT ( 'NONE',  ( 4.414775877561811796E-67, -6.644377982596874991E-35, 0.000000000000000000 ) ) ;
#254 = DIRECTION ( 'NONE',  ( 0.7660444431189792347, 0.6427876096865379196, 9.381338752702745572E-17 ) ) ;
#255 =( CONVERSION_BASED_UNIT ( 'INCH', #304 ) LENGTH_UNIT ( ) NAMED_UNIT ( #121 ) );
#256 =( GEOMETRIC_REPRESENTATION_CONTEXT ( 3 ) GLOBAL_UNCERTAINTY_ASSIGNED_CONTEXT ( ( #119 ) ) GLOBAL_UNIT_ASSIGNED_CONTEXT ( ( #192, #284, #114 ) ) REPRESENTATION_CONTEXT ( 'NONE', 'WORKASPACE' ) );
#257 = FACE_OUTER_BOUND ( 'NONE', #266, .T. ) ;
#258 = UNCERTAINTY_MEASURE_WITH_UNIT (LENGTH_MEASURE( 1.000000000000000082E-05 ), #183, 'distance_accuracy_value', 'NONE');
#259 = CARTESIAN_POINT ( 'NONE',  ( 6.123233995736763571E-17, 1.500000000000000222, 0.000000000000000000 ) ) ;
#260 = DIRECTION ( 'NONE',  ( -6.644377982596874735E-33, 1.000000000000000000, 0.000000000000000000 ) ) ;
#261 = EDGE_CURVE ( 'NONE', #55, #291, #141, .T. ) ;
#262 = AXIS2_PLACEMENT_3D ( 'NONE', #156, #93, #66 ) ;
#263 = AXIS2_PLACEMENT_3D ( 'NONE', #23, #199, #122 ) ;
#264 = EDGE_CURVE ( 'NONE', #198, #75, #181, .T. ) ;
#265 = STYLED_ITEM ( 'NONE', ( #129 ), #103 ) ;
#266 = EDGE_LOOP ( 'NONE', ( #144, #61 ) ) ;
#267 = LINE ( 'NONE', #81, #277 ) ;
#268 = ORIENTED_EDGE ( 'NONE', *, *, #96, .F. ) ;
#269 =( NAMED_UNIT ( * ) PLANE_ANGLE_UNIT ( ) SI_UNIT ( $, .RADIAN. ) );
#270 = EDGE_CURVE ( 'NONE', #75, #198, #221, .T. ) ;
#271 = EDGE_LOOP ( 'NONE', ( #146, #290, #78, #174 ) ) ;
#272 = EDGE_CURVE ( 'NONE', #297, #53, #251, .T. ) ;
#273 = AXIS2_PLACEMENT_3D ( 'NONE', #8, #127, #220 ) ;
#274 = EDGE_LOOP ( 'NONE', ( #100, #28, #7, #268 ) ) ;
#275 = CARTESIAN_POINT ( 'NONE',  ( 6.123233995736763571E-17, 1.500000000000000222, 0.000000000000000000 ) ) ;
#276 = PRESENTATION_STYLE_ASSIGNMENT (( #13 ) ) ;
#277 = VECTOR ( 'NONE', #175, 39.37007874015748143 ) ;
#278 = DIRECTION ( 'NONE',  ( 1.000000000000000000, 6.644377982596874735E-33, 0.000000000000000000 ) ) ;
#279 = FACE_OUTER_BOUND ( 'NONE', #243, .T. ) ;
#280 = DIRECTION ( 'NONE',  ( -1.203522985155330889E-16, 1.000000000000000000, -0.000000000000000000 ) ) ;
#281 = SURFACE_SIDE_STYLE ('',( #92 ) ) ;
#282 = SURFACE_STYLE_USAGE ( .BOTH. , #12 ) ;
#283 = AXIS2_PLACEMENT_3D ( 'NONE', #234, #184, #21 ) ;
#284 =( NAMED_UNIT ( * ) PLANE_ANGLE_UNIT ( ) SI_UNIT ( $, .RADIAN. ) );
#285 = UNCERTAINTY_MEASURE_WITH_UNIT (LENGTH_MEASURE( 1.000000000000000082E-05 ), #255, 'distance_accuracy_value', 'NONE');
#286 = SURFACE_STYLE_USAGE ( .BOTH. , #194 ) ;
#287 = AXIS2_PLACEMENT_3D ( 'NONE', #292, #140, #242 ) ;
#288 = EDGE_CURVE ( 'NONE', #75, #291, #157, .T. ) ;
#289 =( NAMED_UNIT ( * ) SI_UNIT ( $, .STERADIAN. ) SOLID_ANGLE_UNIT ( ) );
#290 = ORIENTED_EDGE ( 'NONE', *, *, #295, .T. ) ;
#291 = VERTEX_POINT ( 'NONE', #43 ) ;
#292 = CARTESIAN_POINT ( 'NONE',  ( 8.829551755123623592E-67, -1.328875596519374998E-34, 0.000000000000000000 ) ) ;
#293 = STYLED_ITEM ( 'NONE', ( #138 ), #210 ) ;
#294 = MECHANICAL_DESIGN_GEOMETRIC_PRESENTATION_REPRESENTATION (  '', ( #49 ), #256 ) ;
#295 = EDGE_CURVE ( 'NONE', #297, #219, #212, .T. ) ;
#296 = APPLICATION_CONTEXT ( 'automotive_design' ) ;
#297 = VERTEX_POINT ( 'NONE', #39 ) ;
#298 = LINE ( 'NONE', #10, #148 ) ;
#299 = EDGE_CURVE ( 'NONE', #219, #297, #241, .T. ) ;
#300 = FILL_AREA_STYLE_COLOUR ( '', #178 ) ;
#301 = PRODUCT ( '84588', '84588', '', ( #32 ) ) ;
#302 = ADVANCED_FACE ( 'NONE', ( #36 ), #90, .T. ) ;
#303 = CYLINDRICAL_SURFACE ( 'NONE', #249, 0.06249999999999982653 ) ;
#304 = LENGTH_MEASURE_WITH_UNIT ( LENGTH_MEASURE( 0.02539999999999999897 ), #85 );
#305 = CIRCLE ( 'NONE', #38, 0.06249999999999997918 ) ;
#306 = STYLED_ITEM ( 'NONE', ( #20 ), #54 ) ;
#307 = EDGE_CURVE ( 'NONE', #218, #53, #52, .T. ) ;
#308 = AXIS2_PLACEMENT_3D ( 'NONE', #190, #260, #64 ) ;
#309 = LENGTH_MEASURE_WITH_UNIT ( LENGTH_MEASURE( 0.02539999999999999897 ), #196 );
ENDSEC;
END-ISO-10303-21;
