ISO-10303-21;
HEADER;
FILE_DESCRIPTION (( 'STEP AP214' ),
    '1' );
FILE_NAME ('Micro_SME-018-2X.STEP',
    '2021-09-02T10:39:34',
    ( '' ),
    ( '' ),
    'SwSTEP 2.0',
    'SolidWorks 2020',
    '' );
FILE_SCHEMA (( 'AUTOMOTIVE_DESIGN' ));
ENDSEC;

DATA;
#1 = DIRECTION ( 'NONE',  ( 0.0000000000000000000, 0.0000000000000000000, -1.000000000000000000 ) ) ;
#2 = PRODUCT_DEFINITION ( 'UNKNOWN', '', #227, #21 ) ;
#3 = VECTOR ( 'NONE', #260, 39.37007874015747433 ) ;
#4 = ORIENTED_EDGE ( 'NONE', *, *, #53, .T. ) ;
#5 = ORIENTED_EDGE ( 'NONE', *, *, #268, .T. ) ;
#6 = VECTOR ( 'NONE', #222, 39.37007874015748854 ) ;
#7 = ORIENTED_EDGE ( 'NONE', *, *, #120, .T. ) ;
#8 = PRESENTATION_LAYER_ASSIGNMENT (  '', '', ( #15 ) ) ;
#9 = ORIENTED_EDGE ( 'NONE', *, *, #298, .T. ) ;
#10 = FACE_OUTER_BOUND ( 'NONE', #50, .T. ) ;
#11 = CARTESIAN_POINT ( 'NONE',  ( 0.0000000000000000000, 0.0000000000000000000, 1.500000000000000222 ) ) ;
#12 = ORIENTED_EDGE ( 'NONE', *, *, #244, .T. ) ;
#13 = VECTOR ( 'NONE', #71, 39.37007874015748854 ) ;
#14 =( LENGTH_UNIT ( ) NAMED_UNIT ( * ) SI_UNIT ( $, .METRE. ) );
#15 = STYLED_ITEM ( 'NONE', ( #56 ), #63 ) ;
#16 = DIRECTION ( 'NONE',  ( -1.000000000000000000, 0.0000000000000000000, 0.0000000000000000000 ) ) ;
#17 = CARTESIAN_POINT ( 'NONE',  ( -0.04750000000000064587, 0.0000000000000000000, 1.500000000000000222 ) ) ;
#18 = CYLINDRICAL_SURFACE ( 'NONE', #141, 0.06250000000000002776 ) ;
#19 = DIRECTION ( 'NONE',  ( -1.224646799147353700E-16, -0.0000000000000000000, -1.000000000000000000 ) ) ;
#20 = DIRECTION ( 'NONE',  ( 1.224646799147353700E-16, 0.0000000000000000000, 1.000000000000000000 ) ) ;
#21 = PRODUCT_DEFINITION_CONTEXT ( 'detailed design', #46, 'design' ) ;
#22 = CIRCLE ( 'NONE', #200, 0.008991000000000002462 ) ;
#23 = LENGTH_MEASURE_WITH_UNIT ( LENGTH_MEASURE( 0.02539999999999999897 ), #70 );
#24 = CIRCLE ( 'NONE', #212, 0.008991000000000002462 ) ;
#25 = SURFACE_STYLE_USAGE ( .BOTH. , #242 ) ;
#26 = CARTESIAN_POINT ( 'NONE',  ( 0.0000000000000000000, 0.0000000000000000000, 1.500000000000000222 ) ) ;
#27 = DIRECTION ( 'NONE',  ( 0.0000000000000000000, 0.0000000000000000000, 1.000000000000000000 ) ) ;
#28 = FACE_OUTER_BOUND ( 'NONE', #204, .T. ) ;
#29 = FACE_OUTER_BOUND ( 'NONE', #31, .T. ) ;
#30 = AXIS2_PLACEMENT_3D ( 'NONE', #252, #255, #153 ) ;
#31 = EDGE_LOOP ( 'NONE', ( #161, #117, #254, #231 ) ) ;
#32 = ORIENTED_EDGE ( 'NONE', *, *, #268, .F. ) ;
#33 = EDGE_CURVE ( 'NONE', #178, #162, #24, .T. ) ;
#34 = VERTEX_POINT ( 'NONE', #135 ) ;
#35 = VERTEX_POINT ( 'NONE', #36 ) ;
#36 = CARTESIAN_POINT ( 'NONE',  ( 0.008990999999999997258, 1.101079937113384904E-18, -2.369500423704768587E-34 ) ) ;
#37 =( NAMED_UNIT ( * ) SI_UNIT ( $, .STERADIAN. ) SOLID_ANGLE_UNIT ( ) );
#38 = APPLICATION_CONTEXT ( 'automotive_design' ) ;
#39 = AXIS2_PLACEMENT_3D ( 'NONE', #118, #1, #185 ) ;
#40 =( NAMED_UNIT ( * ) SI_UNIT ( $, .STERADIAN. ) SOLID_ANGLE_UNIT ( ) );
#41 = ADVANCED_FACE ( 'NONE', ( #226 ), #96, .T. ) ;
#42 = DIRECTION ( 'NONE',  ( 1.224646799147353700E-16, 0.0000000000000000000, 1.000000000000000000 ) ) ;
#43 = CARTESIAN_POINT ( 'NONE',  ( 0.0000000000000000000, 0.0000000000000000000, 1.500000000000000222 ) ) ;
#44 = CARTESIAN_POINT ( 'NONE',  ( -0.008990999999999997258, 0.0000000000000000000, 2.202159874226770579E-18 ) ) ;
#45 = CARTESIAN_POINT ( 'NONE',  ( 0.04750000000000064587, 5.817072295950006528E-18, 1.500000000000000222 ) ) ;
#46 = APPLICATION_CONTEXT ( 'automotive_design' ) ;
#47 = AXIS2_PLACEMENT_3D ( 'NONE', #133, #108, #61 ) ;
#48 =( NAMED_UNIT ( * ) SI_UNIT ( $, .STERADIAN. ) SOLID_ANGLE_UNIT ( ) );
#49 = ORIENTED_EDGE ( 'NONE', *, *, #81, .F. ) ;
#50 = EDGE_LOOP ( 'NONE', ( #275, #210, #228, #124 ) ) ;
#51 = ORIENTED_EDGE ( 'NONE', *, *, #85, .F. ) ;
#52 = ORIENTED_EDGE ( 'NONE', *, *, #107, .T. ) ;
#53 = EDGE_CURVE ( 'NONE', #34, #234, #217, .T. ) ;
#54 =( GEOMETRIC_REPRESENTATION_CONTEXT ( 3 ) GLOBAL_UNCERTAINTY_ASSIGNED_CONTEXT ( ( #89 ) ) GLOBAL_UNIT_ASSIGNED_CONTEXT ( ( #109, #294, #48 ) ) REPRESENTATION_CONTEXT ( 'NONE', 'WORKASPACE' ) );
#55 = DIRECTION ( 'NONE',  ( -1.224646799147353700E-16, -0.0000000000000000000, -1.000000000000000000 ) ) ;
#56 = PRESENTATION_STYLE_ASSIGNMENT (( #145 ) ) ;
#57 =( GEOMETRIC_REPRESENTATION_CONTEXT ( 3 ) GLOBAL_UNCERTAINTY_ASSIGNED_CONTEXT ( ( #269 ) ) GLOBAL_UNIT_ASSIGNED_CONTEXT ( ( #166, #232, #40 ) ) REPRESENTATION_CONTEXT ( 'NONE', 'WORKASPACE' ) );
#58 = DIRECTION ( 'NONE',  ( 0.0000000000000000000, 0.0000000000000000000, -1.000000000000000000 ) ) ;
#59 = CONICAL_SURFACE ( 'NONE', #289, 0.008991000000000002462, 0.1745329251994338915 ) ;
#60 = EDGE_CURVE ( 'NONE', #162, #78, #130, .T. ) ;
#61 = DIRECTION ( 'NONE',  ( 1.000000000000000000, 0.0000000000000000000, -0.0000000000000000000 ) ) ;
#62 = CARTESIAN_POINT ( 'NONE',  ( 0.0000000000000000000, 0.0000000000000000000, 0.0000000000000000000 ) ) ;
#63 = ADVANCED_BREP_SHAPE_REPRESENTATION ( 'Micro_SME-018-2X', ( #189, #103 ), #203 ) ;
#64 = FACE_OUTER_BOUND ( 'NONE', #74, .T. ) ;
#65 = AXIS2_PLACEMENT_3D ( 'NONE', #26, #112, #91 ) ;
#66 = SHAPE_DEFINITION_REPRESENTATION ( #105, #63 ) ;
#67 = DIRECTION ( 'NONE',  ( -0.0000000000000000000, -0.0000000000000000000, -1.000000000000000000 ) ) ;
#68 = DIRECTION ( 'NONE',  ( 1.000000000000000000, 0.0000000000000000000, 0.0000000000000000000 ) ) ;
#69 = LINE ( 'NONE', #266, #134 ) ;
#70 =( LENGTH_UNIT ( ) NAMED_UNIT ( * ) SI_UNIT ( $, .METRE. ) );
#71 = DIRECTION ( 'NONE',  ( 0.7071067811865462405, 8.659560562354916834E-17, -0.7071067811865486830 ) ) ;
#72 = CLOSED_SHELL ( 'NONE', ( #171, #282, #139, #83, #41, #152, #154, #175, #216, #276 ) ) ;
#73 = VERTEX_POINT ( 'NONE', #128 ) ;
#74 = EDGE_LOOP ( 'NONE', ( #183, #253 ) ) ;
#75 = CARTESIAN_POINT ( 'NONE',  ( 0.04750000000000064587, 6.735557395310483192E-18, 1.500000000000000222 ) ) ;
#76 = LINE ( 'NONE', #17, #6 ) ;
#77 = ORIENTED_EDGE ( 'NONE', *, *, #33, .T. ) ;
#78 = VERTEX_POINT ( 'NONE', #157 ) ;
#79 = EDGE_LOOP ( 'NONE', ( #5, #271 ) ) ;
#80 = DIRECTION ( 'NONE',  ( 1.000000000000000000, 0.0000000000000000000, 0.0000000000000000000 ) ) ;
#81 = EDGE_CURVE ( 'NONE', #34, #230, #299, .T. ) ;
#82 = AXIS2_PLACEMENT_3D ( 'NONE', #262, #247, #116 ) ;
#83 = ADVANCED_FACE ( 'NONE', ( #10 ), #18, .T. ) ;
#84 = SURFACE_SIDE_STYLE ('',( #206 ) ) ;
#85 = EDGE_CURVE ( 'NONE', #178, #35, #281, .T. ) ;
#86 = CIRCLE ( 'NONE', #159, 0.04750000000000064587 ) ;
#87 = CARTESIAN_POINT ( 'NONE',  ( 3.306546357697854812E-18, 0.0000000000000000000, 0.02699999999999999969 ) ) ;
#88 = DIRECTION ( 'NONE',  ( -1.224646799147353700E-16, -0.0000000000000000000, -1.000000000000000000 ) ) ;
#89 = UNCERTAINTY_MEASURE_WITH_UNIT (LENGTH_MEASURE( 1.000000000000000082E-05 ), #109, 'distance_accuracy_value', 'NONE');
#90 = AXIS2_PLACEMENT_3D ( 'NONE', #142, #184, #80 ) ;
#91 = DIRECTION ( 'NONE',  ( -1.000000000000000000, 0.0000000000000000000, 0.0000000000000000000 ) ) ;
#92 = CARTESIAN_POINT ( 'NONE',  ( 0.06250000000000002776, 7.654042494670959086E-18, 1.500000000000000222 ) ) ;
#93 = CARTESIAN_POINT ( 'NONE',  ( 1.348434020591276969E-34, 0.0000000000000000000, 1.101079937113385289E-18 ) ) ;
#94 = AXIS2_PLACEMENT_3D ( 'NONE', #11, #58, #16 ) ;
#95 = EDGE_CURVE ( 'NONE', #178, #230, #170, .T. ) ;
#96 = CYLINDRICAL_SURFACE ( 'NONE', #106, 0.06250000000000002776 ) ;
#97 = ORIENTED_EDGE ( 'NONE', *, *, #223, .F. ) ;
#98 = VECTOR ( 'NONE', #188, 39.37007874015748143 ) ;
#99 = ORIENTED_EDGE ( 'NONE', *, *, #263, .F. ) ;
#100 = EDGE_LOOP ( 'NONE', ( #52, #138, #32, #249 ) ) ;
#101 = CARTESIAN_POINT ( 'NONE',  ( -0.008990999999999998993, 1.101079937113385482E-18, 0.02699999999999999969 ) ) ;
#102 = DIRECTION ( 'NONE',  ( -1.000000000000000000, 0.0000000000000000000, 1.224646799147353700E-16 ) ) ;
#103 = AXIS2_PLACEMENT_3D ( 'NONE', #62, #174, #110 ) ;
#104 =( LENGTH_UNIT ( ) NAMED_UNIT ( * ) SI_UNIT ( $, .METRE. ) );
#105 = PRODUCT_DEFINITION_SHAPE ( 'NONE', 'NONE',  #2 ) ;
#106 = AXIS2_PLACEMENT_3D ( 'NONE', #273, #218, #284 ) ;
#107 = EDGE_CURVE ( 'NONE', #162, #178, #22, .T. ) ;
#108 = DIRECTION ( 'NONE',  ( 0.0000000000000000000, 0.0000000000000000000, 1.000000000000000000 ) ) ;
#109 =( CONVERSION_BASED_UNIT ( 'INCH', #23 ) LENGTH_UNIT ( ) NAMED_UNIT ( #111 ) );
#110 = DIRECTION ( 'NONE',  ( 1.000000000000000000, 0.0000000000000000000, 0.0000000000000000000 ) ) ;
#111 = DIMENSIONAL_EXPONENTS ( 1.000000000000000000, 0.0000000000000000000, 0.0000000000000000000, 0.0000000000000000000, 0.0000000000000000000, 0.0000000000000000000, 0.0000000000000000000 ) ;
#112 = DIRECTION ( 'NONE',  ( 0.0000000000000000000, 0.0000000000000000000, -1.000000000000000000 ) ) ;
#113 = MECHANICAL_DESIGN_GEOMETRIC_PRESENTATION_REPRESENTATION (  '', ( #15 ), #57 ) ;
#114 = UNCERTAINTY_MEASURE_WITH_UNIT (LENGTH_MEASURE( 1.000000000000000082E-05 ), #167, 'distance_accuracy_value', 'NONE');
#115 = CONICAL_SURFACE ( 'NONE', #283, 0.008991000000000002462, 0.1745329251994338915 ) ;
#116 = DIRECTION ( 'NONE',  ( 1.000000000000000000, 0.0000000000000000000, 0.0000000000000000000 ) ) ;
#117 = ORIENTED_EDGE ( 'NONE', *, *, #33, .F. ) ;
#118 = CARTESIAN_POINT ( 'NONE',  ( 0.0000000000000000000, 0.0000000000000000000, 1.485000000000000764 ) ) ;
#119 = ORIENTED_EDGE ( 'NONE', *, *, #244, .F. ) ;
#120 = EDGE_CURVE ( 'NONE', #78, #230, #193, .T. ) ;
#121 = ORIENTED_EDGE ( 'NONE', *, *, #148, .T. ) ;
#122 = AXIS2_PLACEMENT_3D ( 'NONE', #286, #190, #125 ) ;
#123 = EDGE_LOOP ( 'NONE', ( #49, #4, #160, #205 ) ) ;
#124 = ORIENTED_EDGE ( 'NONE', *, *, #224, .F. ) ;
#125 = DIRECTION ( 'NONE',  ( 1.000000000000000000, 0.0000000000000000000, -0.0000000000000000000 ) ) ;
#126 = CONICAL_SURFACE ( 'NONE', #94, 0.04750000000000064587, 0.7853981633974466137 ) ;
#127 = DIMENSIONAL_EXPONENTS ( 1.000000000000000000, 0.0000000000000000000, 0.0000000000000000000, 0.0000000000000000000, 0.0000000000000000000, 0.0000000000000000000, 0.0000000000000000000 ) ;
#128 = CARTESIAN_POINT ( 'NONE',  ( -0.04750000000000064587, 0.0000000000000000000, 1.500000000000000222 ) ) ;
#129 = FILL_AREA_STYLE ('',( #196 ) ) ;
#130 = LINE ( 'NONE', #101, #3 ) ;
#131 = FACE_OUTER_BOUND ( 'NONE', #100, .T. ) ;
#132 = CIRCLE ( 'NONE', #172, 0.008990999999999997258 ) ;
#133 = CARTESIAN_POINT ( 'NONE',  ( 0.0000000000000000000, 0.0000000000000000000, 1.500000000000000222 ) ) ;
#134 = VECTOR ( 'NONE', #248, 39.37007874015748143 ) ;
#135 = CARTESIAN_POINT ( 'NONE',  ( 0.06250000000000002776, 7.654042494670959086E-18, 1.485000000000000764 ) ) ;
#136 = COLOUR_RGB ( '',0.7921568627450980005, 0.8196078431372548767, 0.9333333333333333481 ) ;
#137 = ORIENTED_EDGE ( 'NONE', *, *, #148, .F. ) ;
#138 = ORIENTED_EDGE ( 'NONE', *, *, #85, .T. ) ;
#139 = ADVANCED_FACE ( 'NONE', ( #208 ), #126, .T. ) ;
#140 = EDGE_LOOP ( 'NONE', ( #99, #12, #251, #137 ) ) ;
#141 = AXIS2_PLACEMENT_3D ( 'NONE', #43, #67, #151 ) ;
#142 = CARTESIAN_POINT ( 'NONE',  ( 0.0000000000000000000, 0.0000000000000000000, 1.485000000000000764 ) ) ;
#143 = DIRECTION ( 'NONE',  ( -1.000000000000000000, 0.0000000000000000000, 0.0000000000000000000 ) ) ;
#144 = DIRECTION ( 'NONE',  ( 1.000000000000000000, 0.0000000000000000000, 0.0000000000000000000 ) ) ;
#145 = SURFACE_STYLE_USAGE ( .BOTH. , #84 ) ;
#146 = CARTESIAN_POINT ( 'NONE',  ( 1.348434020591276969E-34, 0.0000000000000000000, 1.101079937113385289E-18 ) ) ;
#147 = EDGE_CURVE ( 'NONE', #35, #163, #237, .T. ) ;
#148 = EDGE_CURVE ( 'NONE', #73, #234, #76, .T. ) ;
#149 = CARTESIAN_POINT ( 'NONE',  ( 3.306546357697854812E-18, 0.0000000000000000000, 0.02699999999999999969 ) ) ;
#150 = MECHANICAL_DESIGN_GEOMETRIC_PRESENTATION_REPRESENTATION (  '', ( #261 ), #54 ) ;
#151 = DIRECTION ( 'NONE',  ( -1.000000000000000000, 0.0000000000000000000, 0.0000000000000000000 ) ) ;
#152 = ADVANCED_FACE ( 'NONE', ( #64 ), #169, .T. ) ;
#153 = DIRECTION ( 'NONE',  ( -1.000000000000000000, 0.0000000000000000000, 1.224646799147353700E-16 ) ) ;
#154 = ADVANCED_FACE ( 'NONE', ( #296 ), #241, .T. ) ;
#155 = DIRECTION ( 'NONE',  ( -1.224646799147353700E-16, -0.0000000000000000000, -1.000000000000000000 ) ) ;
#156 = EDGE_LOOP ( 'NONE', ( #277, #202, #7, #257 ) ) ;
#157 = CARTESIAN_POINT ( 'NONE',  ( -0.06249999999999997918, 0.0000000000000000000, 0.3304646188859224898 ) ) ;
#158 = DIRECTION ( 'NONE',  ( 0.1736481776669313859, 0.0000000000000000000, 0.9848077530122077983 ) ) ;
#159 = AXIS2_PLACEMENT_3D ( 'NONE', #221, #259, #144 ) ;
#160 = ORIENTED_EDGE ( 'NONE', *, *, #224, .T. ) ;
#161 = ORIENTED_EDGE ( 'NONE', *, *, #60, .F. ) ;
#162 = VERTEX_POINT ( 'NONE', #264 ) ;
#163 = VERTEX_POINT ( 'NONE', #44 ) ;
#164 = DIRECTION ( 'NONE',  ( -1.224646799147353700E-16, -0.0000000000000000000, -1.000000000000000000 ) ) ;
#165 = FACE_OUTER_BOUND ( 'NONE', #156, .T. ) ;
#166 =( CONVERSION_BASED_UNIT ( 'INCH', #236 ) LENGTH_UNIT ( ) NAMED_UNIT ( #238 ) );
#167 =( CONVERSION_BASED_UNIT ( 'INCH', #239 ) LENGTH_UNIT ( ) NAMED_UNIT ( #127 ) );
#168 = DIRECTION ( 'NONE',  ( -1.000000000000000000, 0.0000000000000000000, 0.0000000000000000000 ) ) ;
#169 = PLANE ( 'NONE',  #47 ) ;
#170 = LINE ( 'NONE', #177, #186 ) ;
#171 = ADVANCED_FACE ( 'NONE', ( #131 ), #243, .T. ) ;
#172 = AXIS2_PLACEMENT_3D ( 'NONE', #146, #287, #102 ) ;
#173 = CARTESIAN_POINT ( 'NONE',  ( 0.0000000000000000000, 0.0000000000000000000, 0.0000000000000000000 ) ) ;
#174 = DIRECTION ( 'NONE',  ( 0.0000000000000000000, 0.0000000000000000000, 1.000000000000000000 ) ) ;
#175 = ADVANCED_FACE ( 'NONE', ( #29 ), #115, .T. ) ;
#176 = ORIENTED_EDGE ( 'NONE', *, *, #147, .F. ) ;
#177 = CARTESIAN_POINT ( 'NONE',  ( 0.008991000000000005932, 0.0000000000000000000, 0.02699999999999999969 ) ) ;
#178 = VERTEX_POINT ( 'NONE', #219 ) ;
#179 = DIRECTION ( 'NONE',  ( -1.000000000000000000, 0.0000000000000000000, 1.224646799147353700E-16 ) ) ;
#180 = COLOUR_RGB ( '',0.7921568627450980005, 0.8196078431372548767, 0.9333333333333333481 ) ;
#181 = ORIENTED_EDGE ( 'NONE', *, *, #53, .F. ) ;
#182 = EDGE_LOOP ( 'NONE', ( #119, #97, #121, #181 ) ) ;
#183 = ORIENTED_EDGE ( 'NONE', *, *, #223, .T. ) ;
#184 = DIRECTION ( 'NONE',  ( 0.0000000000000000000, 0.0000000000000000000, -1.000000000000000000 ) ) ;
#185 = DIRECTION ( 'NONE',  ( 1.000000000000000000, 0.0000000000000000000, 0.0000000000000000000 ) ) ;
#186 = VECTOR ( 'NONE', #158, 39.37007874015748143 ) ;
#187 = LINE ( 'NONE', #192, #98 ) ;
#188 = DIRECTION ( 'NONE',  ( -1.224646799147353700E-16, -0.0000000000000000000, -1.000000000000000000 ) ) ;
#189 = MANIFOLD_SOLID_BREP ( 'Cut-Revolve1', #72 ) ;
#190 = DIRECTION ( 'NONE',  ( 0.0000000000000000000, 0.0000000000000000000, 1.000000000000000000 ) ) ;
#191 = PRODUCT ( 'Micro_SME-018-2X', 'Micro_SME-018-2X', '', ( #195 ) ) ;
#192 = CARTESIAN_POINT ( 'NONE',  ( -0.008990999999999998993, 0.0000000000000000000, 1.101079937113385482E-18 ) ) ;
#193 = CIRCLE ( 'NONE', #82, 0.06250000000000002776 ) ;
#194 = CARTESIAN_POINT ( 'NONE',  ( 0.0000000000000000000, 0.0000000000000000000, 1.500000000000000222 ) ) ;
#195 = PRODUCT_CONTEXT ( 'NONE', #38, 'mechanical' ) ;
#196 = FILL_AREA_STYLE_COLOUR ( '', #180 ) ;
#197 = AXIS2_PLACEMENT_3D ( 'NONE', #93, #155, #179 ) ;
#198 = DIRECTION ( 'NONE',  ( 1.000000000000000000, 0.0000000000000000000, 0.0000000000000000000 ) ) ;
#199 = PRESENTATION_STYLE_ASSIGNMENT (( #25 ) ) ;
#200 = AXIS2_PLACEMENT_3D ( 'NONE', #285, #164, #168 ) ;
#201 = VERTEX_POINT ( 'NONE', #75 ) ;
#202 = ORIENTED_EDGE ( 'NONE', *, *, #60, .T. ) ;
#203 =( GEOMETRIC_REPRESENTATION_CONTEXT ( 3 ) GLOBAL_UNCERTAINTY_ASSIGNED_CONTEXT ( ( #114 ) ) GLOBAL_UNIT_ASSIGNED_CONTEXT ( ( #167, #258, #37 ) ) REPRESENTATION_CONTEXT ( 'NONE', 'WORKASPACE' ) );
#204 = EDGE_LOOP ( 'NONE', ( #51, #77, #9, #176 ) ) ;
#205 = ORIENTED_EDGE ( 'NONE', *, *, #233, .F. ) ;
#206 = SURFACE_STYLE_FILL_AREA ( #211 ) ;
#207 = CARTESIAN_POINT ( 'NONE',  ( 0.008990999999999998993, 1.101079937113385097E-18, -1.101079937113385482E-18 ) ) ;
#208 = FACE_OUTER_BOUND ( 'NONE', #140, .T. ) ;
#209 = PRODUCT_RELATED_PRODUCT_CATEGORY ( 'part', '', ( #191 ) ) ;
#210 = ORIENTED_EDGE ( 'NONE', *, *, #81, .T. ) ;
#211 = FILL_AREA_STYLE ('',( #280 ) ) ;
#212 = AXIS2_PLACEMENT_3D ( 'NONE', #279, #55, #143 ) ;
#213 = AXIS2_PLACEMENT_3D ( 'NONE', #288, #19, #198 ) ;
#214 = DIRECTION ( 'NONE',  ( 1.000000000000000000, 0.0000000000000000000, 0.0000000000000000000 ) ) ;
#215 = APPLICATION_PROTOCOL_DEFINITION ( 'draft international standard', 'automotive_design', 1998, #38 ) ;
#216 = ADVANCED_FACE ( 'NONE', ( #28 ), #272, .T. ) ;
#217 = CIRCLE ( 'NONE', #39, 0.06250000000000002776 ) ;
#218 = DIRECTION ( 'NONE',  ( -0.0000000000000000000, -0.0000000000000000000, -1.000000000000000000 ) ) ;
#219 = CARTESIAN_POINT ( 'NONE',  ( 0.008991000000000005932, 0.0000000000000000000, 0.02699999999999999969 ) ) ;
#220 = CIRCLE ( 'NONE', #90, 0.06250000000000002776 ) ;
#221 = CARTESIAN_POINT ( 'NONE',  ( 0.0000000000000000000, 0.0000000000000000000, 1.500000000000000222 ) ) ;
#222 = DIRECTION ( 'NONE',  ( -0.7071067811865462405, 0.0000000000000000000, -0.7071067811865486830 ) ) ;
#223 = EDGE_CURVE ( 'NONE', #73, #201, #274, .T. ) ;
#224 = EDGE_CURVE ( 'NONE', #234, #78, #69, .T. ) ;
#225 = VECTOR ( 'NONE', #293, 39.37007874015748143 ) ;
#226 = FACE_OUTER_BOUND ( 'NONE', #123, .T. ) ;
#227 = PRODUCT_DEFINITION_FORMATION_WITH_SPECIFIED_SOURCE ( 'ANY', '', #191, .NOT_KNOWN. ) ;
#228 = ORIENTED_EDGE ( 'NONE', *, *, #120, .F. ) ;
#229 = DIRECTION ( 'NONE',  ( -0.0000000000000000000, -0.0000000000000000000, -1.000000000000000000 ) ) ;
#230 = VERTEX_POINT ( 'NONE', #278 ) ;
#231 = ORIENTED_EDGE ( 'NONE', *, *, #233, .T. ) ;
#232 =( NAMED_UNIT ( * ) PLANE_ANGLE_UNIT ( ) SI_UNIT ( $, .RADIAN. ) );
#233 = EDGE_CURVE ( 'NONE', #230, #78, #250, .T. ) ;
#234 = VERTEX_POINT ( 'NONE', #246 ) ;
#235 = FACE_OUTER_BOUND ( 'NONE', #79, .T. ) ;
#236 = LENGTH_MEASURE_WITH_UNIT ( LENGTH_MEASURE( 0.02539999999999999897 ), #14 );
#237 = CIRCLE ( 'NONE', #197, 0.008990999999999997258 ) ;
#238 = DIMENSIONAL_EXPONENTS ( 1.000000000000000000, 0.0000000000000000000, 0.0000000000000000000, 0.0000000000000000000, 0.0000000000000000000, 0.0000000000000000000, 0.0000000000000000000 ) ;
#239 = LENGTH_MEASURE_WITH_UNIT ( LENGTH_MEASURE( 0.02539999999999999897 ), #104 );
#240 = DIRECTION ( 'NONE',  ( -1.000000000000000000, 0.0000000000000000000, 1.224646799147353700E-16 ) ) ;
#241 = CONICAL_SURFACE ( 'NONE', #65, 0.04750000000000064587, 0.7853981633974466137 ) ;
#242 = SURFACE_SIDE_STYLE ('',( #265 ) ) ;
#243 = CYLINDRICAL_SURFACE ( 'NONE', #245, 0.008990999999999998993 ) ;
#244 = EDGE_CURVE ( 'NONE', #201, #34, #270, .T. ) ;
#245 = AXIS2_PLACEMENT_3D ( 'NONE', #173, #88, #240 ) ;
#246 = CARTESIAN_POINT ( 'NONE',  ( -0.06250000000000002776, 0.0000000000000000000, 1.485000000000000764 ) ) ;
#247 = DIRECTION ( 'NONE',  ( -1.224646799147353700E-16, -0.0000000000000000000, -1.000000000000000000 ) ) ;
#248 = DIRECTION ( 'NONE',  ( -0.0000000000000000000, -0.0000000000000000000, -1.000000000000000000 ) ) ;
#249 = ORIENTED_EDGE ( 'NONE', *, *, #298, .F. ) ;
#250 = CIRCLE ( 'NONE', #213, 0.06250000000000002776 ) ;
#251 = ORIENTED_EDGE ( 'NONE', *, *, #291, .F. ) ;
#252 = CARTESIAN_POINT ( 'NONE',  ( 0.0000000000000000000, 0.0000000000000000000, 0.0000000000000000000 ) ) ;
#253 = ORIENTED_EDGE ( 'NONE', *, *, #263, .T. ) ;
#254 = ORIENTED_EDGE ( 'NONE', *, *, #95, .T. ) ;
#255 = DIRECTION ( 'NONE',  ( -1.224646799147353700E-16, -0.0000000000000000000, -1.000000000000000000 ) ) ;
#256 = PRESENTATION_LAYER_ASSIGNMENT (  '', '', ( #261 ) ) ;
#257 = ORIENTED_EDGE ( 'NONE', *, *, #95, .F. ) ;
#258 =( NAMED_UNIT ( * ) PLANE_ANGLE_UNIT ( ) SI_UNIT ( $, .RADIAN. ) );
#259 = DIRECTION ( 'NONE',  ( 0.0000000000000000000, 0.0000000000000000000, 1.000000000000000000 ) ) ;
#260 = DIRECTION ( 'NONE',  ( -0.1736481776669311916, 2.126576849575783316E-17, 0.9848077530122080203 ) ) ;
#261 = STYLED_ITEM ( 'NONE', ( #199 ), #189 ) ;
#262 = CARTESIAN_POINT ( 'NONE',  ( 4.047024377500950418E-17, 0.0000000000000000000, 0.3304646188859224898 ) ) ;
#263 = EDGE_CURVE ( 'NONE', #201, #73, #86, .T. ) ;
#264 = CARTESIAN_POINT ( 'NONE',  ( -0.008990999999999998993, 4.377561215892172573E-18, 0.02699999999999999969 ) ) ;
#265 = SURFACE_STYLE_FILL_AREA ( #129 ) ;
#266 = CARTESIAN_POINT ( 'NONE',  ( -0.06250000000000002776, 0.0000000000000000000, 1.500000000000000222 ) ) ;
#267 = AXIS2_PLACEMENT_3D ( 'NONE', #194, #27, #292 ) ;
#268 = EDGE_CURVE ( 'NONE', #163, #35, #132, .T. ) ;
#269 = UNCERTAINTY_MEASURE_WITH_UNIT (LENGTH_MEASURE( 1.000000000000000082E-05 ), #166, 'distance_accuracy_value', 'NONE');
#270 = LINE ( 'NONE', #45, #13 ) ;
#271 = ORIENTED_EDGE ( 'NONE', *, *, #147, .T. ) ;
#272 = CYLINDRICAL_SURFACE ( 'NONE', #30, 0.008990999999999998993 ) ;
#273 = CARTESIAN_POINT ( 'NONE',  ( 0.0000000000000000000, 0.0000000000000000000, 1.500000000000000222 ) ) ;
#274 = CIRCLE ( 'NONE', #267, 0.04750000000000064587 ) ;
#275 = ORIENTED_EDGE ( 'NONE', *, *, #291, .T. ) ;
#276 = ADVANCED_FACE ( 'NONE', ( #235 ), #290, .F. ) ;
#277 = ORIENTED_EDGE ( 'NONE', *, *, #107, .F. ) ;
#278 = CARTESIAN_POINT ( 'NONE',  ( 0.06250000000000006939, 7.654042494670963708E-18, 0.3304646188859224898 ) ) ;
#279 = CARTESIAN_POINT ( 'NONE',  ( 3.306546357697854812E-18, 0.0000000000000000000, 0.02699999999999999969 ) ) ;
#280 = FILL_AREA_STYLE_COLOUR ( '', #136 ) ;
#281 = LINE ( 'NONE', #207, #225 ) ;
#282 = ADVANCED_FACE ( 'NONE', ( #165 ), #59, .T. ) ;
#283 = AXIS2_PLACEMENT_3D ( 'NONE', #149, #42, #68 ) ;
#284 = DIRECTION ( 'NONE',  ( -1.000000000000000000, 0.0000000000000000000, 0.0000000000000000000 ) ) ;
#285 = CARTESIAN_POINT ( 'NONE',  ( 3.306546357697854812E-18, 0.0000000000000000000, 0.02699999999999999969 ) ) ;
#286 = CARTESIAN_POINT ( 'NONE',  ( 0.0000000000000000000, 0.0000000000000000000, 0.0000000000000000000 ) ) ;
#287 = DIRECTION ( 'NONE',  ( -1.224646799147353700E-16, -0.0000000000000000000, -1.000000000000000000 ) ) ;
#288 = CARTESIAN_POINT ( 'NONE',  ( 4.047024377500950418E-17, 0.0000000000000000000, 0.3304646188859224898 ) ) ;
#289 = AXIS2_PLACEMENT_3D ( 'NONE', #87, #20, #214 ) ;
#290 = PLANE ( 'NONE',  #122 ) ;
#291 = EDGE_CURVE ( 'NONE', #234, #34, #220, .T. ) ;
#292 = DIRECTION ( 'NONE',  ( 1.000000000000000000, 0.0000000000000000000, 0.0000000000000000000 ) ) ;
#293 = DIRECTION ( 'NONE',  ( -1.224646799147353700E-16, -0.0000000000000000000, -1.000000000000000000 ) ) ;
#294 =( NAMED_UNIT ( * ) PLANE_ANGLE_UNIT ( ) SI_UNIT ( $, .RADIAN. ) );
#295 = APPLICATION_PROTOCOL_DEFINITION ( 'draft international standard', 'automotive_design', 1998, #46 ) ;
#296 = FACE_OUTER_BOUND ( 'NONE', #182, .T. ) ;
#297 = VECTOR ( 'NONE', #229, 39.37007874015748143 ) ;
#298 = EDGE_CURVE ( 'NONE', #162, #163, #187, .T. ) ;
#299 = LINE ( 'NONE', #92, #297 ) ;
ENDSEC;
END-ISO-10303-21;
