ISO-10303-21;
HEADER;
FILE_DESCRIPTION (( 'STEP AP214' ),
    '1' );
FILE_NAME ('03210.STEP',
    '2023-06-22T15:03:02',
    ( '' ),
    ( '' ),
    'SwSTEP 2.0',
    'SolidWorks 2023',
    '' );
FILE_SCHEMA (( 'AUTOMOTIVE_DESIGN' ));
ENDSEC;

DATA;
#1 = VERTEX_POINT ( 'NONE', #149 ) ;
#2 = VERTEX_POINT ( 'NONE', #128 ) ;
#3 = ADVANCED_FACE ( 'NONE', ( #148 ), #127, .T. ) ;
#4 = PRESENTATION_LAYER_ASSIGNMENT (  '', '', ( #67 ) ) ;
#5 = PRESENTATION_LAYER_ASSIGNMENT (  '', '', ( #103 ) ) ;
#6 = ORIENTED_EDGE ( 'NONE', *, *, #283, .T. ) ;
#7 = EDGE_CURVE ( 'NONE', #174, #1, #247, .T. ) ;
#8 = FILL_AREA_STYLE_COLOUR ( '', #242 ) ;
#9 = MANIFOLD_SOLID_BREP ( 'Revolve - Cutting Edge', #263 ) ;
#10 = AXIS2_PLACEMENT_3D ( 'NONE', #300, #200, #91 ) ;
#11 = DIRECTION ( 'NONE',  ( 5.442874662877122010E-17, -1.000000000000000000, 0.000000000000000000 ) ) ;
#12 = CARTESIAN_POINT ( 'NONE',  ( 0.000000000000000000, 0.000000000000000000, 0.000000000000000000 ) ) ;
#13 = DIRECTION ( 'NONE',  ( -5.442874662877122010E-17, 1.000000000000000000, -0.000000000000000000 ) ) ;
#14 = AXIS2_PLACEMENT_3D ( 'NONE', #217, #249, #218 ) ;
#15 = DIRECTION ( 'NONE',  ( -1.000000000000000000, 0.000000000000000000, 0.000000000000000000 ) ) ;
#16 = CARTESIAN_POINT ( 'NONE',  ( 0.000000000000000000, 0.000000000000000000, 0.000000000000000000 ) ) ;
#17 = PRESENTATION_STYLE_ASSIGNMENT (( #238 ) ) ;
#18 = ADVANCED_FACE ( 'NONE', ( #274 ), #229, .F. ) ;
#19 = DIRECTION ( 'NONE',  ( 0.000000000000000000, -1.000000000000000000, -0.000000000000000000 ) ) ;
#21 = MECHANICAL_DESIGN_GEOMETRIC_PRESENTATION_REPRESENTATION (  '', ( #118 ), #63 ) ;
#20 = PRODUCT_DEFINITION_SHAPE ( 'NONE', 'NONE',  #171 ) ;
#22 = ORIENTED_EDGE ( 'NONE', *, *, #273, .T. ) ;
#23 = APPLICATION_PROTOCOL_DEFINITION ( 'draft international standard', 'automotive_design', 1998, #38 ) ;
#24 = DIRECTION ( 'NONE',  ( -0.000000000000000000, -1.000000000000000000, -0.000000000000000000 ) ) ;
#25 = DIMENSIONAL_EXPONENTS ( 1.000000000000000000, 0.000000000000000000, 0.000000000000000000, 0.000000000000000000, 0.000000000000000000, 0.000000000000000000, 0.000000000000000000 ) ;
#26 =( NAMED_UNIT ( * ) PLANE_ANGLE_UNIT ( ) SI_UNIT ( $, .RADIAN. ) );
#27 = MECHANICAL_DESIGN_GEOMETRIC_PRESENTATION_REPRESENTATION (  '', ( #259 ), #56 ) ;
#28 = ORIENTED_EDGE ( 'NONE', *, *, #286, .F. ) ;
#29 = EDGE_CURVE ( 'NONE', #1, #224, #299, .T. ) ;
#30 = ORIENTED_EDGE ( 'NONE', *, *, #29, .T. ) ;
#31 = ORIENTED_EDGE ( 'NONE', *, *, #257, .F. ) ;
#32 = ADVANCED_FACE ( 'NONE', ( #225 ), #234, .F. ) ;
#33 = LENGTH_MEASURE_WITH_UNIT ( LENGTH_MEASURE( 0.02539999999999999897 ), #277 );
#34 = SURFACE_STYLE_USAGE ( .BOTH. , #133 ) ;
#35 = PRESENTATION_STYLE_ASSIGNMENT (( #154 ) ) ;
#36 = UNCERTAINTY_MEASURE_WITH_UNIT (LENGTH_MEASURE( 1.000000000000000082E-05 ), #204, 'distance_accuracy_value', 'NONE');
#37 =( CONVERSION_BASED_UNIT ( 'INCH', #294 ) LENGTH_UNIT ( ) NAMED_UNIT ( #123 ) );
#38 = APPLICATION_CONTEXT ( 'automotive_design' ) ;
#39 = CARTESIAN_POINT ( 'NONE',  ( 0.1249999999999999167, 4.000000000000000000, 1.530808498934191817E-17 ) ) ;
#40 =( NAMED_UNIT ( * ) PLANE_ANGLE_UNIT ( ) SI_UNIT ( $, .RADIAN. ) );
#41 = PRESENTATION_STYLE_ASSIGNMENT (( #161 ) ) ;
#42 =( NAMED_UNIT ( * ) SI_UNIT ( $, .STERADIAN. ) SOLID_ANGLE_UNIT ( ) );
#43 = AXIS2_PLACEMENT_3D ( 'NONE', #239, #19, #116 ) ;
#44 = UNCERTAINTY_MEASURE_WITH_UNIT (LENGTH_MEASURE( 1.000000000000000082E-05 ), #135, 'distance_accuracy_value', 'NONE');
#45 = CIRCLE ( 'NONE', #230, 0.1250000000000001110 ) ;
#46 = CARTESIAN_POINT ( 'NONE',  ( 0.000000000000000000, 1.750000000000000000, 0.000000000000000000 ) ) ;
#47 = ADVANCED_FACE ( 'NONE', ( #203 ), #110, .T. ) ;
#48 = PRESENTATION_STYLE_ASSIGNMENT (( #261 ) ) ;
#49 = DIRECTION ( 'NONE',  ( 0.000000000000000000, 0.000000000000000000, -1.000000000000000000 ) ) ;
#50 = LENGTH_MEASURE_WITH_UNIT ( LENGTH_MEASURE( 0.02539999999999999897 ), #167 );
#51 = ORIENTED_EDGE ( 'NONE', *, *, #180, .F. ) ;
#52 =( GEOMETRIC_REPRESENTATION_CONTEXT ( 3 ) GLOBAL_UNCERTAINTY_ASSIGNED_CONTEXT ( ( #237 ) ) GLOBAL_UNIT_ASSIGNED_CONTEXT ( ( #117, #240, #42 ) ) REPRESENTATION_CONTEXT ( 'NONE', 'WORKASPACE' ) );
#53 =( LENGTH_UNIT ( ) NAMED_UNIT ( * ) SI_UNIT ( $, .METRE. ) );
#54 = EDGE_LOOP ( 'NONE', ( #104, #169, #268, #85 ) ) ;
#55 = ORIENTED_EDGE ( 'NONE', *, *, #286, .T. ) ;
#56 =( GEOMETRIC_REPRESENTATION_CONTEXT ( 3 ) GLOBAL_UNCERTAINTY_ASSIGNED_CONTEXT ( ( #185 ) ) GLOBAL_UNIT_ASSIGNED_CONTEXT ( ( #37, #233, #88 ) ) REPRESENTATION_CONTEXT ( 'NONE', 'WORKASPACE' ) );
#57 = DIRECTION ( 'NONE',  ( -0.000000000000000000, -1.000000000000000000, -0.000000000000000000 ) ) ;
#58 = EDGE_LOOP ( 'NONE', ( #55, #152 ) ) ;
#59 = PRESENTATION_STYLE_ASSIGNMENT (( #256 ) ) ;
#60 = CARTESIAN_POINT ( 'NONE',  ( 0.1249999999999999861, 4.000000000000000000, 0.000000000000000000 ) ) ;
#61 =( NAMED_UNIT ( * ) PLANE_ANGLE_UNIT ( ) SI_UNIT ( $, .RADIAN. ) );
#62 = ADVANCED_FACE ( 'NONE', ( #94 ), #177, .T. ) ;
#63 =( GEOMETRIC_REPRESENTATION_CONTEXT ( 3 ) GLOBAL_UNCERTAINTY_ASSIGNED_CONTEXT ( ( #160 ) ) GLOBAL_UNIT_ASSIGNED_CONTEXT ( ( #246, #221, #288 ) ) REPRESENTATION_CONTEXT ( 'NONE', 'WORKASPACE' ) );
#64 = FILL_AREA_STYLE ('',( #8 ) ) ;
#65 = PRESENTATION_STYLE_ASSIGNMENT (( #34 ) ) ;
#66 = APPLICATION_PROTOCOL_DEFINITION ( 'draft international standard', 'automotive_design', 1998, #70 ) ;
#67 = STYLED_ITEM ( 'NONE', ( #65 ), #62 ) ;
#68 = CIRCLE ( 'NONE', #298, 0.1250000000000000000 ) ;
#69 =( LENGTH_UNIT ( ) NAMED_UNIT ( * ) SI_UNIT ( $, .METRE. ) );
#70 = APPLICATION_CONTEXT ( 'automotive_design' ) ;
#71 = SURFACE_SIDE_STYLE ('',( #282 ) ) ;
#72 = PRODUCT ( '03210', '03210', '', ( #182 ) ) ;
#73 = CARTESIAN_POINT ( 'NONE',  ( 0.000000000000000000, 1.750000000000000000, 0.000000000000000000 ) ) ;
#74 = DIRECTION ( 'NONE',  ( -5.442874662877122626E-17, 1.000000000000000000, -0.000000000000000000 ) ) ;
#75 = CLOSED_SHELL ( 'NONE', ( #3, #32, #47, #18 ) ) ;
#76 = AXIS2_PLACEMENT_3D ( 'NONE', #78, #98, #211 ) ;
#77 = DIRECTION ( 'NONE',  ( 0.000000000000000000, -0.000000000000000000, 1.000000000000000000 ) ) ;
#78 = CARTESIAN_POINT ( 'NONE',  ( 0.000000000000000000, 1.750000000000000000, 0.000000000000000000 ) ) ;
#79 = EDGE_CURVE ( 'NONE', #210, #2, #165, .T. ) ;
#80 = ORIENTED_EDGE ( 'NONE', *, *, #101, .T. ) ;
#81 = PRESENTATION_LAYER_ASSIGNMENT (  '', '', ( #259 ) ) ;
#82 = MECHANICAL_DESIGN_GEOMETRIC_PRESENTATION_REPRESENTATION (  '', ( #125 ), #243 ) ;
#83 = DIRECTION ( 'NONE',  ( -5.442874662877122626E-17, 1.000000000000000000, -0.000000000000000000 ) ) ;
#84 =( NAMED_UNIT ( * ) PLANE_ANGLE_UNIT ( ) SI_UNIT ( $, .RADIAN. ) );
#85 = ORIENTED_EDGE ( 'NONE', *, *, #273, .F. ) ;
#86 = COLOUR_RGB ( '',0.7921568627450980005, 0.8196078431372548767, 0.9333333333333333481 ) ;
#87 = AXIS2_PLACEMENT_3D ( 'NONE', #184, #208, #305 ) ;
#88 =( NAMED_UNIT ( * ) SI_UNIT ( $, .STERADIAN. ) SOLID_ANGLE_UNIT ( ) );
#89 = FILL_AREA_STYLE_COLOUR ( '', #269 ) ;
#90 =( LENGTH_UNIT ( ) NAMED_UNIT ( * ) SI_UNIT ( $, .METRE. ) );
#91 = DIRECTION ( 'NONE',  ( -1.000000000000000000, 0.000000000000000000, 0.000000000000000000 ) ) ;
#92 = EDGE_CURVE ( 'NONE', #210, #223, #95, .T. ) ;
#93 = LENGTH_MEASURE_WITH_UNIT ( LENGTH_MEASURE( 0.02539999999999999897 ), #69 );
#94 = FACE_OUTER_BOUND ( 'NONE', #271, .T. ) ;
#95 = CIRCLE ( 'NONE', #76, 0.1249999999999999861 ) ;
#96 = FILL_AREA_STYLE_COLOUR ( '', #86 ) ;
#97 = DIRECTION ( 'NONE',  ( -5.442874662877122626E-17, 1.000000000000000000, -0.000000000000000000 ) ) ;
#98 = DIRECTION ( 'NONE',  ( -0.000000000000000000, -1.000000000000000000, -0.000000000000000000 ) ) ;
#99 = CARTESIAN_POINT ( 'NONE',  ( -1.224646799147352714E-16, 4.000000000000000000, 0.000000000000000000 ) ) ;
#100 = AXIS2_PLACEMENT_3D ( 'NONE', #60, #11, #153 ) ;
#101 = EDGE_CURVE ( 'NONE', #223, #210, #195, .T. ) ;
#102 = ORIENTED_EDGE ( 'NONE', *, *, #92, .F. ) ;
#103 = STYLED_ITEM ( 'NONE', ( #35 ), #231 ) ;
#104 = ORIENTED_EDGE ( 'NONE', *, *, #29, .F. ) ;
#105 = FILL_AREA_STYLE_COLOUR ( '', #207 ) ;
#106 = COLOUR_RGB ( '',1.000000000000000000, 0.000000000000000000, 0.000000000000000000 ) ;
#107 = FACE_OUTER_BOUND ( 'NONE', #181, .T. ) ;
#108 = DIRECTION ( 'NONE',  ( 0.000000000000000000, 0.000000000000000000, -1.000000000000000000 ) ) ;
#109 = FILL_AREA_STYLE ('',( #105 ) ) ;
#110 = CYLINDRICAL_SURFACE ( 'NONE', #10, 0.1250000000000000278 ) ;
#111 = CIRCLE ( 'NONE', #220, 0.1250000000000000000 ) ;
#112 = CARTESIAN_POINT ( 'NONE',  ( 0.000000000000000000, 0.000000000000000000, 0.000000000000000000 ) ) ;
#113 = FILL_AREA_STYLE_COLOUR ( '', #280 ) ;
#114 = CARTESIAN_POINT ( 'NONE',  ( -1.224646799147352714E-16, 4.000000000000000000, 0.000000000000000000 ) ) ;
#115 = SHAPE_DEFINITION_REPRESENTATION ( #20, #292 ) ;
#116 = DIRECTION ( 'NONE',  ( 0.000000000000000000, 0.000000000000000000, -1.000000000000000000 ) ) ;
#117 =( CONVERSION_BASED_UNIT ( 'INCH', #93 ) LENGTH_UNIT ( ) NAMED_UNIT ( #214 ) );
#118 = STYLED_ITEM ( 'NONE', ( #48 ), #219 ) ;
#119 = PRODUCT_RELATED_PRODUCT_CATEGORY ( 'part', '', ( #72 ) ) ;
#120 = DIRECTION ( 'NONE',  ( 0.000000000000000000, 0.000000000000000000, -1.000000000000000000 ) ) ;
#121 = LINE ( 'NONE', #306, #134 ) ;
#122 = UNCERTAINTY_MEASURE_WITH_UNIT (LENGTH_MEASURE( 1.000000000000000082E-05 ), #295, 'distance_accuracy_value', 'NONE');
#123 = DIMENSIONAL_EXPONENTS ( 1.000000000000000000, 0.000000000000000000, 0.000000000000000000, 0.000000000000000000, 0.000000000000000000, 0.000000000000000000, 0.000000000000000000 ) ;
#124 = AXIS2_PLACEMENT_3D ( 'NONE', #159, #155, #296 ) ;
#125 = STYLED_ITEM ( 'NONE', ( #59 ), #266 ) ;
#126 = ORIENTED_EDGE ( 'NONE', *, *, #132, .F. ) ;
#127 = CYLINDRICAL_SURFACE ( 'NONE', #14, 0.1250000000000000278 ) ;
#128 = CARTESIAN_POINT ( 'NONE',  ( 1.530808498934191509E-17, 0.000000000000000000, 0.1250000000000000000 ) ) ;
#129 = ORIENTED_EDGE ( 'NONE', *, *, #145, .F. ) ;
#130 = DIRECTION ( 'NONE',  ( 0.000000000000000000, 0.000000000000000000, -1.000000000000000000 ) ) ;
#131 =( LENGTH_UNIT ( ) NAMED_UNIT ( * ) SI_UNIT ( $, .METRE. ) );
#132 = EDGE_CURVE ( 'NONE', #223, #189, #121, .T. ) ;
#133 = SURFACE_SIDE_STYLE ('',( #278 ) ) ;
#134 = VECTOR ( 'NONE', #260, 39.37007874015748143 ) ;
#135 =( CONVERSION_BASED_UNIT ( 'INCH', #33 ) LENGTH_UNIT ( ) NAMED_UNIT ( #146 ) );
#136 = SURFACE_STYLE_FILL_AREA ( #196 ) ;
#137 = CARTESIAN_POINT ( 'NONE',  ( -0.1250000000000002220, 4.000000000000000000, 0.000000000000000000 ) ) ;
#138 = STYLED_ITEM ( 'NONE', ( #17 ), #190 ) ;
#139 = DIRECTION ( 'NONE',  ( -1.000000000000000000, 0.000000000000000000, 0.000000000000000000 ) ) ;
#140 = CARTESIAN_POINT ( 'NONE',  ( -0.1250000000000001388, 4.000000000000000000, 0.000000000000000000 ) ) ;
#141 = ORIENTED_EDGE ( 'NONE', *, *, #79, .F. ) ;
#142 = DIRECTION ( 'NONE',  ( 0.000000000000000000, 0.000000000000000000, -1.000000000000000000 ) ) ;
#143 = VECTOR ( 'NONE', #241, 39.37007874015748143 ) ;
#144 = FILL_AREA_STYLE ('',( #164 ) ) ;
#145 = EDGE_CURVE ( 'NONE', #174, #265, #308, .T. ) ;
#146 = DIMENSIONAL_EXPONENTS ( 1.000000000000000000, 0.000000000000000000, 0.000000000000000000, 0.000000000000000000, 0.000000000000000000, 0.000000000000000000, 0.000000000000000000 ) ;
#147 = VECTOR ( 'NONE', #13, 39.37007874015748143 ) ;
#148 = FACE_OUTER_BOUND ( 'NONE', #191, .T. ) ;
#149 = CARTESIAN_POINT ( 'NONE',  ( 0.1249999999999999861, 1.750000000000000000, 1.530808498934192125E-17 ) ) ;
#150 = CIRCLE ( 'NONE', #235, 0.1249999999999999861 ) ;
#151 =( NAMED_UNIT ( * ) SI_UNIT ( $, .STERADIAN. ) SOLID_ANGLE_UNIT ( ) );
#152 = ORIENTED_EDGE ( 'NONE', *, *, #257, .T. ) ;
#153 = DIRECTION ( 'NONE',  ( 1.000000000000000000, 5.442874662877122010E-17, 0.000000000000000000 ) ) ;
#154 = SURFACE_STYLE_USAGE ( .BOTH. , #255 ) ;
#155 = DIRECTION ( 'NONE',  ( -5.442874662877122010E-17, 1.000000000000000000, 0.000000000000000000 ) ) ;
#156 =( GEOMETRIC_REPRESENTATION_CONTEXT ( 3 ) GLOBAL_UNCERTAINTY_ASSIGNED_CONTEXT ( ( #122 ) ) GLOBAL_UNIT_ASSIGNED_CONTEXT ( ( #295, #61, #232 ) ) REPRESENTATION_CONTEXT ( 'NONE', 'WORKASPACE' ) );
#157 = CARTESIAN_POINT ( 'NONE',  ( 0.1249999999999999861, 4.000000000000000000, 1.530808498934192125E-17 ) ) ;
#158 = CARTESIAN_POINT ( 'NONE',  ( 0.000000000000000000, 0.000000000000000000, 0.000000000000000000 ) ) ;
#159 = CARTESIAN_POINT ( 'NONE',  ( 1.851555287236859217E-34, 1.750000000000000000, 0.000000000000000000 ) ) ;
#160 = UNCERTAINTY_MEASURE_WITH_UNIT (LENGTH_MEASURE( 1.000000000000000082E-05 ), #246, 'distance_accuracy_value', 'NONE');
#161 = SURFACE_STYLE_USAGE ( .BOTH. , #276 ) ;
#162 = MECHANICAL_DESIGN_GEOMETRIC_PRESENTATION_REPRESENTATION (  '', ( #67 ), #156 ) ;
#163 = DIRECTION ( 'NONE',  ( -1.000000000000000000, 0.000000000000000000, 0.000000000000000000 ) ) ;
#164 = FILL_AREA_STYLE_COLOUR ( '', #106 ) ;
#165 = LINE ( 'NONE', #209, #143 ) ;
#166 = AXIS2_PLACEMENT_3D ( 'NONE', #158, #57, #108 ) ;
#167 =( LENGTH_UNIT ( ) NAMED_UNIT ( * ) SI_UNIT ( $, .METRE. ) );
#168 = DIMENSIONAL_EXPONENTS ( 1.000000000000000000, 0.000000000000000000, 0.000000000000000000, 0.000000000000000000, 0.000000000000000000, 0.000000000000000000, 0.000000000000000000 ) ;
#169 = ORIENTED_EDGE ( 'NONE', *, *, #180, .T. ) ;
#170 = PRESENTATION_LAYER_ASSIGNMENT (  '', '', ( #138 ) ) ;
#171 = PRODUCT_DEFINITION ( 'UNKNOWN', '', #290, #179 ) ;
#172 = EDGE_LOOP ( 'NONE', ( #80, #206, #28, #126 ) ) ;
#173 = SURFACE_SIDE_STYLE ('',( #199 ) ) ;
#174 = VERTEX_POINT ( 'NONE', #186 ) ;
#175 =( NAMED_UNIT ( * ) SI_UNIT ( $, .STERADIAN. ) SOLID_ANGLE_UNIT ( ) );
#176 = AXIS2_PLACEMENT_3D ( 'NONE', #12, #275, #120 ) ;
#177 = PLANE ( 'NONE',  #228 ) ;
#178 =( LENGTH_UNIT ( ) NAMED_UNIT ( * ) SI_UNIT ( $, .METRE. ) );
#179 = PRODUCT_DEFINITION_CONTEXT ( 'detailed design', #38, 'design' ) ;
#180 = EDGE_CURVE ( 'NONE', #1, #174, #150, .T. ) ;
#181 = EDGE_LOOP ( 'NONE', ( #141, #293, #248, #31 ) ) ;
#182 = PRODUCT_CONTEXT ( 'NONE', #70, 'mechanical' ) ;
#183 = FILL_AREA_STYLE ('',( #96 ) ) ;
#184 = CARTESIAN_POINT ( 'NONE',  ( 0.000000000000000000, 0.000000000000000000, 0.000000000000000000 ) ) ;
#185 = UNCERTAINTY_MEASURE_WITH_UNIT (LENGTH_MEASURE( 1.000000000000000082E-05 ), #37, 'distance_accuracy_value', 'NONE');
#186 = CARTESIAN_POINT ( 'NONE',  ( -0.1249999999999999861, 1.750000000000000000, 0.000000000000000000 ) ) ;
#187 = CARTESIAN_POINT ( 'NONE',  ( 0.000000000000000000, 0.000000000000000000, -0.1250000000000000000 ) ) ;
#188 = SURFACE_SIDE_STYLE ('',( #213 ) ) ;
#189 = VERTEX_POINT ( 'NONE', #187 ) ;
#190 = ADVANCED_FACE ( 'NONE', ( #244 ), #301, .T. ) ;
#191 = EDGE_LOOP ( 'NONE', ( #264, #30, #194, #129 ) ) ;
#192 = EDGE_LOOP ( 'NONE', ( #6, #22 ) ) ;
#193 = EDGE_LOOP ( 'NONE', ( #216, #51 ) ) ;
#194 = ORIENTED_EDGE ( 'NONE', *, *, #283, .F. ) ;
#195 = CIRCLE ( 'NONE', #250, 0.1249999999999999861 ) ;
#196 = FILL_AREA_STYLE ('',( #113 ) ) ;
#197 = LENGTH_MEASURE_WITH_UNIT ( LENGTH_MEASURE( 0.02539999999999999897 ), #178 );
#198 = FACE_OUTER_BOUND ( 'NONE', #172, .T. ) ;
#199 = SURFACE_STYLE_FILL_AREA ( #109 ) ;
#200 = DIRECTION ( 'NONE',  ( -5.442874662877122626E-17, 1.000000000000000000, -0.000000000000000000 ) ) ;
#201 = MECHANICAL_DESIGN_GEOMETRIC_PRESENTATION_REPRESENTATION (  '', ( #103 ), #304 ) ;
#202 = LENGTH_MEASURE_WITH_UNIT ( LENGTH_MEASURE( 0.02539999999999999897 ), #90 );
#203 = FACE_OUTER_BOUND ( 'NONE', #54, .T. ) ;
#204 =( CONVERSION_BASED_UNIT ( 'INCH', #50 ) LENGTH_UNIT ( ) NAMED_UNIT ( #212 ) );
#205 = CARTESIAN_POINT ( 'NONE',  ( 1.530808498934191201E-17, 1.750000000000000000, 0.1249999999999999861 ) ) ;
#206 = ORIENTED_EDGE ( 'NONE', *, *, #79, .T. ) ;
#207 = COLOUR_RGB ( '',1.000000000000000000, 0.000000000000000000, 0.000000000000000000 ) ;
#208 = DIRECTION ( 'NONE',  ( 0.000000000000000000, 0.000000000000000000, 1.000000000000000000 ) ) ;
#209 = CARTESIAN_POINT ( 'NONE',  ( 1.530808498934191509E-17, 0.000000000000000000, 0.1250000000000000000 ) ) ;
#210 = VERTEX_POINT ( 'NONE', #205 ) ;
#211 = DIRECTION ( 'NONE',  ( 0.000000000000000000, 0.000000000000000000, -1.000000000000000000 ) ) ;
#212 = DIMENSIONAL_EXPONENTS ( 1.000000000000000000, 0.000000000000000000, 0.000000000000000000, 0.000000000000000000, 0.000000000000000000, 0.000000000000000000, 0.000000000000000000 ) ;
#213 = SURFACE_STYLE_FILL_AREA ( #144 ) ;
#214 = DIMENSIONAL_EXPONENTS ( 1.000000000000000000, 0.000000000000000000, 0.000000000000000000, 0.000000000000000000, 0.000000000000000000, 0.000000000000000000, 0.000000000000000000 ) ;
#215 = PRESENTATION_LAYER_ASSIGNMENT (  '', '', ( #125 ) ) ;
#216 = ORIENTED_EDGE ( 'NONE', *, *, #7, .F. ) ;
#217 = CARTESIAN_POINT ( 'NONE',  ( -1.224646799147352714E-16, 4.000000000000000000, 0.000000000000000000 ) ) ;
#218 = DIRECTION ( 'NONE',  ( -1.000000000000000000, 0.000000000000000000, 0.000000000000000000 ) ) ;
#219 = MANIFOLD_SOLID_BREP ( 'Revolve - Tool Body (Straight Shanked)', #75 ) ;
#220 = AXIS2_PLACEMENT_3D ( 'NONE', #112, #272, #130 ) ;
#221 =( NAMED_UNIT ( * ) PLANE_ANGLE_UNIT ( ) SI_UNIT ( $, .RADIAN. ) );
#222 = AXIS2_PLACEMENT_3D ( 'NONE', #114, #74, #139 ) ;
#223 = VERTEX_POINT ( 'NONE', #270 ) ;
#224 = VERTEX_POINT ( 'NONE', #157 ) ;
#225 = FACE_OUTER_BOUND ( 'NONE', #193, .T. ) ;
#226 = CYLINDRICAL_SURFACE ( 'NONE', #176, 0.1250000000000000000 ) ;
#227 = UNCERTAINTY_MEASURE_WITH_UNIT (LENGTH_MEASURE( 1.000000000000000082E-05 ), #297, 'distance_accuracy_value', 'NONE');
#228 = AXIS2_PLACEMENT_3D ( 'NONE', #73, #262, #77 ) ;
#229 = PLANE ( 'NONE',  #100 ) ;
#230 = AXIS2_PLACEMENT_3D ( 'NONE', #99, #97, #163 ) ;
#231 = ADVANCED_FACE ( 'NONE', ( #107 ), #302, .T. ) ;
#232 =( NAMED_UNIT ( * ) SI_UNIT ( $, .STERADIAN. ) SOLID_ANGLE_UNIT ( ) );
#233 =( NAMED_UNIT ( * ) PLANE_ANGLE_UNIT ( ) SI_UNIT ( $, .RADIAN. ) );
#234 = PLANE ( 'NONE',  #124 ) ;
#235 = AXIS2_PLACEMENT_3D ( 'NONE', #284, #287, #307 ) ;
#236 = DIRECTION ( 'NONE',  ( -0.000000000000000000, -1.000000000000000000, -0.000000000000000000 ) ) ;
#237 = UNCERTAINTY_MEASURE_WITH_UNIT (LENGTH_MEASURE( 1.000000000000000082E-05 ), #117, 'distance_accuracy_value', 'NONE');
#238 = SURFACE_STYLE_USAGE ( .BOTH. , #188 ) ;
#239 = CARTESIAN_POINT ( 'NONE',  ( 0.000000000000000000, 0.000000000000000000, 0.000000000000000000 ) ) ;
#240 =( NAMED_UNIT ( * ) PLANE_ANGLE_UNIT ( ) SI_UNIT ( $, .RADIAN. ) );
#241 = DIRECTION ( 'NONE',  ( -0.000000000000000000, -1.000000000000000000, -0.000000000000000000 ) ) ;
#242 = COLOUR_RGB ( '',1.000000000000000000, 0.000000000000000000, 0.000000000000000000 ) ;
#243 =( GEOMETRIC_REPRESENTATION_CONTEXT ( 3 ) GLOBAL_UNCERTAINTY_ASSIGNED_CONTEXT ( ( #227 ) ) GLOBAL_UNIT_ASSIGNED_CONTEXT ( ( #297, #84, #175 ) ) REPRESENTATION_CONTEXT ( 'NONE', 'WORKASPACE' ) );
#244 = FACE_OUTER_BOUND ( 'NONE', #58, .T. ) ;
#245 = DIMENSIONAL_EXPONENTS ( 1.000000000000000000, 0.000000000000000000, 0.000000000000000000, 0.000000000000000000, 0.000000000000000000, 0.000000000000000000, 0.000000000000000000 ) ;
#246 =( CONVERSION_BASED_UNIT ( 'INCH', #267 ) LENGTH_UNIT ( ) NAMED_UNIT ( #245 ) );
#247 = CIRCLE ( 'NONE', #303, 0.1249999999999999861 ) ;
#248 = ORIENTED_EDGE ( 'NONE', *, *, #132, .T. ) ;
#249 = DIRECTION ( 'NONE',  ( -5.442874662877122626E-17, 1.000000000000000000, -0.000000000000000000 ) ) ;
#250 = AXIS2_PLACEMENT_3D ( 'NONE', #46, #24, #49 ) ;
#251 = FILL_AREA_STYLE ('',( #89 ) ) ;
#252 = SURFACE_STYLE_FILL_AREA ( #64 ) ;
#253 =( GEOMETRIC_REPRESENTATION_CONTEXT ( 3 ) GLOBAL_UNCERTAINTY_ASSIGNED_CONTEXT ( ( #36 ) ) GLOBAL_UNIT_ASSIGNED_CONTEXT ( ( #204, #26, #279 ) ) REPRESENTATION_CONTEXT ( 'NONE', 'WORKASPACE' ) );
#254 = CIRCLE ( 'NONE', #222, 0.1250000000000001110 ) ;
#255 = SURFACE_SIDE_STYLE ('',( #252 ) ) ;
#256 = SURFACE_STYLE_USAGE ( .BOTH. , #173 ) ;
#257 = EDGE_CURVE ( 'NONE', #2, #189, #111, .T. ) ;
#258 = DIRECTION ( 'NONE',  ( -5.442874662877122010E-17, 1.000000000000000000, -0.000000000000000000 ) ) ;
#259 = STYLED_ITEM ( 'NONE', ( #41 ), #9 ) ;
#260 = DIRECTION ( 'NONE',  ( -0.000000000000000000, -1.000000000000000000, -0.000000000000000000 ) ) ;
#261 = SURFACE_STYLE_USAGE ( .BOTH. , #71 ) ;
#262 = DIRECTION ( 'NONE',  ( 0.000000000000000000, 1.000000000000000000, 0.000000000000000000 ) ) ;
#263 = CLOSED_SHELL ( 'NONE', ( #266, #62, #231, #190 ) ) ;
#264 = ORIENTED_EDGE ( 'NONE', *, *, #7, .T. ) ;
#265 = VERTEX_POINT ( 'NONE', #137 ) ;
#266 = ADVANCED_FACE ( 'NONE', ( #198 ), #226, .T. ) ;
#267 = LENGTH_MEASURE_WITH_UNIT ( LENGTH_MEASURE( 0.02539999999999999897 ), #53 );
#268 = ORIENTED_EDGE ( 'NONE', *, *, #145, .T. ) ;
#269 = COLOUR_RGB ( '',1.000000000000000000, 0.000000000000000000, 0.000000000000000000 ) ;
#270 = CARTESIAN_POINT ( 'NONE',  ( 0.000000000000000000, 1.750000000000000000, -0.1249999999999999861 ) ) ;
#271 = EDGE_LOOP ( 'NONE', ( #281, #102 ) ) ;
#272 = DIRECTION ( 'NONE',  ( -0.000000000000000000, -1.000000000000000000, -0.000000000000000000 ) ) ;
#273 = EDGE_CURVE ( 'NONE', #224, #265, #254, .T. ) ;
#274 = FACE_OUTER_BOUND ( 'NONE', #192, .T. ) ;
#275 = DIRECTION ( 'NONE',  ( -0.000000000000000000, -1.000000000000000000, -0.000000000000000000 ) ) ;
#276 = SURFACE_SIDE_STYLE ('',( #136 ) ) ;
#277 =( LENGTH_UNIT ( ) NAMED_UNIT ( * ) SI_UNIT ( $, .METRE. ) );
#278 = SURFACE_STYLE_FILL_AREA ( #251 ) ;
#279 =( NAMED_UNIT ( * ) SI_UNIT ( $, .STERADIAN. ) SOLID_ANGLE_UNIT ( ) );
#280 = COLOUR_RGB ( '',0.7921568627450980005, 0.8196078431372548767, 0.9333333333333333481 ) ;
#281 = ORIENTED_EDGE ( 'NONE', *, *, #101, .F. ) ;
#282 = SURFACE_STYLE_FILL_AREA ( #183 ) ;
#283 = EDGE_CURVE ( 'NONE', #265, #224, #45, .T. ) ;
#284 = CARTESIAN_POINT ( 'NONE',  ( 0.000000000000000000, 1.750000000000000000, 0.000000000000000000 ) ) ;
#285 = VECTOR ( 'NONE', #258, 39.37007874015748143 ) ;
#286 = EDGE_CURVE ( 'NONE', #189, #2, #68, .T. ) ;
#287 = DIRECTION ( 'NONE',  ( -5.442874662877122626E-17, 1.000000000000000000, -0.000000000000000000 ) ) ;
#288 =( NAMED_UNIT ( * ) SI_UNIT ( $, .STERADIAN. ) SOLID_ANGLE_UNIT ( ) );
#289 = PRESENTATION_LAYER_ASSIGNMENT (  '', '', ( #118 ) ) ;
#290 = PRODUCT_DEFINITION_FORMATION_WITH_SPECIFIED_SOURCE ( 'ANY', '', #72, .NOT_KNOWN. ) ;
#291 = CARTESIAN_POINT ( 'NONE',  ( 0.000000000000000000, 1.750000000000000000, 0.000000000000000000 ) ) ;
#292 = ADVANCED_BREP_SHAPE_REPRESENTATION ( '03210', ( #9, #219, #87 ), #52 ) ;
#293 = ORIENTED_EDGE ( 'NONE', *, *, #92, .T. ) ;
#294 = LENGTH_MEASURE_WITH_UNIT ( LENGTH_MEASURE( 0.02539999999999999897 ), #131 );
#295 =( CONVERSION_BASED_UNIT ( 'INCH', #197 ) LENGTH_UNIT ( ) NAMED_UNIT ( #25 ) );
#296 = DIRECTION ( 'NONE',  ( -1.000000000000000000, -5.442874662877122010E-17, 0.000000000000000000 ) ) ;
#297 =( CONVERSION_BASED_UNIT ( 'INCH', #202 ) LENGTH_UNIT ( ) NAMED_UNIT ( #168 ) );
#298 = AXIS2_PLACEMENT_3D ( 'NONE', #16, #236, #142 ) ;
#299 = LINE ( 'NONE', #39, #147 ) ;
#300 = CARTESIAN_POINT ( 'NONE',  ( -1.224646799147352714E-16, 4.000000000000000000, 0.000000000000000000 ) ) ;
#301 = PLANE ( 'NONE',  #43 ) ;
#302 = CYLINDRICAL_SURFACE ( 'NONE', #166, 0.1250000000000000000 ) ;
#303 = AXIS2_PLACEMENT_3D ( 'NONE', #291, #83, #15 ) ;
#304 =( GEOMETRIC_REPRESENTATION_CONTEXT ( 3 ) GLOBAL_UNCERTAINTY_ASSIGNED_CONTEXT ( ( #44 ) ) GLOBAL_UNIT_ASSIGNED_CONTEXT ( ( #135, #40, #151 ) ) REPRESENTATION_CONTEXT ( 'NONE', 'WORKASPACE' ) );
#305 = DIRECTION ( 'NONE',  ( 1.000000000000000000, 0.000000000000000000, 0.000000000000000000 ) ) ;
#306 = CARTESIAN_POINT ( 'NONE',  ( 0.000000000000000000, 0.000000000000000000, -0.1250000000000000000 ) ) ;
#307 = DIRECTION ( 'NONE',  ( -1.000000000000000000, 0.000000000000000000, 0.000000000000000000 ) ) ;
#308 = LINE ( 'NONE', #140, #285 ) ;
#309 = MECHANICAL_DESIGN_GEOMETRIC_PRESENTATION_REPRESENTATION (  '', ( #138 ), #253 ) ;
ENDSEC;
END-ISO-10303-21;
